  0
SECTION
  2
HEADER
  9
$ACADVER
  1
AC1009
  9
$INSBASE
 10
147.9864452701849
 20
451.41847794549949
 30
0.0
  9
$EXTMIN
 10
-0.0012496323023328
 20
-1.4863059202832001
 30
-0.0000000000000058
  9
$EXTMAX
 10
36.485694797554402
 20
112.5074020724968
 30
0.0000000000000104
  9
$LIMMIN
 10
0.0
 20
0.0
  9
$LIMMAX
 10
12.0
 20
9.0
  9
$ORTHOMODE
 70
     0
  9
$REGENMODE
 70
     1
  9
$FILLMODE
 70
     1
  9
$QTEXTMODE
 70
     0
  9
$MIRRTEXT
 70
     0
  9
$DRAGMODE
 70
     2
  9
$LTSCALE
 40
1.0
  9
$OSMODE
 70
    37
  9
$ATTMODE
 70
     1
  9
$TEXTSIZE
 40
0.2
  9
$TRACEWID
 40
0.05
  9
$TEXTSTYLE
  7
STANDARD
  9
$CLAYER
  8
0
  9
$CELTYPE
  6
BYLAYER
  9
$CECOLOR
 62
   256
  9
$DIMSCALE
 40
1.0
  9
$DIMASZ
 40
1.0
  9
$DIMEXO
 40
2.54
  9
$DIMDLI
 40
0.38
  9
$DIMRND
 40
0.0
  9
$DIMDLE
 40
0.0
  9
$DIMEXE
 40
2.54
  9
$DIMTP
 40
0.0
  9
$DIMTM
 40
0.0
  9
$DIMTXT
 40
3.2000000000000002
  9
$DIMCEN
 40
0.09
  9
$DIMTSZ
 40
0.0
  9
$DIMTOL
 70
     0
  9
$DIMLIM
 70
     0
  9
$DIMTIH
 70
     0
  9
$DIMTOH
 70
     0
  9
$DIMSE1
 70
     0
  9
$DIMSE2
 70
     0
  9
$DIMTAD
 70
     1
  9
$DIMZIN
 70
     0
  9
$DIMBLK
  1

  9
$DIMASO
 70
     1
  9
$DIMSHO
 70
     0
  9
$DIMPOST
  1

  9
$DIMAPOST
  1

  9
$DIMALT
 70
     0
  9
$DIMALTD
 70
     2
  9
$DIMALTF
 40
25.399999999999999
  9
$DIMLFAC
 40
1.0
  9
$DIMTOFL
 70
     0
  9
$DIMTVP
 40
1.0
  9
$DIMTIX
 70
     0
  9
$DIMSOXD
 70
     0
  9
$DIMSAH
 70
     1
  9
$DIMBLK1
  1

  9
$DIMBLK2
  1

  9
$DIMSTYLE
  2
STANDARD
  9
$DIMCLRD
 70
     0
  9
$DIMCLRE
 70
     0
  9
$DIMCLRT
 70
     0
  9
$DIMTFAC
 40
1.0
  9
$DIMGAP
 40
1.6000000000000001
  9
$LUNITS
 70
     2
  9
$LUPREC
 70
     4
  9
$SKETCHINC
 40
0.1
  9
$FILLETRAD
 40
0.5
  9
$AUNITS
 70
     0
  9
$AUPREC
 70
     0
  9
$MENU
  1
.
  9
$ELEVATION
 40
0.0
  9
$PELEVATION
 40
0.0
  9
$THICKNESS
 40
0.0
  9
$LIMCHECK
 70
     0
  9
$BLIPMODE
 70
     0
  9
$CHAMFERA
 40
0.2
  9
$CHAMFERB
 40
0.2
  9
$SKPOLY
 70
     0
  9
$TDCREATE
 40
2453173.4709223039
  9
$TDUPDATE
 40
2456892.6932589929
  9
$TDINDWG
 40
1.9646213078999999
  9
$TDUSRTIMER
 40
1.9646213078999999
  9
$USRTIMER
 70
     1
  9
$ANGBASE
 50
0.0
  9
$ANGDIR
 70
     0
  9
$PDMODE
 70
     0
  9
$PDSIZE
 40
0.0
  9
$PLINEWID
 40
0.0
  9
$COORDS
 70
     1
  9
$SPLFRAME
 70
     0
  9
$SPLINETYPE
 70
     6
  9
$SPLINESEGS
 70
     8
  9
$ATTDIA
 70
     0
  9
$ATTREQ
 70
     1
  9
$HANDLING
 70
     1
  9
$HANDSEED
  5
401
  9
$SURFTAB1
 70
     6
  9
$SURFTAB2
 70
     6
  9
$SURFTYPE
 70
     6
  9
$SURFU
 70
     6
  9
$SURFV
 70
     6
  9
$UCSNAME
  2

  9
$UCSORG
 10
0.0
 20
0.0
 30
0.0
  9
$UCSXDIR
 10
1.0
 20
0.0
 30
0.0
  9
$UCSYDIR
 10
0.0
 20
1.0
 30
0.0
  9
$PUCSNAME
  2

  9
$PUCSORG
 10
0.0
 20
0.0
 30
0.0
  9
$PUCSXDIR
 10
1.0
 20
0.0
 30
0.0
  9
$PUCSYDIR
 10
0.0
 20
1.0
 30
0.0
  9
$USERI1
 70
     0
  9
$USERI2
 70
     0
  9
$USERI3
 70
     0
  9
$USERI4
 70
     0
  9
$USERI5
 70
     0
  9
$USERR1
 40
0.0
  9
$USERR2
 40
0.0
  9
$USERR3
 40
0.0
  9
$USERR4
 40
0.0
  9
$USERR5
 40
0.0
  9
$WORLDVIEW
 70
     1
  9
$SHADEDGE
 70
     3
  9
$SHADEDIF
 70
    70
  9
$TILEMODE
 70
     1
  9
$MAXACTVP
 70
    64
  9
$PLIMCHECK
 70
     0
  9
$PEXTMIN
 10
1.0000000000000000E+020
 20
1.0000000000000000E+020
 30
1.0000000000000000E+020
  9
$PEXTMAX
 10
-1.0000000000000000E+020
 20
-1.0000000000000000E+020
 30
-1.0000000000000000E+020
  9
$PLIMMIN
 10
0.0
 20
0.0
  9
$PLIMMAX
 10
12.0
 20
9.0
  9
$UNITMODE
 70
     0
  9
$VISRETAIN
 70
     1
  9
$PLINEGEN
 70
     0
  9
$PSLTSCALE
 70
     1
  0
ENDSEC
  0
SECTION
  2
TABLES
  0
TABLE
  2
VPORT
 70
     1
  0
VPORT
  2
*ACTIVE
 70
     0
 10
0.0
 20
0.0
 11
1.0
 21
1.0
 12
18.242222582626031
 22
55.510548076106822
 13
0.0
 23
0.0
 14
1.0
 24
1.0
 15
0.0
 25
0.0
 16
0.0
 26
0.0
 36
1.0
 17
0.0
 27
0.0
 37
0.0
 40
114.9476302353974
 41
1.368715083798882
 42
50.0
 43
0.0
 44
0.0
 50
0.0
 51
0.0
 71
     0
 72
   100
 73
     1
 74
     1
 75
     0
 76
     0
 77
     0
 78
     0
  0
ENDTAB
  0
TABLE
  2
LTYPE
 70
     5
  0
LTYPE
  2
CONTINUOUS
 70
     0
  3
Solid line
 72
    65
 73
     0
 40
0.0
  0
LTYPE
  2
CENTER
 70
     0
  3
Center ____ _ ____ _ ____ _ ____ _ ____ _ ____
 72
    65
 73
     4
 40
12.0
 49
7.5
 49
-1.5
 49
1.5
 49
-1.5
  0
LTYPE
  2
HIDDEN
 70
     0
  3
Hidden __ __ __ __ __ __ __ __ __ __ __ __ __ _
 72
    65
 73
     2
 40
4.5
 49
3.0
 49
-1.5
  0
LTYPE
  2
PHANTOM
 70
     0
  3
Phantom ______  __  __  ______  __  __  ______
 72
    65
 73
     6
 40
15.0
 49
7.5
 49
-1.5
 49
1.5
 49
-1.5
 49
1.5
 49
-1.5
  0
LTYPE
  2
PHANTOM2
 70
     0
  3
___ _ _ ___ _ _ ___ _ _ ___ _ _
 72
    65
 73
     6
 40
1.25
 49
0.625
 49
-0.125
 49
0.125
 49
-0.125
 49
0.125
 49
-0.125
  0
ENDTAB
  0
TABLE
  2
LAYER
 70
     5
  0
LAYER
  2
0
 70
     0
 62
     7
  6
CONTINUOUS
  0
LAYER
  2
1
 70
     0
 62
     1
  6
CENTER
  0
LAYER
  2
2
 70
     0
 62
     2
  6
HIDDEN
  0
LAYER
  2
3
 70
     0
 62
     3
  6
CONTINUOUS
  0
LAYER
  2
5
 70
     0
 62
     3
  6
PHANTOM
  0
ENDTAB
  0
TABLE
  2
STYLE
 70
     2
  0
STYLE
  2
STANDARD
 70
     0
 40
0.0
 41
1.0
 50
0.0
 71
     0
 42
0.2
  3
simplex.shx
  4
bigfont.shx
  0
STYLE
  2
STANDARD1
 70
     0
 40
0.0
 41
1.0
 50
0.0
 71
     0
 42
3.0
  3
txt
  4

  0
ENDTAB
  0
TABLE
  2
VIEW
 70
     0
  0
ENDTAB
  0
TABLE
  2
UCS
 70
     0
  0
ENDTAB
  0
TABLE
  2
APPID
 70
     4
  0
APPID
  2
ACAD
 70
     0
  0
APPID
  2
ACAD_MLEADERVER
 70
     0
  0
APPID
  2
ACAD_EXEMPT_FROM_CAD_STANDARDS
 70
     0
  0
APPID
  2
ACAD_NAV_VCDISPLAY
 70
     0
  0
ENDTAB
  0
TABLE
  2
DIMSTYLE
 70
     1
  0
DIMSTYLE
  2
STANDARD
 70
     0
  3

  4

  5

  6

  7

 40
1.0
 41
0.18
 42
0.0625
 43
0.38
 44
0.18
 45
0.0
 46
0.0
 47
0.0
 48
0.0
140
0.18
141
0.09
142
0.0
143
25.399999999999999
144
1.0
145
0.0
146
1.0
147
0.09
 71
     0
 72
     0
 73
     1
 74
     1
 75
     0
 76
     0
 77
     0
 78
     0
170
     0
171
     2
172
     0
173
     0
174
     0
175
     0
176
     0
177
     0
178
     0
  0
ENDTAB
  0
ENDSEC
  0
SECTION
  2
BLOCKS
  0
BLOCK
  8
0
  2
$MODEL_SPACE
 70
     0
 10
0.0
 20
0.0
 30
0.0
  3
$MODEL_SPACE
  1

  0
ENDBLK
  5
9
  8
0
  0
BLOCK
 67
     1
  8
0
  2
$PAPER_SPACE
 70
     0
 10
0.0
 20
0.0
 30
0.0
  3
$PAPER_SPACE
  1

  0
ENDBLK
  5
E
 67
     1
  8
0
  0
ENDSEC
  0
SECTION
  2
ENTITIES
  0
LINE
  5
45
  8
0
 10
26.25
 20
69.999999999999943
 30
0.0
 11
9.7499999999999432
 21
69.999999999999943
 31
0.0
  0
LINE
  5
49
  8
0
 10
11.99999999999994
 20
58.0
 30
0.0
 11
11.99999999999971
 21
20.000000000000341
 31
0.0
  0
LINE
  5
4A
  8
3
 10
12.946999999999891
 20
56.359747885232252
 30
0.0
 11
12.94699999999977
 21
19.053000000000338
 31
0.0
  0
LINE
  5
4B
  8
0
 10
23.99999999999995
 20
57.999999999999993
 30
0.0
 11
23.999999999999709
 21
19.999999999999709
 31
0.0
  0
LINE
  5
4C
  8
3
 10
23.053000000000111
 20
56.359747885232252
 30
0.0
 11
23.05299999999977
 21
19.05299999999977
 31
0.0
  0
LINE
  5
54
  8
0
 10
11.249999999999771
 20
59.0
 30
0.0
 11
24.750000000000121
 21
59.0
 31
0.0
  0
LINE
  5
55
  8
0
 10
11.749999999999879
 20
58.0
 30
0.0
 11
24.25
 21
58.0
 31
0.0
  0
ARC
  5
56
  8
0
 10
9.7499999999999432
 20
69.499999999999943
 30
0.0
 40
0.5
 50
90.0
 51
190.3048464687659
  0
LINE
  5
57
  8
0
 10
9.2580650449500013
 20
69.410557280900036
 30
0.0
 11
11.250000000000229
 21
59.0
 31
0.0
  0
LINE
  5
58
  8
0
 10
11.24999999999994
 20
58.999999999999773
 30
0.0
 11
11.74999999999994
 21
58.0
 31
0.0
  0
LINE
  5
59
  8
3
 10
11.99999999999994
 20
56.359747885232252
 30
0.0
 11
24.0
 21
56.359747885232252
 31
0.0
  0
LINE
  5
5A
  8
0
 10
24.00000000000006
 20
20.0
 30
0.0
 11
12.0
 21
20.00000000000006
 31
0.0
  0
LINE
  5
5B
  8
0
 10
14.0
 20
18.00000000000006
 30
0.0
 11
12.0
 21
20.00000000000006
 31
0.0
  0
LINE
  5
5C
  8
0
 10
22.0
 20
17.99999999999994
 30
0.0
 11
24.0
 21
19.99999999999994
 31
0.0
  0
LINE
  5
5F
  8
0
 10
22.0
 20
17.99999999999994
 30
0.0
 11
14.0
 21
18.00000000000006
 31
0.0
  0
LINE
  5
60
  8
3
 10
12.946999999999941
 20
56.359747885232252
 30
0.0
 11
11.99999999999994
 21
58.0
 31
0.0
  0
LINE
  5
61
  8
3
 10
23.053000000000001
 20
56.359747885232252
 30
0.0
 11
24.0
 21
58.0
 31
0.0
  0
LINE
  5
64
  8
0
 10
24.75
 20
58.999999999999773
 30
0.0
 11
24.25
 21
58.0
 31
0.0
  0
LINE
  5
65
  8
0
 10
26.741934955049938
 20
69.410557280900036
 30
0.0
 11
24.75
 21
59.0
 31
0.0
  0
ARC
  5
66
  8
0
 10
26.25
 20
69.499999999999943
 30
0.0
 40
0.5
 50
349.69515353123398
 51
90.0
  0
LINE
  5
77
  8
1
 10
17.999999999999961
 20
74.999999999999957
 30
0.0
 11
17.99999999999994
 21
13.0
 31
0.0
  0
LINE
  5
B2
  8
0
 10
12.226497312804581
 20
98.750000000001307
 30
0.0
 11
15.113248658751809
 21
103.75000000000129
 31
0.0
  0
LINE
  5
B3
  8
0
 10
15.113248656399859
 20
93.750000004068553
 30
0.0
 11
12.22649731045172
 21
98.750000004068553
 31
0.0
  0
LINE
  5
B4
  8
0
 10
20.886751343595879
 20
93.750000004068553
 30
0.0
 11
15.1132486517005
 21
93.750000004068553
 31
0.0
  0
LINE
  5
B5
  8
0
 10
23.773502687194789
 20
98.750000000001307
 30
0.0
 11
20.88675134124756
 21
93.750000000001307
 31
0.0
  0
LINE
  5
B6
  8
0
 10
20.88675134359951
 20
103.7499999959268
 30
0.0
 11
23.773502689547652
 21
98.749999995930409
 31
0.0
  0
LINE
  5
B7
  8
0
 10
15.113248656399859
 20
103.74999999593039
 30
0.0
 11
20.886751348295231
 21
103.74999999593039
 31
0.0
  0
CIRCLE
  5
B8
  8
0
 10
17.999999999999972
 20
98.749999999999943
 30
0.0
 40
8.75
  0
TEXT
  5
184
  8
0
 62
     3
 10
0.0
 20
0.0
 30
0.0
 40
5.0
  1
MBID12-TB
  7
STANDARD1
  0
LINE
  5
1D9
  8
1
 10
4.2499999999999707
 20
98.749999999999943
 30
0.0
 11
31.749999999999972
 21
98.749999999999943
 31
0.0
  0
LINE
  5
1DA
  8
1
 10
17.999999999999972
 20
84.999999999999943
 30
0.0
 11
17.999999999999972
 21
112.4999999999999
 31
0.0
  0
ENDSEC
  0
EOF
