  0
SECTION
  2
HEADER
  9
$ACADVER
  1
AC1009
  9
$INSBASE
 10
0.0
 20
0.0
 30
0.0
  9
$EXTMIN
 10
0.0
 20
-1.4802182810368341
 30
0.0
  9
$EXTMAX
 10
81.1599999999999966
 20
56.1600000000000321
 30
0.0
  9
$LIMMIN
 10
0.0
 20
0.0
  9
$LIMMAX
 10
12.0
 20
9.0
  9
$ORTHOMODE
 70
     1
  9
$REGENMODE
 70
     1
  9
$FILLMODE
 70
     1
  9
$QTEXTMODE
 70
     0
  9
$MIRRTEXT
 70
     0
  9
$DRAGMODE
 70
     2
  9
$LTSCALE
 40
1.0
  9
$OSMODE
 70
    37
  9
$ATTMODE
 70
     1
  9
$TEXTSIZE
 40
0.2
  9
$TRACEWID
 40
0.05
  9
$TEXTSTYLE
  7
STANDARD
  9
$CLAYER
  8
0
  9
$CELTYPE
  6
BYLAYER
  9
$CECOLOR
 62
   256
  9
$DIMSCALE
 40
1.0
  9
$DIMASZ
 40
1.0
  9
$DIMEXO
 40
2.54
  9
$DIMDLI
 40
0.38
  9
$DIMRND
 40
0.0
  9
$DIMDLE
 40
0.0
  9
$DIMEXE
 40
2.54
  9
$DIMTP
 40
0.0
  9
$DIMTM
 40
0.0
  9
$DIMTXT
 40
3.2000000000000002
  9
$DIMCEN
 40
0.09
  9
$DIMTSZ
 40
0.0
  9
$DIMTOL
 70
     0
  9
$DIMLIM
 70
     0
  9
$DIMTIH
 70
     0
  9
$DIMTOH
 70
     0
  9
$DIMSE1
 70
     0
  9
$DIMSE2
 70
     0
  9
$DIMTAD
 70
     1
  9
$DIMZIN
 70
     0
  9
$DIMBLK
  1

  9
$DIMASO
 70
     1
  9
$DIMSHO
 70
     0
  9
$DIMPOST
  1

  9
$DIMAPOST
  1

  9
$DIMALT
 70
     0
  9
$DIMALTD
 70
     2
  9
$DIMALTF
 40
25.3999999999999986
  9
$DIMLFAC
 40
1.0
  9
$DIMTOFL
 70
     0
  9
$DIMTVP
 40
1.0
  9
$DIMTIX
 70
     0
  9
$DIMSOXD
 70
     0
  9
$DIMSAH
 70
     0
  9
$DIMBLK1
  1

  9
$DIMBLK2
  1

  9
$DIMSTYLE
  2
STANDARD
  9
$DIMCLRD
 70
     0
  9
$DIMCLRE
 70
     0
  9
$DIMCLRT
 70
     0
  9
$DIMTFAC
 40
1.0
  9
$DIMGAP
 40
1.6000000000000001
  9
$LUNITS
 70
     2
  9
$LUPREC
 70
     1
  9
$SKETCHINC
 40
0.1
  9
$FILLETRAD
 40
0.0
  9
$AUNITS
 70
     0
  9
$AUPREC
 70
     0
  9
$MENU
  1
.
  9
$ELEVATION
 40
0.0
  9
$PELEVATION
 40
0.0
  9
$THICKNESS
 40
0.0
  9
$LIMCHECK
 70
     0
  9
$BLIPMODE
 70
     0
  9
$CHAMFERA
 40
0.0
  9
$CHAMFERB
 40
0.0
  9
$SKPOLY
 70
     0
  9
$TDCREATE
 40
2453173.4709143522195518
  9
$TDUPDATE
 40
2460571.6584259262308478
  9
$TDINDWG
 40
0.6081256829
  9
$TDUSRTIMER
 40
0.6081256829
  9
$USRTIMER
 70
     1
  9
$ANGBASE
 50
0.0
  9
$ANGDIR
 70
     0
  9
$PDMODE
 70
     0
  9
$PDSIZE
 40
0.0
  9
$PLINEWID
 40
0.0
  9
$COORDS
 70
     1
  9
$SPLFRAME
 70
     0
  9
$SPLINETYPE
 70
     6
  9
$SPLINESEGS
 70
     8
  9
$ATTDIA
 70
     1
  9
$ATTREQ
 70
     1
  9
$HANDLING
 70
     1
  9
$HANDSEED
  5
21A9
  9
$SURFTAB1
 70
     6
  9
$SURFTAB2
 70
     6
  9
$SURFTYPE
 70
     6
  9
$SURFU
 70
     6
  9
$SURFV
 70
     6
  9
$UCSNAME
  2

  9
$UCSORG
 10
0.0
 20
0.0
 30
0.0
  9
$UCSXDIR
 10
1.0
 20
0.0
 30
0.0
  9
$UCSYDIR
 10
0.0
 20
1.0
 30
0.0
  9
$PUCSNAME
  2

  9
$PUCSORG
 10
0.0
 20
0.0
 30
0.0
  9
$PUCSXDIR
 10
1.0
 20
0.0
 30
0.0
  9
$PUCSYDIR
 10
0.0
 20
1.0
 30
0.0
  9
$USERI1
 70
     0
  9
$USERI2
 70
     0
  9
$USERI3
 70
     0
  9
$USERI4
 70
     0
  9
$USERI5
 70
     0
  9
$USERR1
 40
0.0
  9
$USERR2
 40
0.0
  9
$USERR3
 40
0.0
  9
$USERR4
 40
0.0
  9
$USERR5
 40
0.0
  9
$WORLDVIEW
 70
     1
  9
$SHADEDGE
 70
     3
  9
$SHADEDIF
 70
    70
  9
$TILEMODE
 70
     1
  9
$MAXACTVP
 70
    64
  9
$PLIMCHECK
 70
     0
  9
$PEXTMIN
 10
1.0000000000000000E+20
 20
1.0000000000000000E+20
 30
1.0000000000000000E+20
  9
$PEXTMAX
 10
-1.0000000000000000E+20
 20
-1.0000000000000000E+20
 30
-1.0000000000000000E+20
  9
$PLIMMIN
 10
0.0
 20
0.0
  9
$PLIMMAX
 10
12.0
 20
9.0
  9
$UNITMODE
 70
     0
  9
$VISRETAIN
 70
     1
  9
$PLINEGEN
 70
     0
  9
$PSLTSCALE
 70
     1
  0
ENDSEC
  0
SECTION
  2
TABLES
  0
TABLE
  2
VPORT
 70
     1
  0
VPORT
  2
*ACTIVE
 70
     0
 10
0.0
 20
0.0
 11
1.0
 21
1.0
 12
234.8522167487685124
 22
100.0
 13
0.0
 23
0.0
 14
1.0
 24
1.0
 15
0.0
 25
0.0
 16
0.0
 26
0.0
 36
1.0
 17
0.0
 27
0.0
 37
0.0
 40
200.0
 41
2.3485221674876842
 42
50.0
 43
0.0
 44
0.0
 50
0.0
 51
0.0
 71
     0
 72
   100
 73
     1
 74
     1
 75
     0
 76
     0
 77
     0
 78
     0
  0
ENDTAB
  0
TABLE
  2
LTYPE
 70
     4
  0
LTYPE
  2
CONTINUOUS
 70
     0
  3
Solid line
 72
    65
 73
     0
 40
0.0
  0
LTYPE
  2
CENTER
 70
     0
  3
Center ____ _ ____ _ ____ _ ____ _ ____ _ ____
 72
    65
 73
     4
 40
12.0
 49
7.5
 49
-1.5
 49
1.5
 49
-1.5
  0
LTYPE
  2
PHANTOM2
 70
     0
  3
___ _ _ ___ _ _ ___ _ _ ___ _ _
 72
    65
 73
     6
 40
1.25
 49
0.625
 49
-0.125
 49
0.125
 49
-0.125
 49
0.125
 49
-0.125
  0
LTYPE
  2
HIDDEN
 70
     0
  3
Hidden __ __ __ __ __ __ __ __ __ __ __ __ __ __
 72
    65
 73
     2
 40
1.905
 49
1.27
 49
-0.635
  0
ENDTAB
  0
TABLE
  2
LAYER
 70
     4
  0
LAYER
  2
0
 70
     0
 62
     7
  6
CONTINUOUS
  0
LAYER
  2
1
 70
     0
 62
     1
  6
CENTER
  0
LAYER
  2
DEFPOINTS
 70
     0
 62
     7
  6
CONTINUOUS
  0
LAYER
  2
2
 70
     0
 62
     2
  6
HIDDEN
  0
ENDTAB
  0
TABLE
  2
STYLE
 70
     2
  0
STYLE
  2
STANDARD
 70
     0
 40
0.0
 41
1.0
 50
0.0
 71
     0
 42
0.2
  3
simplex.shx
  4
bigfont.shx
  0
STYLE
  2
STANDARD1
 70
     0
 40
0.0
 41
1.0
 50
0.0
 71
     0
 42
3.0
  3
txt
  4

  0
ENDTAB
  0
TABLE
  2
VIEW
 70
     1
  0
VIEW
  2
OLE1
 70
     0
 40
197.4252932059577006
 10
17.193614989164999
 20
148.546868329622896
 41
248.2191793220536056
 11
0.0
 21
0.0
 31
1.0
 12
0.0
 22
0.0
 32
0.0
 42
50.0
 43
0.0
 44
0.0
 50
0.0
 71
     0
  0
ENDTAB
  0
TABLE
  2
UCS
 70
     0
  0
ENDTAB
  0
TABLE
  2
APPID
 70
     7
  0
APPID
  2
ACAD
 70
     0
  0
APPID
  2
ACAD_MLEADERVER
 70
     0
  0
APPID
  2
ACAD_NAV_VCDISPLAY
 70
     0
  0
APPID
  2
ACAD_EXEMPT_FROM_CAD_STANDARDS
 70
     0
  0
APPID
  2
ACAD_TC
 70
     0
  0
APPID
  2
ACAD_DSTYLE_DIMJAG
 70
     0
  0
APPID
  2
ACAD_DSTYLE_DIMTALN
 70
     0
  0
ENDTAB
  0
TABLE
  2
DIMSTYLE
 70
     1
  0
DIMSTYLE
  2
STANDARD
 70
     0
  3

  4

  5

  6

  7

 40
1.0
 41
0.18
 42
0.0625
 43
0.38
 44
0.18
 45
0.0
 46
0.0
 47
0.0
 48
0.0
140
0.18
141
0.09
142
0.0
143
25.3999999999999986
144
1.0
145
0.0
146
1.0
147
0.09
 71
     0
 72
     0
 73
     1
 74
     1
 75
     0
 76
     0
 77
     0
 78
     0
170
     0
171
     2
172
     0
173
     0
174
     0
175
     0
176
     0
177
     0
178
     0
  0
ENDTAB
  0
ENDSEC
  0
SECTION
  2
BLOCKS
  0
BLOCK
  8
0
  2
$MODEL_SPACE
 70
     0
 10
0.0
 20
0.0
 30
0.0
  3
$MODEL_SPACE
  1

  0
ENDBLK
  5
9
  8
0
  0
BLOCK
 67
     1
  8
0
  2
$PAPER_SPACE
 70
     0
 10
0.0
 20
0.0
 30
0.0
  3
$PAPER_SPACE
  1

  0
ENDBLK
  5
E
 67
     1
  8
0
  0
ENDSEC
  0
SECTION
  2
ENTITIES
  0
TEXT
  5
141
  8
0
 62
     3
 10
0.0
 20
0.0
 30
0.0
 40
5.0
  1
MBSC04P
  7
STANDARD1
  0
LINE
  5
20EC
  8
0
 10
58.1169422217038232
 20
43.8400000000000034
 30
0.0
 11
58.1169422217038232
 21
56.1600000000000321
 31
0.0
  0
LINE
  5
20ED
  8
0
 10
57.4769422217038368
 20
43.8400000000000034
 30
0.0
 11
57.4769422217038368
 21
56.1600000000000321
 31
0.0
  0
LINE
  5
20EE
  8
0
 10
45.6669422217038274
 20
43.8400000000000034
 30
0.0
 11
45.6669422217038274
 21
56.1600000000000321
 31
0.0
  0
ARC
  5
20EF
  8
0
 10
49.7269422217038368
 20
50.0
 30
0.0
 40
2.3899999999999859
 50
90.0
 51
270.0000000000007958
  0
LINE
  5
20F0
  8
0
 10
50.2469422217038471
 20
47.6100000000000065
 30
0.0
 11
49.7269422217038368
 21
47.6100000000000065
 31
0.0
  0
LINE
  5
20F1
  8
0
 10
49.7269422217038368
 20
52.3899999999999793
 30
0.0
 11
50.2469422217038471
 21
52.3899999999999793
 31
0.0
  0
ARC
  5
20F2
  8
0
 10
50.2469422217038471
 20
50.0
 30
0.0
 40
2.3899999999999859
 50
270.0000000000007958
 51
90.0
  0
LINE
  5
20F3
  8
0
 10
58.1169422217038232
 20
43.8400000000000034
 30
0.0
 11
45.6669422217038274
 21
43.8400000000000034
 31
0.0
  0
LINE
  5
20F4
  8
0
 10
58.1169422217038232
 20
56.1600000000000321
 30
0.0
 11
45.6669422217038274
 21
56.1600000000000321
 31
0.0
  0
LINE
  5
20F5
  8
0
 10
45.6669422217038274
 20
25.6400000000000183
 30
0.0
 11
45.6669422217038274
 21
25.0
 31
0.0
  0
LINE
  5
20F6
  8
0
 10
56.836942221703822
 20
25.6400000000000183
 30
0.0
 11
45.6669422217038274
 21
25.6400000000000183
 31
0.0
  0
ARC
  5
20F7
  8
0
 10
56.836942221703822
 20
26.2800000000000011
 30
0.0
 40
0.6400000000000006
 50
270.0000000000007958
 51
0.0
  0
LINE
  5
20F8
  8
0
 10
57.4769422217038368
 20
30.2999999999999901
 30
0.0
 11
57.4769422217038368
 21
26.2800000000000011
 31
0.0
  0
LINE
  5
20F9
  8
0
 10
58.1169422217038232
 20
30.3000000000000007
 30
0.0
 11
57.4769422217038368
 21
30.3000000000000007
 31
0.0
  0
LINE
  5
20FA
  8
0
 10
58.1169422217038232
 20
26.2800000000000011
 30
0.0
 11
58.1169422217038232
 21
30.2999999999999901
 31
0.0
  0
ARC
  5
20FB
  8
0
 10
56.836942221703822
 20
26.2800000000000011
 30
0.0
 40
1.2800000000000009
 50
270.0000000000007958
 51
0.0
  0
LINE
  5
20FC
  8
0
 10
45.6669422217038274
 20
25.0
 30
0.0
 11
56.836942221703822
 21
25.0
 31
0.0
  0
LINE
  5
20FD
  8
0
 10
31.1600000000001103
 20
25.6400000000000183
 30
0.0
 11
18.8400000000000993
 21
25.6400000000000183
 31
0.0
  0
LINE
  5
20FE
  8
0
 10
31.1600000000000001
 20
25.0
 30
0.0
 11
18.8399999999999892
 21
25.0
 31
0.0
  0
LINE
  5
20FF
  8
0
 10
31.1600000000000001
 20
30.3000000000000007
 30
0.0
 11
18.8399999999999892
 21
30.3000000000000007
 31
0.0
  0
LINE
  5
2100
  8
0
 10
31.1600000000000001
 20
30.3000000000000007
 30
0.0
 11
31.1600000000000001
 21
25.0
 31
0.0
  0
LINE
  5
2101
  8
0
 10
18.8399999999999892
 20
30.3000000000000007
 30
0.0
 11
18.8399999999999892
 21
25.0
 31
0.0
  0
LINE
  5
2102
  8
0
 10
68.8400000000000034
 20
25.0
 30
0.0
 11
81.1599999999999966
 21
25.0
 31
0.0
  0
LINE
  5
2103
  8
0
 10
68.8400000000000034
 20
25.0
 30
0.0
 11
68.8400000000000034
 21
30.3000000000000007
 31
0.0
  0
LINE
  5
2104
  8
0
 10
68.8400000000000034
 20
30.3000000000000007
 30
0.0
 11
81.1599999999999966
 21
30.3000000000000007
 31
0.0
  0
LINE
  5
2105
  8
0
 10
81.1599999999999966
 20
25.0
 30
0.0
 11
81.1599999999999966
 21
30.3000000000000007
 31
0.0
  0
LINE
  5
2106
  8
1
 10
75.0000000000000142
 20
33.2999999999999972
 30
0.0
 11
75.0000000000000284
 21
22.0
 31
0.0
  0
LINE
  5
2107
  8
2
 10
77.3900000000000148
 20
25.6400000000000183
 30
0.0
 11
77.3900000000000148
 21
25.0
 31
0.0
  0
LINE
  5
2108
  8
2
 10
72.6100000000000421
 20
25.6400000000000183
 30
0.0
 11
72.6100000000000421
 21
25.0
 31
0.0
  0
LINE
  5
2109
  8
2
 10
68.8400000000000034
 20
25.6400000000000183
 30
0.0
 11
81.1599999999999966
 21
25.6400000000000183
 31
0.0
  0
LINE
  5
210A
  8
1
 10
42.6669422217038132
 20
50.0
 30
0.0
 11
61.1169422217038232
 21
50.0
 31
0.0
  0
LINE
  5
210B
  8
1
 10
49.7269422217038084
 20
53.8899999999999935
 30
0.0
 11
49.7269422217038866
 21
46.1100000000000065
 31
0.0
  0
LINE
  5
210C
  8
1
 10
50.2469422217038115
 20
53.8899999999999935
 30
0.0
 11
50.2469422217038968
 21
46.1100000000000065
 31
0.0
  0
LINE
  5
210D
  8
1
 10
25.0
 20
33.2999999999999972
 30
0.0
 11
25.0
 21
22.0
 31
0.0
  0
LINE
  5
210E
  8
2
 10
27.3899999999999899
 20
25.6400000000000183
 30
0.0
 11
27.3899999999999899
 21
25.0
 31
0.0
  0
LINE
  5
210F
  8
2
 10
22.6100000000000101
 20
25.6400000000000183
 30
0.0
 11
22.6100000000000101
 21
25.0
 31
0.0
  0
LINE
  5
2110
  8
1
 10
49.7269422217038084
 20
27.1400000000000183
 30
0.0
 11
49.7269422217038084
 21
23.5
 31
0.0
  0
LINE
  5
2111
  8
1
 10
50.2469422217038471
 20
27.1400000000000183
 30
0.0
 11
50.2469422217038471
 21
23.5
 31
0.0
  0
LINE
  5
2112
  8
2
 10
47.3369422217038505
 20
25.6400000000000183
 30
0.0
 11
47.3369422217038505
 21
25.0
 31
0.0
  0
LINE
  5
2113
  8
2
 10
52.6369422217038334
 20
25.6400000000000183
 30
0.0
 11
52.6369422217038334
 21
25.0
 31
0.0
  0
ENDSEC
  0
EOF
