  0
SECTION
  2
HEADER
  9
$ACADVER
  1
AC1009
  9
$INSBASE
 10
0.0
 20
0.0
 30
0.0
  9
$EXTMIN
 10
0.0
 20
-1.4802182810368341
 30
0.0
  9
$EXTMAX
 10
84.3900000000000148
 20
59.3900000000000077
 30
0.0
  9
$LIMMIN
 10
0.0
 20
0.0
  9
$LIMMAX
 10
12.0
 20
9.0
  9
$ORTHOMODE
 70
     0
  9
$REGENMODE
 70
     1
  9
$FILLMODE
 70
     1
  9
$QTEXTMODE
 70
     0
  9
$MIRRTEXT
 70
     0
  9
$DRAGMODE
 70
     2
  9
$LTSCALE
 40
1.0
  9
$OSMODE
 70
    37
  9
$ATTMODE
 70
     1
  9
$TEXTSIZE
 40
0.2
  9
$TRACEWID
 40
0.05
  9
$TEXTSTYLE
  7
STANDARD
  9
$CLAYER
  8
0
  9
$CELTYPE
  6
BYLAYER
  9
$CECOLOR
 62
   256
  9
$DIMSCALE
 40
1.0
  9
$DIMASZ
 40
1.0
  9
$DIMEXO
 40
2.54
  9
$DIMDLI
 40
0.38
  9
$DIMRND
 40
0.0
  9
$DIMDLE
 40
0.0
  9
$DIMEXE
 40
2.54
  9
$DIMTP
 40
0.0
  9
$DIMTM
 40
0.0
  9
$DIMTXT
 40
3.2000000000000002
  9
$DIMCEN
 40
0.09
  9
$DIMTSZ
 40
0.0
  9
$DIMTOL
 70
     0
  9
$DIMLIM
 70
     0
  9
$DIMTIH
 70
     0
  9
$DIMTOH
 70
     0
  9
$DIMSE1
 70
     0
  9
$DIMSE2
 70
     0
  9
$DIMTAD
 70
     1
  9
$DIMZIN
 70
     0
  9
$DIMBLK
  1

  9
$DIMASO
 70
     1
  9
$DIMSHO
 70
     0
  9
$DIMPOST
  1

  9
$DIMAPOST
  1

  9
$DIMALT
 70
     0
  9
$DIMALTD
 70
     2
  9
$DIMALTF
 40
25.3999999999999986
  9
$DIMLFAC
 40
1.0
  9
$DIMTOFL
 70
     0
  9
$DIMTVP
 40
1.0
  9
$DIMTIX
 70
     0
  9
$DIMSOXD
 70
     0
  9
$DIMSAH
 70
     0
  9
$DIMBLK1
  1

  9
$DIMBLK2
  1

  9
$DIMSTYLE
  2
STANDARD
  9
$DIMCLRD
 70
     0
  9
$DIMCLRE
 70
     0
  9
$DIMCLRT
 70
     0
  9
$DIMTFAC
 40
1.0
  9
$DIMGAP
 40
1.6000000000000001
  9
$LUNITS
 70
     2
  9
$LUPREC
 70
     1
  9
$SKETCHINC
 40
0.1
  9
$FILLETRAD
 40
0.0
  9
$AUNITS
 70
     0
  9
$AUPREC
 70
     0
  9
$MENU
  1
.
  9
$ELEVATION
 40
0.0
  9
$PELEVATION
 40
0.0
  9
$THICKNESS
 40
0.0
  9
$LIMCHECK
 70
     0
  9
$BLIPMODE
 70
     0
  9
$CHAMFERA
 40
0.0
  9
$CHAMFERB
 40
0.0
  9
$SKPOLY
 70
     0
  9
$TDCREATE
 40
2453173.4709143522195518
  9
$TDUPDATE
 40
2460571.6584374997764826
  9
$TDINDWG
 40
0.6125817014
  9
$TDUSRTIMER
 40
0.6125817014
  9
$USRTIMER
 70
     1
  9
$ANGBASE
 50
0.0
  9
$ANGDIR
 70
     0
  9
$PDMODE
 70
     0
  9
$PDSIZE
 40
0.0
  9
$PLINEWID
 40
0.0
  9
$COORDS
 70
     1
  9
$SPLFRAME
 70
     0
  9
$SPLINETYPE
 70
     6
  9
$SPLINESEGS
 70
     8
  9
$ATTDIA
 70
     1
  9
$ATTREQ
 70
     1
  9
$HANDLING
 70
     1
  9
$HANDSEED
  5
21F1
  9
$SURFTAB1
 70
     6
  9
$SURFTAB2
 70
     6
  9
$SURFTYPE
 70
     6
  9
$SURFU
 70
     6
  9
$SURFV
 70
     6
  9
$UCSNAME
  2

  9
$UCSORG
 10
0.0
 20
0.0
 30
0.0
  9
$UCSXDIR
 10
1.0
 20
0.0
 30
0.0
  9
$UCSYDIR
 10
0.0
 20
1.0
 30
0.0
  9
$PUCSNAME
  2

  9
$PUCSORG
 10
0.0
 20
0.0
 30
0.0
  9
$PUCSXDIR
 10
1.0
 20
0.0
 30
0.0
  9
$PUCSYDIR
 10
0.0
 20
1.0
 30
0.0
  9
$USERI1
 70
     0
  9
$USERI2
 70
     0
  9
$USERI3
 70
     0
  9
$USERI4
 70
     0
  9
$USERI5
 70
     0
  9
$USERR1
 40
0.0
  9
$USERR2
 40
0.0
  9
$USERR3
 40
0.0
  9
$USERR4
 40
0.0
  9
$USERR5
 40
0.0
  9
$WORLDVIEW
 70
     1
  9
$SHADEDGE
 70
     3
  9
$SHADEDIF
 70
    70
  9
$TILEMODE
 70
     1
  9
$MAXACTVP
 70
    64
  9
$PLIMCHECK
 70
     0
  9
$PEXTMIN
 10
1.0000000000000000E+20
 20
1.0000000000000000E+20
 30
1.0000000000000000E+20
  9
$PEXTMAX
 10
-1.0000000000000000E+20
 20
-1.0000000000000000E+20
 30
-1.0000000000000000E+20
  9
$PLIMMIN
 10
0.0
 20
0.0
  9
$PLIMMAX
 10
12.0
 20
9.0
  9
$UNITMODE
 70
     0
  9
$VISRETAIN
 70
     1
  9
$PLINEGEN
 70
     0
  9
$PSLTSCALE
 70
     1
  0
ENDSEC
  0
SECTION
  2
TABLES
  0
TABLE
  2
VPORT
 70
     1
  0
VPORT
  2
*ACTIVE
 70
     0
 10
0.0
 20
0.0
 11
1.0
 21
1.0
 12
234.8522167487685124
 22
100.0
 13
0.0
 23
0.0
 14
1.0
 24
1.0
 15
0.0
 25
0.0
 16
0.0
 26
0.0
 36
1.0
 17
0.0
 27
0.0
 37
0.0
 40
200.0
 41
2.3485221674876842
 42
50.0
 43
0.0
 44
0.0
 50
0.0
 51
0.0
 71
     0
 72
   100
 73
     1
 74
     1
 75
     0
 76
     0
 77
     0
 78
     0
  0
ENDTAB
  0
TABLE
  2
LTYPE
 70
     4
  0
LTYPE
  2
CONTINUOUS
 70
     0
  3
Solid line
 72
    65
 73
     0
 40
0.0
  0
LTYPE
  2
CENTER
 70
     0
  3
Center ____ _ ____ _ ____ _ ____ _ ____ _ ____
 72
    65
 73
     4
 40
12.0
 49
7.5
 49
-1.5
 49
1.5
 49
-1.5
  0
LTYPE
  2
PHANTOM2
 70
     0
  3
___ _ _ ___ _ _ ___ _ _ ___ _ _
 72
    65
 73
     6
 40
1.25
 49
0.625
 49
-0.125
 49
0.125
 49
-0.125
 49
0.125
 49
-0.125
  0
LTYPE
  2
HIDDEN
 70
     0
  3
Hidden __ __ __ __ __ __ __ __ __ __ __ __ __ __
 72
    65
 73
     2
 40
1.905
 49
1.27
 49
-0.635
  0
ENDTAB
  0
TABLE
  2
LAYER
 70
     4
  0
LAYER
  2
0
 70
     0
 62
     7
  6
CONTINUOUS
  0
LAYER
  2
1
 70
     0
 62
     1
  6
CENTER
  0
LAYER
  2
DEFPOINTS
 70
     0
 62
     7
  6
CONTINUOUS
  0
LAYER
  2
2
 70
     0
 62
     2
  6
HIDDEN
  0
ENDTAB
  0
TABLE
  2
STYLE
 70
     2
  0
STYLE
  2
STANDARD
 70
     0
 40
0.0
 41
1.0
 50
0.0
 71
     0
 42
0.2
  3
simplex.shx
  4
bigfont.shx
  0
STYLE
  2
STANDARD1
 70
     0
 40
0.0
 41
1.0
 50
0.0
 71
     0
 42
3.0
  3
txt
  4

  0
ENDTAB
  0
TABLE
  2
VIEW
 70
     1
  0
VIEW
  2
OLE1
 70
     0
 40
197.4252932059577006
 10
17.193614989164999
 20
148.546868329622896
 41
248.2191793220536056
 11
0.0
 21
0.0
 31
1.0
 12
0.0
 22
0.0
 32
0.0
 42
50.0
 43
0.0
 44
0.0
 50
0.0
 71
     0
  0
ENDTAB
  0
TABLE
  2
UCS
 70
     0
  0
ENDTAB
  0
TABLE
  2
APPID
 70
     6
  0
APPID
  2
ACAD
 70
     0
  0
APPID
  2
ACAD_MLEADERVER
 70
     0
  0
APPID
  2
ACAD_NAV_VCDISPLAY
 70
     0
  0
APPID
  2
ACAD_EXEMPT_FROM_CAD_STANDARDS
 70
     0
  0
APPID
  2
ACAD_DSTYLE_DIMJAG
 70
     0
  0
APPID
  2
ACAD_DSTYLE_DIMTALN
 70
     0
  0
ENDTAB
  0
TABLE
  2
DIMSTYLE
 70
     1
  0
DIMSTYLE
  2
STANDARD
 70
     0
  3

  4

  5

  6

  7

 40
1.0
 41
0.18
 42
0.0625
 43
0.38
 44
0.18
 45
0.0
 46
0.0
 47
0.0
 48
0.0
140
0.18
141
0.09
142
0.0
143
25.3999999999999986
144
1.0
145
0.0
146
1.0
147
0.09
 71
     0
 72
     0
 73
     1
 74
     1
 75
     0
 76
     0
 77
     0
 78
     0
170
     0
171
     2
172
     0
173
     0
174
     0
175
     0
176
     0
177
     0
178
     0
  0
ENDTAB
  0
ENDSEC
  0
SECTION
  2
BLOCKS
  0
BLOCK
  8
0
  2
$MODEL_SPACE
 70
     0
 10
0.0
 20
0.0
 30
0.0
  3
$MODEL_SPACE
  1

  0
ENDBLK
  5
9
  8
0
  0
BLOCK
 67
     1
  8
0
  2
$PAPER_SPACE
 70
     0
 10
0.0
 20
0.0
 30
0.0
  3
$PAPER_SPACE
  1

  0
ENDBLK
  5
E
 67
     1
  8
0
  0
ENDSEC
  0
SECTION
  2
ENTITIES
  0
TEXT
  5
141
  8
0
 62
     3
 10
0.0
 20
0.0
 30
0.0
 40
5.0
  1
MBSC06P
  7
STANDARD1
  0
LINE
  5
214C
  8
0
 10
61.9200000000000088
 20
40.6100000000000065
 30
0.0
 11
61.9200000000000088
 21
59.3900000000000077
 31
0.0
  0
LINE
  5
214D
  8
0
 10
61.2800000000000011
 20
40.6100000000000065
 30
0.0
 11
61.2800000000000011
 21
59.3900000000000077
 31
0.0
  0
LINE
  5
214E
  8
0
 10
43.1399999999999935
 20
40.6100000000000065
 30
0.0
 11
43.1399999999999935
 21
59.3900000000000077
 31
0.0
  0
ARC
  5
214F
  8
0
 10
49.4800000000000182
 20
50.0
 30
0.0
 40
3.380000000000023
 50
90.0
 51
270.0
  0
LINE
  5
2150
  8
0
 10
50.5199999999999818
 20
46.6199999999999974
 30
0.0
 11
49.4800000000000182
 21
46.6199999999999974
 31
0.0
  0
LINE
  5
2151
  8
0
 10
49.4800000000000182
 20
53.3800000000000168
 30
0.0
 11
50.5199999999999818
 21
53.3800000000000168
 31
0.0
  0
ARC
  5
2152
  8
0
 10
50.5199999999999818
 20
50.0
 30
0.0
 40
3.380000000000023
 50
270.0
 51
90.0
  0
LINE
  5
2153
  8
0
 10
61.9200000000000088
 20
40.6100000000000065
 30
0.0
 11
43.1399999999999935
 21
40.6100000000000065
 31
0.0
  0
LINE
  5
2154
  8
0
 10
61.9200000000000088
 20
59.3900000000000077
 30
0.0
 11
43.1399999999999935
 21
59.3900000000000077
 31
0.0
  0
LINE
  5
2155
  8
0
 10
43.1399999999999935
 20
25.6399999999999899
 30
0.0
 11
43.1399999999999935
 21
25.0
 31
0.0
  0
LINE
  5
2156
  8
0
 10
60.0100000000000193
 20
25.6399999999999899
 30
0.0
 11
43.1399999999999935
 21
25.6399999999999899
 31
0.0
  0
ARC
  5
2157
  8
0
 10
60.0100000000000193
 20
26.9100000000000215
 30
0.0
 40
1.270000000000038
 50
270.0
 51
0.0
  0
LINE
  5
2158
  8
0
 10
61.2800000000000011
 20
31.3500000000000192
 30
0.0
 11
61.2800000000000011
 21
26.9100000000000215
 31
0.0
  0
LINE
  5
2159
  8
0
 10
61.9200000000000088
 20
31.3500000000000192
 30
0.0
 11
61.2800000000000011
 21
31.3500000000000192
 31
0.0
  0
LINE
  5
215A
  8
0
 10
61.9200000000000088
 20
26.9100000000000215
 30
0.0
 11
61.9200000000000088
 21
31.3500000000000192
 31
0.0
  0
ARC
  5
215B
  8
0
 10
60.0100000000000193
 20
26.9100000000000215
 30
0.0
 40
1.910000000000025
 50
270.0
 51
0.0
  0
LINE
  5
215C
  8
0
 10
43.1399999999999935
 20
25.0
 30
0.0
 11
60.0100000000000193
 21
25.0
 31
0.0
  0
LINE
  5
215D
  8
0
 10
34.3900000000001995
 20
25.6399999999999899
 30
0.0
 11
15.6100000000002002
 21
25.6399999999999899
 31
0.0
  0
LINE
  5
215E
  8
0
 10
34.3900000000000006
 20
25.0
 30
0.0
 11
15.6099999999999994
 21
25.0
 31
0.0
  0
LINE
  5
215F
  8
0
 10
34.3900000000000006
 20
31.3500000000000192
 30
0.0
 11
15.6099999999999994
 21
31.3500000000000192
 31
0.0
  0
LINE
  5
2160
  8
0
 10
34.3900000000000006
 20
31.3500000000000192
 30
0.0
 11
34.3900000000000006
 21
25.0
 31
0.0
  0
LINE
  5
2161
  8
0
 10
15.6099999999999994
 20
31.3500000000000192
 30
0.0
 11
15.6099999999999994
 21
25.0
 31
0.0
  0
LINE
  5
2162
  8
0
 10
65.6100000000000136
 20
25.0
 30
0.0
 11
84.3900000000000148
 21
25.0
 31
0.0
  0
LINE
  5
2163
  8
0
 10
65.6100000000000136
 20
25.0
 30
0.0
 11
65.6100000000000136
 21
31.3500000000000192
 31
0.0
  0
LINE
  5
2164
  8
0
 10
65.6100000000000136
 20
31.3500000000000192
 30
0.0
 11
84.3900000000000148
 21
31.3500000000000192
 31
0.0
  0
LINE
  5
2165
  8
0
 10
84.3900000000000148
 20
25.0
 30
0.0
 11
84.3900000000000148
 21
31.3500000000000192
 31
0.0
  0
LINE
  5
2166
  8
1
 10
75.0000000000000284
 20
34.3500000000000227
 30
0.0
 11
75.0
 21
22.0
 31
0.0
  0
LINE
  5
2167
  8
2
 10
65.6100000000000136
 20
25.6400000000000183
 30
0.0
 11
84.3899999999999864
 21
25.6400000000000183
 31
0.0
  0
LINE
  5
2168
  8
1
 10
49.4800000000000182
 20
54.880000000000031
 30
0.0
 11
49.4800000000000182
 21
45.119999999999969
 31
0.0
  0
LINE
  5
2169
  8
1
 10
40.1399999999999793
 20
50.0
 30
0.0
 11
64.9200000000000159
 21
50.0
 31
0.0
  0
LINE
  5
216A
  8
1
 10
50.5199999999999818
 20
54.880000000000031
 30
0.0
 11
50.5199999999999818
 21
45.119999999999969
 31
0.0
  0
LINE
  5
216B
  8
1
 10
49.4800000000000182
 20
27.1400000000000183
 30
0.0
 11
49.4800000000000182
 21
23.5
 31
0.0
  0
LINE
  5
216C
  8
1
 10
50.5199999999999818
 20
27.1400000000000183
 30
0.0
 11
50.5199999999999818
 21
23.5
 31
0.0
  0
LINE
  5
216D
  8
2
 10
46.0999999999999872
 20
25.6400000000000183
 30
0.0
 11
46.0999999999999872
 21
25.0
 31
0.0
  0
LINE
  5
216E
  8
2
 10
53.8999999999999986
 20
25.6400000000000183
 30
0.0
 11
53.8999999999999986
 21
25.0
 31
0.0
  0
LINE
  5
216F
  8
2
 10
71.6199999999999761
 20
25.6400000000000183
 30
0.0
 11
71.6199999999999761
 21
25.0
 31
0.0
  0
LINE
  5
2170
  8
2
 10
78.3800000000000239
 20
25.6400000000000183
 30
0.0
 11
78.3800000000000239
 21
25.0
 31
0.0
  0
LINE
  5
2171
  8
1
 10
25.0000000000000391
 20
34.3500000000000227
 30
0.0
 11
25.0000000000000213
 21
22.0
 31
0.0
  0
LINE
  5
2172
  8
2
 10
21.6199999999999903
 20
25.6400000000000183
 30
0.0
 11
21.6199999999999903
 21
25.0
 31
0.0
  0
LINE
  5
2173
  8
2
 10
28.3800000000000416
 20
25.6400000000000183
 30
0.0
 11
28.3800000000000416
 21
25.0
 31
0.0
  0
ENDSEC
  0
EOF
