  0
SECTION
  2
HEADER
  9
$ACADVER
  1
AC1009
  9
$INSBASE
 10
0.0
 20
0.0
 30
0.0
  9
$EXTMIN
 10
0.0
 20
-1.4802182810368341
 30
0.0
  9
$EXTMAX
 10
137.5749999999999886
 20
87.5749999999999744
 30
0.0
  9
$LIMMIN
 10
0.0
 20
0.0
  9
$LIMMAX
 10
12.0
 20
9.0
  9
$ORTHOMODE
 70
     0
  9
$REGENMODE
 70
     1
  9
$FILLMODE
 70
     1
  9
$QTEXTMODE
 70
     0
  9
$MIRRTEXT
 70
     0
  9
$DRAGMODE
 70
     2
  9
$LTSCALE
 40
1.0
  9
$OSMODE
 70
    37
  9
$ATTMODE
 70
     1
  9
$TEXTSIZE
 40
0.2
  9
$TRACEWID
 40
0.05
  9
$TEXTSTYLE
  7
STANDARD
  9
$CLAYER
  8
0
  9
$CELTYPE
  6
BYLAYER
  9
$CECOLOR
 62
   256
  9
$DIMSCALE
 40
1.0
  9
$DIMASZ
 40
1.0
  9
$DIMEXO
 40
2.54
  9
$DIMDLI
 40
0.38
  9
$DIMRND
 40
0.0
  9
$DIMDLE
 40
0.0
  9
$DIMEXE
 40
2.54
  9
$DIMTP
 40
0.0
  9
$DIMTM
 40
0.0
  9
$DIMTXT
 40
3.2000000000000002
  9
$DIMCEN
 40
0.09
  9
$DIMTSZ
 40
0.0
  9
$DIMTOL
 70
     0
  9
$DIMLIM
 70
     0
  9
$DIMTIH
 70
     0
  9
$DIMTOH
 70
     0
  9
$DIMSE1
 70
     0
  9
$DIMSE2
 70
     0
  9
$DIMTAD
 70
     1
  9
$DIMZIN
 70
     0
  9
$DIMBLK
  1

  9
$DIMASO
 70
     1
  9
$DIMSHO
 70
     0
  9
$DIMPOST
  1

  9
$DIMAPOST
  1

  9
$DIMALT
 70
     0
  9
$DIMALTD
 70
     2
  9
$DIMALTF
 40
25.3999999999999986
  9
$DIMLFAC
 40
1.0
  9
$DIMTOFL
 70
     0
  9
$DIMTVP
 40
1.0
  9
$DIMTIX
 70
     0
  9
$DIMSOXD
 70
     0
  9
$DIMSAH
 70
     0
  9
$DIMBLK1
  1

  9
$DIMBLK2
  1

  9
$DIMSTYLE
  2
STANDARD
  9
$DIMCLRD
 70
     0
  9
$DIMCLRE
 70
     0
  9
$DIMCLRT
 70
     0
  9
$DIMTFAC
 40
1.0
  9
$DIMGAP
 40
1.6000000000000001
  9
$LUNITS
 70
     2
  9
$LUPREC
 70
     1
  9
$SKETCHINC
 40
0.1
  9
$FILLETRAD
 40
0.0
  9
$AUNITS
 70
     0
  9
$AUPREC
 70
     0
  9
$MENU
  1
.
  9
$ELEVATION
 40
0.0
  9
$PELEVATION
 40
0.0
  9
$THICKNESS
 40
0.0
  9
$LIMCHECK
 70
     0
  9
$BLIPMODE
 70
     0
  9
$CHAMFERA
 40
0.0
  9
$CHAMFERB
 40
0.0
  9
$SKPOLY
 70
     0
  9
$TDCREATE
 40
2453173.4709143522195518
  9
$TDUPDATE
 40
2460571.6584490751847625
  9
$TDINDWG
 40
0.6082298495
  9
$TDUSRTIMER
 40
0.6082298495
  9
$USRTIMER
 70
     1
  9
$ANGBASE
 50
0.0
  9
$ANGDIR
 70
     0
  9
$PDMODE
 70
     0
  9
$PDSIZE
 40
0.0
  9
$PLINEWID
 40
0.0
  9
$COORDS
 70
     1
  9
$SPLFRAME
 70
     0
  9
$SPLINETYPE
 70
     6
  9
$SPLINESEGS
 70
     8
  9
$ATTDIA
 70
     1
  9
$ATTREQ
 70
     1
  9
$HANDLING
 70
     1
  9
$HANDSEED
  5
2281
  9
$SURFTAB1
 70
     6
  9
$SURFTAB2
 70
     6
  9
$SURFTYPE
 70
     6
  9
$SURFU
 70
     6
  9
$SURFV
 70
     6
  9
$UCSNAME
  2

  9
$UCSORG
 10
0.0
 20
0.0
 30
0.0
  9
$UCSXDIR
 10
1.0
 20
0.0
 30
0.0
  9
$UCSYDIR
 10
0.0
 20
1.0
 30
0.0
  9
$PUCSNAME
  2

  9
$PUCSORG
 10
0.0
 20
0.0
 30
0.0
  9
$PUCSXDIR
 10
1.0
 20
0.0
 30
0.0
  9
$PUCSYDIR
 10
0.0
 20
1.0
 30
0.0
  9
$USERI1
 70
     0
  9
$USERI2
 70
     0
  9
$USERI3
 70
     0
  9
$USERI4
 70
     0
  9
$USERI5
 70
     0
  9
$USERR1
 40
0.0
  9
$USERR2
 40
0.0
  9
$USERR3
 40
0.0
  9
$USERR4
 40
0.0
  9
$USERR5
 40
0.0
  9
$WORLDVIEW
 70
     1
  9
$SHADEDGE
 70
     3
  9
$SHADEDIF
 70
    70
  9
$TILEMODE
 70
     1
  9
$MAXACTVP
 70
    64
  9
$PLIMCHECK
 70
     0
  9
$PEXTMIN
 10
1.0000000000000000E+20
 20
1.0000000000000000E+20
 30
1.0000000000000000E+20
  9
$PEXTMAX
 10
-1.0000000000000000E+20
 20
-1.0000000000000000E+20
 30
-1.0000000000000000E+20
  9
$PLIMMIN
 10
0.0
 20
0.0
  9
$PLIMMAX
 10
12.0
 20
9.0
  9
$UNITMODE
 70
     0
  9
$VISRETAIN
 70
     1
  9
$PLINEGEN
 70
     0
  9
$PSLTSCALE
 70
     1
  0
ENDSEC
  0
SECTION
  2
TABLES
  0
TABLE
  2
VPORT
 70
     1
  0
VPORT
  2
*ACTIVE
 70
     0
 10
0.0
 20
0.0
 11
1.0
 21
1.0
 12
234.8522167487685124
 22
100.0
 13
0.0
 23
0.0
 14
1.0
 24
1.0
 15
0.0
 25
0.0
 16
0.0
 26
0.0
 36
1.0
 17
0.0
 27
0.0
 37
0.0
 40
200.0
 41
2.3485221674876842
 42
50.0
 43
0.0
 44
0.0
 50
0.0
 51
0.0
 71
     0
 72
   100
 73
     1
 74
     1
 75
     0
 76
     0
 77
     0
 78
     0
  0
ENDTAB
  0
TABLE
  2
LTYPE
 70
     4
  0
LTYPE
  2
CONTINUOUS
 70
     0
  3
Solid line
 72
    65
 73
     0
 40
0.0
  0
LTYPE
  2
CENTER
 70
     0
  3
Center ____ _ ____ _ ____ _ ____ _ ____ _ ____
 72
    65
 73
     4
 40
12.0
 49
7.5
 49
-1.5
 49
1.5
 49
-1.5
  0
LTYPE
  2
PHANTOM2
 70
     0
  3
___ _ _ ___ _ _ ___ _ _ ___ _ _
 72
    65
 73
     6
 40
1.25
 49
0.625
 49
-0.125
 49
0.125
 49
-0.125
 49
0.125
 49
-0.125
  0
LTYPE
  2
HIDDEN
 70
     0
  3
Hidden __ __ __ __ __ __ __ __ __ __ __ __ __ __
 72
    65
 73
     2
 40
1.905
 49
1.27
 49
-0.635
  0
ENDTAB
  0
TABLE
  2
LAYER
 70
     4
  0
LAYER
  2
0
 70
     0
 62
     7
  6
CONTINUOUS
  0
LAYER
  2
1
 70
     0
 62
     1
  6
CENTER
  0
LAYER
  2
DEFPOINTS
 70
     0
 62
     7
  6
CONTINUOUS
  0
LAYER
  2
2
 70
     0
 62
     2
  6
HIDDEN
  0
ENDTAB
  0
TABLE
  2
STYLE
 70
     2
  0
STYLE
  2
STANDARD
 70
     0
 40
0.0
 41
1.0
 50
0.0
 71
     0
 42
0.2
  3
simplex.shx
  4
bigfont.shx
  0
STYLE
  2
STANDARD1
 70
     0
 40
0.0
 41
1.0
 50
0.0
 71
     0
 42
3.0
  3
txt
  4

  0
ENDTAB
  0
TABLE
  2
VIEW
 70
     1
  0
VIEW
  2
OLE1
 70
     0
 40
197.4252932059577006
 10
17.193614989164999
 20
148.546868329622896
 41
248.2191793220536056
 11
0.0
 21
0.0
 31
1.0
 12
0.0
 22
0.0
 32
0.0
 42
50.0
 43
0.0
 44
0.0
 50
0.0
 71
     0
  0
ENDTAB
  0
TABLE
  2
UCS
 70
     0
  0
ENDTAB
  0
TABLE
  2
APPID
 70
     6
  0
APPID
  2
ACAD
 70
     0
  0
APPID
  2
ACAD_MLEADERVER
 70
     0
  0
APPID
  2
ACAD_NAV_VCDISPLAY
 70
     0
  0
APPID
  2
ACAD_EXEMPT_FROM_CAD_STANDARDS
 70
     0
  0
APPID
  2
ACAD_DSTYLE_DIMJAG
 70
     0
  0
APPID
  2
ACAD_DSTYLE_DIMTALN
 70
     0
  0
ENDTAB
  0
TABLE
  2
DIMSTYLE
 70
     1
  0
DIMSTYLE
  2
STANDARD
 70
     0
  3

  4

  5

  6

  7

 40
1.0
 41
0.18
 42
0.0625
 43
0.38
 44
0.18
 45
0.0
 46
0.0
 47
0.0
 48
0.0
140
0.18
141
0.09
142
0.0
143
25.3999999999999986
144
1.0
145
0.0
146
1.0
147
0.09
 71
     0
 72
     0
 73
     1
 74
     1
 75
     0
 76
     0
 77
     0
 78
     0
170
     0
171
     2
172
     0
173
     0
174
     0
175
     0
176
     0
177
     0
178
     0
  0
ENDTAB
  0
ENDSEC
  0
SECTION
  2
BLOCKS
  0
BLOCK
  8
0
  2
$MODEL_SPACE
 70
     0
 10
0.0
 20
0.0
 30
0.0
  3
$MODEL_SPACE
  1

  0
ENDBLK
  5
9
  8
0
  0
BLOCK
 67
     1
  8
0
  2
$PAPER_SPACE
 70
     0
 10
0.0
 20
0.0
 30
0.0
  3
$PAPER_SPACE
  1

  0
ENDBLK
  5
E
 67
     1
  8
0
  0
ENDSEC
  0
SECTION
  2
ENTITIES
  0
TEXT
  5
141
  8
0
 62
     3
 10
0.0
 20
0.0
 30
0.0
 40
5.0
  1
MBSC10P
  7
STANDARD1
  0
LINE
  5
21AB
  8
0
 10
90.7499999999999289
 20
62.4249999999999829
 30
0.0
 11
90.7499999999999289
 21
87.5749999999999744
 31
0.0
  0
LINE
  5
21AC
  8
0
 10
90.1099999999999
 20
62.4249999999999829
 30
0.0
 11
90.1099999999999
 21
87.5749999999999744
 31
0.0
  0
LINE
  5
21AD
  8
0
 10
65.5999999999999659
 20
62.4249999999999829
 30
0.0
 11
65.5999999999999659
 21
87.5749999999999744
 31
0.0
  0
ARC
  5
21AE
  8
0
 10
73.6899999999999409
 20
75.0
 30
0.0
 40
5.0400000000000196
 50
90.0
 51
270.0
  0
LINE
  5
21AF
  8
0
 10
76.3099999999999454
 20
69.960000000000008
 30
0.0
 11
73.6899999999999409
 21
69.960000000000008
 31
0.0
  0
LINE
  5
21B0
  8
0
 10
73.6899999999999409
 20
80.0400000000000347
 30
0.0
 11
76.3099999999999454
 21
80.0400000000000347
 31
0.0
  0
ARC
  5
21B1
  8
0
 10
76.3099999999999454
 20
75.0
 30
0.0
 40
5.0400000000000196
 50
270.0
 51
90.0
  0
LINE
  5
21B2
  8
0
 10
90.7499999999999289
 20
62.4249999999999829
 30
0.0
 11
65.5999999999999659
 21
62.4249999999999829
 31
0.0
  0
LINE
  5
21B3
  8
0
 10
90.7499999999999289
 20
87.5749999999999744
 30
0.0
 11
65.5999999999999659
 21
87.5749999999999744
 31
0.0
  0
LINE
  5
21B4
  8
0
 10
65.5999999999999659
 20
25.6400000000000183
 30
0.0
 11
65.5999999999999659
 21
25.0
 31
0.0
  0
LINE
  5
21B5
  8
0
 10
88.8399999999999039
 20
25.6400000000000183
 30
0.0
 11
65.5999999999999659
 21
25.6400000000000183
 31
0.0
  0
ARC
  5
21B6
  8
0
 10
88.8399999999999039
 20
26.9100000000000001
 30
0.0
 40
1.2699999999999809
 50
270.0
 51
0.0
  0
LINE
  5
21B7
  8
0
 10
90.1099999999999
 20
35.670000000000023
 30
0.0
 11
90.1099999999999
 21
26.9100000000000001
 31
0.0
  0
LINE
  5
21B8
  8
0
 10
90.7499999999999289
 20
35.670000000000023
 30
0.0
 11
90.1099999999999
 21
35.670000000000023
 31
0.0
  0
LINE
  5
21B9
  8
0
 10
90.7499999999999289
 20
26.9100000000000001
 30
0.0
 11
90.7499999999999289
 21
35.670000000000023
 31
0.0
  0
ARC
  5
21BA
  8
0
 10
88.8399999999999039
 20
26.9100000000000001
 30
0.0
 40
1.910000000000025
 50
270.0
 51
0.0
  0
LINE
  5
21BB
  8
0
 10
65.5999999999999659
 20
25.0
 30
0.0
 11
88.8399999999999039
 21
25.0
 31
0.0
  0
LINE
  5
21BC
  8
0
 10
37.5750000000002728
 20
25.6400000000000183
 30
0.0
 11
12.4250000000002405
 21
25.6400000000000183
 31
0.0
  0
LINE
  5
21BD
  8
0
 10
37.5749999999999886
 20
25.0
 30
0.0
 11
12.4249999999999492
 21
25.0
 31
0.0
  0
LINE
  5
21BE
  8
0
 10
37.5749999999999886
 20
35.670000000000023
 30
0.0
 11
12.4249999999999492
 21
35.670000000000023
 31
0.0
  0
LINE
  5
21BF
  8
0
 10
37.5749999999999886
 20
35.670000000000023
 30
0.0
 11
37.5749999999999886
 21
25.0
 31
0.0
  0
LINE
  5
21C0
  8
0
 10
12.4249999999999492
 20
35.670000000000023
 30
0.0
 11
12.4249999999999492
 21
25.0
 31
0.0
  0
LINE
  5
21C1
  8
0
 10
112.4249999999999972
 20
25.0
 30
0.0
 11
137.5749999999999886
 21
25.0
 31
0.0
  0
LINE
  5
21C2
  8
0
 10
112.4249999999999972
 20
25.0
 30
0.0
 11
112.4249999999999972
 21
35.670000000000023
 31
0.0
  0
LINE
  5
21C3
  8
0
 10
112.4249999999999972
 20
35.670000000000023
 30
0.0
 11
137.5749999999999886
 21
35.670000000000023
 31
0.0
  0
LINE
  5
21C4
  8
0
 10
137.5749999999999886
 20
25.0
 30
0.0
 11
137.5749999999999886
 21
35.670000000000023
 31
0.0
  0
LINE
  5
21C5
  8
1
 10
125.0
 20
38.670000000000023
 30
0.0
 11
125.0
 21
22.0
 31
0.0
  0
LINE
  5
21C6
  8
2
 10
112.4249999999999972
 20
25.6400000000000396
 30
0.0
 11
137.5749999999999886
 21
25.6400000000000396
 31
0.0
  0
LINE
  5
21C7
  8
1
 10
73.6899999999999409
 20
81.539999999999992
 30
0.0
 11
73.6900000000000546
 21
68.4599999999999795
 31
0.0
  0
LINE
  5
21C8
  8
1
 10
62.599999999999973
 20
75.0
 30
0.0
 11
93.7499999999999432
 21
75.0
 31
0.0
  0
LINE
  5
21C9
  8
1
 10
76.3099999999999454
 20
81.539999999999992
 30
0.0
 11
76.3100000000000591
 21
68.4599999999999795
 31
0.0
  0
LINE
  5
21CA
  8
1
 10
73.6899999999999835
 20
27.1400000000000183
 30
0.0
 11
73.6899999999999835
 21
23.5
 31
0.0
  0
LINE
  5
21CB
  8
1
 10
76.3100000000000023
 20
27.1400000000000183
 30
0.0
 11
76.3100000000000023
 21
23.5
 31
0.0
  0
LINE
  5
21CC
  8
2
 10
68.6499999999999204
 20
25.6400000000000183
 30
0.0
 11
68.6499999999999204
 21
25.0
 31
0.0
  0
LINE
  5
21CD
  8
2
 10
81.3499999999999659
 20
25.6400000000000183
 30
0.0
 11
81.3499999999999659
 21
25.0
 31
0.0
  0
LINE
  5
21CE
  8
2
 10
119.9599999999999937
 20
25.6400000000000183
 30
0.0
 11
119.9599999999999937
 21
25.0
 31
0.0
  0
LINE
  5
21CF
  8
2
 10
130.039999999999992
 20
25.6400000000000183
 30
0.0
 11
130.039999999999992
 21
25.0
 31
0.0
  0
LINE
  5
21D0
  8
1
 10
25.0
 20
38.670000000000023
 30
0.0
 11
25.0
 21
22.0
 31
0.0
  0
LINE
  5
21D1
  8
2
 10
19.9599999999999191
 20
25.6400000000000183
 30
0.0
 11
19.9599999999999191
 21
25.0
 31
0.0
  0
LINE
  5
21D2
  8
2
 10
30.0399999999999601
 20
25.6400000000000183
 30
0.0
 11
30.0399999999999601
 21
25.0
 31
0.0
  0
ENDSEC
  0
EOF
