  0
SECTION
  2
HEADER
  9
$ACADVER
  1
AC1009
  9
$INSBASE
 10
0.0
 20
0.0
 30
0.0
  9
$EXTMIN
 10
0.0
 20
-1.4802182810368341
 30
0.0
  9
$EXTMAX
 10
53.4631995037332217
 20
128.0148706178798932
 30
0.0
  9
$LIMMIN
 10
0.0
 20
0.0
  9
$LIMMAX
 10
187.5
 20
135.0
  9
$ORTHOMODE
 70
     1
  9
$REGENMODE
 70
     1
  9
$FILLMODE
 70
     1
  9
$QTEXTMODE
 70
     0
  9
$MIRRTEXT
 70
     0
  9
$DRAGMODE
 70
     2
  9
$LTSCALE
 40
5.0
  9
$OSMODE
 70
    37
  9
$ATTMODE
 70
     1
  9
$TEXTSIZE
 40
0.06
  9
$TRACEWID
 40
0.05
  9
$TEXTSTYLE
  7
STANDARD
  9
$CLAYER
  8
0
  9
$CELTYPE
  6
BYLAYER
  9
$CECOLOR
 62
   256
  9
$DIMSCALE
 40
0.5
  9
$DIMASZ
 40
3.0
  9
$DIMEXO
 40
2.0
  9
$DIMDLI
 40
10.0
  9
$DIMRND
 40
0.0
  9
$DIMDLE
 40
0.0
  9
$DIMEXE
 40
2.0
  9
$DIMTP
 40
0.0
  9
$DIMTM
 40
0.0
  9
$DIMTXT
 40
3.0
  9
$DIMCEN
 40
0.0
  9
$DIMTSZ
 40
0.0
  9
$DIMTOL
 70
     0
  9
$DIMLIM
 70
     0
  9
$DIMTIH
 70
     0
  9
$DIMTOH
 70
     0
  9
$DIMSE1
 70
     0
  9
$DIMSE2
 70
     0
  9
$DIMTAD
 70
     1
  9
$DIMZIN
 70
     8
  9
$DIMBLK
  1

  9
$DIMASO
 70
     0
  9
$DIMSHO
 70
     0
  9
$DIMPOST
  1

  9
$DIMAPOST
  1

  9
$DIMALT
 70
     0
  9
$DIMALTD
 70
     2
  9
$DIMALTF
 40
25.3999999999999986
  9
$DIMLFAC
 40
1.0
  9
$DIMTOFL
 70
     1
  9
$DIMTVP
 40
1.6000000000000001
  9
$DIMTIX
 70
     1
  9
$DIMSOXD
 70
     0
  9
$DIMSAH
 70
     0
  9
$DIMBLK1
  1

  9
$DIMBLK2
  1

  9
$DIMSTYLE
  2
STANDARD
  9
$DIMCLRD
 70
     0
  9
$DIMCLRE
 70
     0
  9
$DIMCLRT
 70
     0
  9
$DIMTFAC
 40
1.0
  9
$DIMGAP
 40
1.0
  9
$LUNITS
 70
     2
  9
$LUPREC
 70
     1
  9
$SKETCHINC
 40
0.1
  9
$FILLETRAD
 40
1.3
  9
$AUNITS
 70
     0
  9
$AUPREC
 70
     1
  9
$MENU
  1
E:\r13\win\SUPPORT\ACAD
  9
$ELEVATION
 40
0.0
  9
$PELEVATION
 40
0.0
  9
$THICKNESS
 40
0.0
  9
$LIMCHECK
 70
     0
  9
$BLIPMODE
 70
     0
  9
$CHAMFERA
 40
0.0
  9
$CHAMFERB
 40
0.0
  9
$SKPOLY
 70
     0
  9
$TDCREATE
 40
2449840.5914699072018266
  9
$TDUPDATE
 40
2460571.6584606477990746
  9
$TDINDWG
 40
4.2682516319000001
  9
$TDUSRTIMER
 40
2456598.087912512011826
  9
$USRTIMER
 70
     1
  9
$ANGBASE
 50
0.0
  9
$ANGDIR
 70
     0
  9
$PDMODE
 70
     0
  9
$PDSIZE
 40
0.0
  9
$PLINEWID
 40
0.0
  9
$COORDS
 70
     1
  9
$SPLFRAME
 70
     0
  9
$SPLINETYPE
 70
     6
  9
$SPLINESEGS
 70
     8
  9
$ATTDIA
 70
     1
  9
$ATTREQ
 70
     1
  9
$HANDLING
 70
     1
  9
$HANDSEED
  5
13AE0
  9
$SURFTAB1
 70
     6
  9
$SURFTAB2
 70
     6
  9
$SURFTYPE
 70
     6
  9
$SURFU
 70
     6
  9
$SURFV
 70
     6
  9
$UCSNAME
  2

  9
$UCSORG
 10
0.0
 20
0.0
 30
0.0
  9
$UCSXDIR
 10
1.0
 20
0.0
 30
0.0
  9
$UCSYDIR
 10
0.0
 20
1.0
 30
0.0
  9
$PUCSNAME
  2

  9
$PUCSORG
 10
0.0
 20
0.0
 30
0.0
  9
$PUCSXDIR
 10
1.0
 20
0.0
 30
0.0
  9
$PUCSYDIR
 10
0.0
 20
1.0
 30
0.0
  9
$USERI1
 70
     3
  9
$USERI2
 70
     1
  9
$USERI3
 70
     0
  9
$USERI4
 70
     0
  9
$USERI5
 70
     0
  9
$USERR1
 40
0.5
  9
$USERR2
 40
3.0
  9
$USERR3
 40
3.0
  9
$USERR4
 40
3.0
  9
$USERR5
 40
10.0
  9
$WORLDVIEW
 70
     1
  9
$SHADEDGE
 70
     3
  9
$SHADEDIF
 70
    70
  9
$TILEMODE
 70
     1
  9
$MAXACTVP
 70
    16
  9
$PLIMCHECK
 70
     0
  9
$PEXTMIN
 10
1.0000000000000000E+20
 20
1.0000000000000000E+20
 30
1.0000000000000000E+20
  9
$PEXTMAX
 10
-1.0000000000000000E+20
 20
-1.0000000000000000E+20
 30
-1.0000000000000000E+20
  9
$PLIMMIN
 10
0.0
 20
0.0
  9
$PLIMMAX
 10
12.0
 20
9.0
  9
$UNITMODE
 70
     0
  9
$VISRETAIN
 70
     0
  9
$PLINEGEN
 70
     0
  9
$PSLTSCALE
 70
     0
  0
ENDSEC
  0
SECTION
  2
TABLES
  0
TABLE
  2
VPORT
 70
     1
  0
VPORT
  2
*ACTIVE
 70
     0
 10
0.0
 20
0.0
 11
1.0
 21
1.0
 12
234.8522167487685124
 22
100.0
 13
0.0
 23
0.0
 14
5.0
 24
5.0
 15
10.0
 25
10.0
 16
0.0
 26
0.0
 36
1.0
 17
0.0
 27
0.0
 37
0.0
 40
200.0
 41
2.3485221674876842
 42
50.0
 43
0.0
 44
0.0
 50
0.0
 51
0.0
 71
     0
 72
   100
 73
     1
 74
     0
 75
     0
 76
     0
 77
     0
 78
     0
  0
ENDTAB
  0
TABLE
  2
LTYPE
 70
     4
  0
LTYPE
  2
CONTINUOUS
 70
     0
  3
Solid Line
 72
    65
 73
     0
 40
0.0
  0
LTYPE
  2
CENTER
 70
     0
  3
____ _ ____ _ ____ _ ____ _ ____ _ ____ _ ____
 72
    65
 73
     4
 40
2.0
 49
1.25
 49
-0.25
 49
0.25
 49
-0.25
  0
LTYPE
  2
HIDDEN
 70
     0
  3
_ _ _ _ _ _ _ _ _ _ _ _ _ _ _ _ _ _ _ _ _ _ _
 72
    65
 73
     2
 40
0.375
 49
0.25
 49
-0.125
  0
LTYPE
  2
PHANTOM2
 70
     0
  3
___ _ _ ___ _ _ ___ _ _ ___ _ _
 72
    65
 73
     6
 40
1.25
 49
0.625
 49
-0.125
 49
0.125
 49
-0.125
 49
0.125
 49
-0.125
  0
ENDTAB
  0
TABLE
  2
LAYER
 70
     5
  0
LAYER
  2
0
 70
     0
 62
     7
  6
CONTINUOUS
  0
LAYER
  2
1
 70
     0
 62
     1
  6
CENTER
  0
LAYER
  2
2
 70
     0
 62
     2
  6
HIDDEN
  0
LAYER
  2
3
 70
     0
 62
     3
  6
CONTINUOUS
  0
LAYER
  2
DEFPOINTS
 70
     0
 62
     7
  6
CONTINUOUS
  0
ENDTAB
  0
TABLE
  2
STYLE
 70
     2
  0
STYLE
  2
STANDARD
 70
     0
 40
0.0
 41
1.0
 50
0.0
 71
     0
 42
0.06
  3
TXT
  4
BIGFONT
  0
STYLE
  2
STANDARD1
 70
     0
 40
0.0
 41
1.0
 50
0.0
 71
     0
 42
3.0
  3
txt
  4

  0
ENDTAB
  0
TABLE
  2
VIEW
 70
     3
  0
VIEW
  2
OLE1
 70
     0
 40
24.5142578976623291
 10
44.9015294731158932
 20
103.2517766929000942
 41
34.1724540607814475
 11
0.0
 21
0.0
 31
1.0
 12
0.0
 22
0.0
 32
0.0
 42
50.0
 43
0.0
 44
0.0
 50
0.0
 71
     0
  0
VIEW
  2
OLE2
 70
     0
 40
111.825171625205499
 10
23.1533063595359891
 20
84.7537422159464313
 41
155.8823667497491954
 11
0.0
 21
0.0
 31
1.0
 12
0.0
 22
0.0
 32
0.0
 42
50.0
 43
0.0
 44
0.0
 50
0.0
 71
     0
  0
VIEW
  2
OLE3
 70
     0
 40
74.6081995201193422
 10
-293.6253890471612067
 20
-23.1741890046973786
 41
90.1635770262445959
 11
0.0
 21
0.0
 31
1.0
 12
0.0
 22
0.0
 32
0.0
 42
50.0
 43
0.0
 44
0.0
 50
0.0
 71
     0
  0
ENDTAB
  0
TABLE
  2
UCS
 70
     0
  0
ENDTAB
  0
TABLE
  2
APPID
 70
    42
  0
APPID
  2
ACAD
 70
     0
  0
APPID
  2
ACAD_PSEXT
 70
     0
  0
APPID
  2
ACAD_DSTYLE_DIMJAG
 70
     0
  0
APPID
  2
ACAD_DSTYLE_DIMTALN
 70
     0
  0
APPID
  2
ACAD_EXEMPT_FROM_CAD_STANDARDS
 70
     0
  0
APPID
  2
ACAD_MLEADERVER
 70
     0
  0
APPID
  2
DCO15
 70
     0
  0
APPID
  2
GENIUS_GENOREF_13
 70
     0
  0
APPID
  2
GENIUS_GENOENT_13
 70
     0
  0
APPID
  2
GENIUS_GENBH_13
 70
     0
  0
APPID
  2
GENIUS_GENOBJ_13
 70
     0
  0
APPID
  2
GENIUS_GENODEF_13
 70
     0
  0
APPID
  2
GENIUS_GENOLIS_13
 70
     0
  0
APPID
  2
GENIUS_GENOBJ-NBEHI-BHF_13
 70
     0
  0
APPID
  2
GENIUS_GENOBJ-NBEHI-BHB_13
 70
     0
  0
APPID
  2
GENIUS_GENOBJ-F-PART_13
 70
     0
  0
APPID
  2
GENIUS_GEFSTDP_13
 70
     0
  0
APPID
  2
GENIUS_GENOBJ-N-RSSYM_13
 70
     0
  0
APPID
  2
GENIUS_GENSYMENT_13
 70
     0
  0
APPID
  2
GENIUS_GENOBJ-N-TIT_13
 70
     0
  0
APPID
  2
GENIUS_GENTITLE_13
 70
     0
  0
APPID
  2
GENIUS_GENZVEED_13
 70
     0
  0
APPID
  2
GENIUS_GENOBJ-N-LEADER_13
 70
     0
  0
APPID
  2
GENIUS_GENOBJ-N-FIL_13
 70
     0
  0
APPID
  2
GENIUS_GENOBJ-N-SEC_13
 70
     0
  0
APPID
  2
GENIUS_GENOBJ-N-CRS_13
 70
     0
  0
APPID
  2
GENIUS_GENOBJ-N-ZOO_13
 70
     0
  0
APPID
  2
GENIUS_GENZOO_13
 70
     0
  0
APPID
  2
GENIUS_GENOBJ-F-TOL_13
 70
     0
  0
APPID
  2
GENIUS_GENFIL_13
 70
     0
  0
APPID
  2
GENIUS_GENOBJ-N-CHA_13
 70
     0
  0
APPID
  2
_CALL_MAC$
 70
     0
  0
APPID
  2
ASM_BASE
 70
     0
  0
APPID
  2
ASM_EXPLO_VER_2_00
 70
     0
  0
APPID
  2
ASM_CADM_VER_12_00
 70
     0
  0
APPID
  2
ASM_BASEFORO
 70
     0
  0
APPID
  2
ASM_BASETRAVI
 70
     0
  0
APPID
  2
ASM_BASETRAVI1
 70
     0
  0
APPID
  2
ASM_GRUPPI
 70
     0
  0
APPID
  2
ASM_CADM_ALBERO
 70
     0
  0
APPID
  2
ASM_GOLE
 70
     0
  0
APPID
  2
ACAD_NAV_VCDISPLAY
 70
     0
  0
ENDTAB
  0
TABLE
  2
DIMSTYLE
 70
     1
  0
DIMSTYLE
  2
STANDARD
 70
     0
  3

  4

  5

  6

  7

 40
1.0
 41
0.18
 42
0.0625
 43
0.38
 44
0.18
 45
0.0
 46
0.0
 47
0.0
 48
0.0
140
0.18
141
0.09
142
0.0
143
25.3999999999999986
144
1.0
145
0.0
146
1.0
147
0.1
 71
     0
 72
     0
 73
     0
 74
     0
 75
     0
 76
     0
 77
     1
 78
     0
170
     0
171
     2
172
     0
173
     0
174
     0
175
     0
176
     0
177
     0
178
     0
  0
ENDTAB
  0
ENDSEC
  0
SECTION
  2
BLOCKS
  0
BLOCK
  8
0
  2
$MODEL_SPACE
 70
     0
 10
0.0
 20
0.0
 30
0.0
  3
$MODEL_SPACE
  1

  0
ENDBLK
  5
E6
  8
0
  0
BLOCK
 67
     1
  8
0
  2
$PAPER_SPACE
 70
     0
 10
0.0
 20
0.0
 30
0.0
  3
$PAPER_SPACE
  1

  0
ENDBLK
  5
E4
 67
     1
  8
0
  0
ENDSEC
  0
SECTION
  2
ENTITIES
  0
TEXT
  5
13904
  8
0
 62
     3
 10
0.0
 20
0.0
 30
0.0
 40
5.0
  1
MBSC12TC
  7
STANDARD1
  0
ARC
  5
13A21
  8
0
 10
34.3552425102216219
 20
65.5362073073978024
 30
0.0
 40
0.8466688932017351
 50
0.0
 51
90.0
  0
ARC
  5
13A22
  8
0
 10
16.9985301995866394
 20
65.5362073073988256
 30
0.0
 40
0.8466688932007
 50
90.0
 51
156.4343839939753877
  0
LINE
  5
13A23
  8
0
 10
35.2019114034235372
 20
64.2061895378242014
 30
0.0
 11
35.2019114034235372
 21
65.5362073073978024
 31
0.0
  0
LINE
  5
13A24
  8
0
 10
35.6539073262517903
 20
64.1664538002989104
 30
0.0
 11
12.5269118485548407
 21
66.1995876752673524
 31
0.0
  0
ARC
  5
13A25
  8
0
 10
35.0978112071904889
 20
57.8408337370872232
 30
0.0
 40
6.3500166990128388
 50
24.9964808778828207
 51
84.975945846220597
  0
LINE
  5
13A26
  8
0
 10
48.2794952057627214
 20
44.8390557855496326
 30
0.0
 11
40.8530456079215512
 21
60.5241132734723877
 31
0.0
  0
ARC
  5
13A27
  8
0
 10
45.4018780053972932
 20
43.497416017357061
 30
0.0
 40
3.1750083495064061
 50
262.8288208854700088
 51
24.9964808778837302
  0
LINE
  5
13A28
  8
0
 10
17.6648437745179692
 20
43.9901805942761115
 30
0.0
 11
45.0055284897205112
 21
40.3472437870086367
 31
0.0
  0
LINE
  5
13A29
  8
0
 10
12.9432330821000505
 20
48.0390690343234112
 30
0.0
 11
17.6648437745179692
 21
43.9901805942761115
 31
0.0
  0
LINE
  5
13A2A
  8
0
 10
34.3552425102216219
 20
66.3828762005992701
 30
0.0
 11
16.9985301995866394
 21
66.3828762005992701
 31
0.0
  0
LINE
  5
13A2B
  8
2
 10
37.4017482967774413
 20
53.6828428025736315
 30
0.0
 11
37.4017482967774413
 21
63.7614329617489872
 31
0.0
  0
LINE
  5
13A2C
  8
2
 10
15.1766898502323802
 20
65.9666411422189185
 30
0.0
 11
15.1766898502323802
 21
53.6828428025736315
 31
0.0
  0
LINE
  5
13A2D
  8
2
 10
18.7961993686699316
 20
53.6828428025736315
 30
0.0
 11
18.7961993686701589
 21
43.8394361275966418
 31
0.0
  0
LINE
  5
13A2E
  8
2
 10
33.7822387783398881
 20
41.8426611700810085
 30
0.0
 11
33.7822387783401226
 21
53.6828428025736315
 31
0.0
  0
ARC
  5
13A2F
  8
2
 10
16.9985301995907285
 20
65.5362073073968645
 30
0.0
 40
0.8466688932057866
 50
156.4343839939710961
 51
179.9999999999363922
  0
LINE
  5
13A30
  8
2
 10
35.2019114034235372
 20
53.6828428025736315
 30
0.0
 11
35.2019114034235372
 21
64.2061895378242014
 31
0.0
  0
LINE
  5
13A31
  8
2
 10
16.1518613063849408
 20
65.5362073073978024
 30
0.0
 11
16.1518613063849408
 21
53.6828428025736315
 31
0.0
  0
LINE
  5
13A32
  8
2
 10
20.0728953947443607
 20
65.5362073073978024
 30
0.0
 11
16.1518613063849408
 21
65.5362073073978024
 31
0.0
  0
LINE
  5
13A33
  8
0
 10
10.4768863549038507
 20
128.0148706178798932
 30
0.0
 11
10.4768863549038507
 21
89.9149106953649948
 31
0.0
  0
LINE
  5
13A34
  8
0
 10
48.5768863549037633
 20
89.9149106953649948
 30
0.0
 11
48.5768863549037633
 21
128.0148706178798932
 31
0.0
  0
CIRCLE
  5
13A35
  8
0
 10
25.6769264325323583
 20
108.9648906566225008
 30
0.0
 40
9.5249899806287264
  0
ARC
  5
13A36
  8
0
 10
25.336661712564819
 20
108.9648906566225008
 30
0.0
 40
10.1599893126706498
 50
90.0
 51
270.0
  0
ARC
  5
13A37
  8
2
 10
25.336661712564819
 20
108.9648906566225008
 30
0.0
 40
6.5404797942330957
 50
90.0
 51
270.0
  0
LINE
  5
13A38
  8
0
 10
27.2417764344452316
 20
98.8049013439518831
 30
0.0
 11
25.336661712564819
 21
98.8049013439518262
 31
0.0
  0
LINE
  5
13A39
  8
0
 10
25.336661712564819
 20
119.1248799692931044
 30
0.0
 11
27.2417764344452316
 21
119.1248799692931044
 31
0.0
  0
LINE
  5
13A3A
  8
0
 10
10.4768863549038507
 20
128.0148706178798932
 30
0.0
 11
48.5768863549037633
 21
128.0148706178798932
 31
0.0
  0
LINE
  5
13A3B
  8
0
 10
10.4768863549038507
 20
89.9149106953649948
 30
0.0
 11
48.5768863549037633
 21
89.9149106953649948
 31
0.0
  0
LINE
  5
13A3C
  8
2
 10
15.1766898502323802
 20
53.6828428025736315
 30
0.0
 11
37.4017482967774413
 21
53.6828428025736315
 31
0.0
  0
LINE
  5
13A3D
  8
0
 10
20.0728953947443607
 20
65.5362073073978024
 30
0.0
 11
35.2019114034235372
 21
65.5362073073978024
 31
0.0
  0
LINE
  5
13A3E
  8
0
 10
12.5269118485548407
 20
66.1995876752673524
 30
0.0
 11
10.7361038006040399
 21
65.9535157933966474
 31
0.0
  0
LINE
  5
13A3F
  8
0
 10
11.6106146535355492
 20
61.0190989359331724
 30
0.0
 11
10.8936616210905797
 21
61.0011514246512405
 31
0.0
  0
LINE
  5
13A40
  8
0
 10
10.4768863549038507
 20
65.6593697851442073
 30
0.0
 11
10.5862472075059504
 21
61.2935506808703323
 31
0.0
  0
ARC
  5
13A41
  8
0
 10
10.8861540424077194
 20
61.3010582595530806
 30
0.0
 40
0.3000007889297395
 50
181.4339878405029935
 51
271.4339878405024251
  0
ARC
  5
13A42
  8
0
 10
10.7770165530384894
 20
65.6561699994992978
 30
0.0
 40
0.3001472546271376
 50
97.8343160291296385
 51
179.3891742042131057
  0
LINE
  5
13A43
  8
0
 10
12.9432330821000505
 20
48.0390690343234894
 30
0.0
 11
12.9431509131572895
 21
59.7195117965521973
 31
0.0
  0
ARC
  5
13A44
  8
0
 10
11.6431474944940891
 20
59.7195026513589511
 30
0.0
 40
1.300003418695538
 50
0.000403061228165
 51
91.4339878405024251
  0
ARC
  5
13A45
  8
0
 10
27.2417764344452316
 20
108.9648906566225008
 30
0.0
 40
10.1599893126706498
 50
270.0
 51
90.0
  0
LINE
  5
13A46
  8
1
 10
53.4631995037332217
 20
108.9648906566224014
 30
0.0
 11
5.4030730119980026
 21
108.9648906566224014
 31
0.0
  0
LINE
  5
13A47
  8
1
 10
25.6769264325353106
 20
123.984196914801899
 30
0.0
 11
25.6769264325353106
 21
93.9455843984429464
 31
0.0
  0
LINE
  5
13A48
  8
2
 10
30.7298863549044583
 20
38.4528706064164467
 30
0.0
 11
30.7298863549044583
 21
53.6828428025735676
 31
0.0
  0
LINE
  5
13A49
  8
2
 10
31.6768863549041306
 20
38.4528706064164467
 30
0.0
 11
31.6768863549041306
 21
53.6828428025735676
 31
0.0
  0
LINE
  5
13A4A
  8
2
 10
20.6238863549042506
 20
38.4528706064164467
 30
0.0
 11
20.6238863549042506
 21
53.6828428025735676
 31
0.0
  0
LINE
  5
13A4B
  8
2
 10
19.6768863549041306
 20
38.4528706064164396
 30
0.0
 11
19.6768863549041306
 21
53.6828428025735676
 31
0.0
  0
LINE
  5
13A4C
  8
1
 10
25.6768863549043616
 20
70.6828428025735747
 30
0.0
 11
25.6768863549036688
 21
18.6828428025735889
 31
0.0
  0
LINE
  5
13A4D
  8
0
 10
29.6768863549038997
 20
23.6828428025735889
 30
0.0
 11
21.6768863549038997
 21
23.682842802573699
 31
0.0
  0
LINE
  5
13A4E
  8
0
 10
19.6768863549041306
 20
38.4528706064164467
 30
0.0
 11
19.6768863549041306
 21
25.6828428025737594
 31
0.0
  0
LINE
  5
13A4F
  8
3
 10
20.6238863549042506
 20
38.4528706064164396
 30
0.0
 11
20.6238863549042506
 21
24.7358428025735897
 31
0.0
  0
LINE
  5
13A50
  8
3
 10
30.7298863549044583
 20
38.4528706064164467
 30
0.0
 11
30.7298863549042416
 21
24.7358428025735293
 31
0.0
  0
LINE
  5
13A51
  8
0
 10
31.6768863549043509
 20
38.4528706064164396
 30
0.0
 11
31.6768863549041306
 21
25.6828428025734716
 31
0.0
  0
LINE
  5
13A52
  8
0
 10
29.6768863549038997
 20
23.6828428025734183
 30
0.0
 11
31.6768863549038997
 21
25.6828428025734183
 31
0.0
  0
LINE
  5
13A53
  8
0
 10
21.6768863549038997
 20
23.6828428025735214
 30
0.0
 11
19.6768863549038997
 21
25.6828428025735285
 31
0.0
  0
LINE
  5
13A54
  8
0
 10
31.6768863549041306
 20
25.6828428025736493
 30
0.0
 11
19.6768863549038997
 21
25.682842802573699
 31
0.0
  0
LINE
  5
13A55
  8
0
 10
20.6769264325348594
 20
111.8516420025701024
 30
0.0
 11
20.6769264325359892
 21
106.0781393106747998
 31
0.0
  0
LINE
  5
13A56
  8
0
 10
25.6769264325353106
 20
114.7383933485189971
 30
0.0
 11
20.6769264325348594
 21
111.8516420025701024
 31
0.0
  0
LINE
  5
13A57
  8
0
 10
30.6769264325353106
 20
111.8516420025717935
 30
0.0
 11
25.6769264325353106
 21
114.7383933485189971
 31
0.0
  0
LINE
  5
13A58
  8
0
 10
30.6769264325353106
 20
106.0781393106747998
 30
0.0
 11
30.6769264325353106
 21
111.8516420025717935
 31
0.0
  0
LINE
  5
13A59
  8
0
 10
25.6769264325359892
 20
103.191387964726502
 30
0.0
 11
30.6769264325353106
 21
106.0781393106747998
 31
0.0
  0
LINE
  5
13A5A
  8
0
 10
20.6769264325359892
 20
106.0781393106747998
 30
0.0
 11
25.6769264325359892
 21
103.191387964726502
 31
0.0
  0
LINE
  5
13A5B
  8
1
 10
26.2891607106271294
 20
123.984196914801899
 30
0.0
 11
26.2891607106271294
 21
93.9455843984429464
 31
0.0
  0
LINE
  5
13A5C
  8
1
 10
26.2892190735049098
 20
39.5896717650829473
 30
0.0
 11
26.2892190735049098
 21
69.1899701194205647
 31
0.0
  0
ARC
  5
13A5D
  8
0
 10
16.8503863549046784
 20
41.1198706064164483
 30
0.0
 40
2.6669999999999998
 50
90.0
 51
180.0
  0
LINE
  5
13A5E
  8
0
 10
19.1907100114599416
 20
43.7868706064164783
 30
0.0
 11
16.8503863549046784
 21
43.7868706064164499
 31
0.0
  0
ARC
  5
13A5F
  8
0
 10
16.8503863549046784
 20
41.1198706064164483
 30
0.0
 40
2.6669999999999998
 50
180.0
 51
270.0
  0
ARC
  5
13A60
  8
0
 10
34.5033863549047126
 20
41.1198706064164483
 30
0.0
 40
2.6670000000000149
 50
270.0
 51
5.8798656434735346
  0
LINE
  5
13A61
  8
0
 10
16.8503863549046784
 20
38.4528706064164467
 30
0.0
 11
34.5033863549047126
 21
38.4528706064164467
 31
0.0
  0
ARC
  5
13A62
  8
2
 10
27.2416597086894399
 20
108.9648906566225008
 30
0.0
 40
6.5404797942330957
 50
270.0
 51
90.0
  0
LINE
  5
13A63
  8
2
 10
25.336661712564819
 20
115.5053704508555938
 30
0.0
 11
27.2416597086894399
 21
115.5053704508555938
 31
0.0
  0
LINE
  5
13A64
  8
2
 10
25.336661712564819
 20
102.4244108623893936
 30
0.0
 11
27.2416597086894399
 21
102.4244108623893936
 31
0.0
  0
ENDSEC
  0
EOF
