  0
SECTION
  2
HEADER
  9
$ACADVER
  1
AC1009
  9
$INSBASE
 10
0.0
 20
0.0
 30
0.0
  9
$EXTMIN
 10
0.0
 20
-1.4802182810368341
 30
0.0
  9
$EXTMAX
 10
62.5
 20
68.279749379968052
 30
0.0
  9
$LIMMIN
 10
0.0
 20
0.0
  9
$LIMMAX
 10
187.5
 20
135.0
  9
$ORTHOMODE
 70
     1
  9
$REGENMODE
 70
     1
  9
$FILLMODE
 70
     1
  9
$QTEXTMODE
 70
     0
  9
$MIRRTEXT
 70
     0
  9
$DRAGMODE
 70
     2
  9
$LTSCALE
 40
5.0
  9
$OSMODE
 70
  3071
  9
$ATTMODE
 70
     1
  9
$TEXTSIZE
 40
0.06
  9
$TRACEWID
 40
0.05
  9
$TEXTSTYLE
  7
STANDARD
  9
$CLAYER
  8
0
  9
$CELTYPE
  6
BYLAYER
  9
$CECOLOR
 62
   256
  9
$DIMSCALE
 40
0.5
  9
$DIMASZ
 40
3.0
  9
$DIMEXO
 40
2.0
  9
$DIMDLI
 40
10.0
  9
$DIMRND
 40
0.0
  9
$DIMDLE
 40
0.0
  9
$DIMEXE
 40
2.0
  9
$DIMTP
 40
0.0
  9
$DIMTM
 40
0.0
  9
$DIMTXT
 40
3.0
  9
$DIMCEN
 40
0.0
  9
$DIMTSZ
 40
0.0
  9
$DIMTOL
 70
     0
  9
$DIMLIM
 70
     0
  9
$DIMTIH
 70
     0
  9
$DIMTOH
 70
     0
  9
$DIMSE1
 70
     0
  9
$DIMSE2
 70
     0
  9
$DIMTAD
 70
     1
  9
$DIMZIN
 70
     0
  9
$DIMBLK
  1

  9
$DIMASO
 70
     0
  9
$DIMSHO
 70
     0
  9
$DIMPOST
  1

  9
$DIMAPOST
  1

  9
$DIMALT
 70
     0
  9
$DIMALTD
 70
     2
  9
$DIMALTF
 40
25.399999999999999
  9
$DIMLFAC
 40
1.0
  9
$DIMTOFL
 70
     1
  9
$DIMTVP
 40
1.6000000000000001
  9
$DIMTIX
 70
     1
  9
$DIMSOXD
 70
     0
  9
$DIMSAH
 70
     0
  9
$DIMBLK1
  1

  9
$DIMBLK2
  1

  9
$DIMSTYLE
  2
STANDARD
  9
$DIMCLRD
 70
     0
  9
$DIMCLRE
 70
     0
  9
$DIMCLRT
 70
     0
  9
$DIMTFAC
 40
1.0
  9
$DIMGAP
 40
0.09
  9
$LUNITS
 70
     2
  9
$LUPREC
 70
     4
  9
$SKETCHINC
 40
0.1
  9
$FILLETRAD
 40
0.4
  9
$AUNITS
 70
     0
  9
$AUPREC
 70
     4
  9
$MENU
  1
E:\r13\win\SUPPORT\ACAD
  9
$ELEVATION
 40
0.0
  9
$PELEVATION
 40
0.0
  9
$THICKNESS
 40
0.0
  9
$LIMCHECK
 70
     0
  9
$BLIPMODE
 70
     0
  9
$CHAMFERA
 40
0.0
  9
$CHAMFERB
 40
0.0
  9
$SKPOLY
 70
     0
  9
$TDCREATE
 40
2449840.5902083339
  9
$TDUPDATE
 40
2456597.6354396418
  9
$TDINDWG
 40
0.1077412269
  9
$TDUSRTIMER
 40
0.1077412269
  9
$USRTIMER
 70
     1
  9
$ANGBASE
 50
0.0
  9
$ANGDIR
 70
     0
  9
$PDMODE
 70
     0
  9
$PDSIZE
 40
0.0
  9
$PLINEWID
 40
0.0
  9
$COORDS
 70
     1
  9
$SPLFRAME
 70
     0
  9
$SPLINETYPE
 70
     6
  9
$SPLINESEGS
 70
     8
  9
$ATTDIA
 70
     0
  9
$ATTREQ
 70
     1
  9
$HANDLING
 70
     1
  9
$HANDSEED
  5
D02
  9
$SURFTAB1
 70
     6
  9
$SURFTAB2
 70
     6
  9
$SURFTYPE
 70
     6
  9
$SURFU
 70
     6
  9
$SURFV
 70
     6
  9
$UCSNAME
  2

  9
$UCSORG
 10
0.0
 20
0.0
 30
0.0
  9
$UCSXDIR
 10
1.0
 20
0.0
 30
0.0
  9
$UCSYDIR
 10
0.0
 20
1.0
 30
0.0
  9
$PUCSNAME
  2

  9
$PUCSORG
 10
0.0
 20
0.0
 30
0.0
  9
$PUCSXDIR
 10
1.0
 20
0.0
 30
0.0
  9
$PUCSYDIR
 10
0.0
 20
1.0
 30
0.0
  9
$USERI1
 70
     3
  9
$USERI2
 70
     1
  9
$USERI3
 70
     0
  9
$USERI4
 70
     0
  9
$USERI5
 70
     0
  9
$USERR1
 40
0.5
  9
$USERR2
 40
3.0
  9
$USERR3
 40
3.0
  9
$USERR4
 40
3.0
  9
$USERR5
 40
10.0
  9
$WORLDVIEW
 70
     1
  9
$SHADEDGE
 70
     3
  9
$SHADEDIF
 70
    70
  9
$TILEMODE
 70
     1
  9
$MAXACTVP
 70
    16
  9
$PLIMCHECK
 70
     0
  9
$PEXTMIN
 10
1.0000000000000000E+020
 20
1.0000000000000000E+020
 30
1.0000000000000000E+020
  9
$PEXTMAX
 10
-1.0000000000000000E+020
 20
-1.0000000000000000E+020
 30
-1.0000000000000000E+020
  9
$PLIMMIN
 10
0.0
 20
0.0
  9
$PLIMMAX
 10
12.0
 20
9.0
  9
$UNITMODE
 70
     0
  9
$VISRETAIN
 70
     0
  9
$PLINEGEN
 70
     0
  9
$PSLTSCALE
 70
     0
  0
ENDSEC
  0
SECTION
  2
TABLES
  0
TABLE
  2
VPORT
 70
     1
  0
VPORT
  2
*ACTIVE
 70
     0
 10
0.0
 20
0.0
 11
1.0
 21
1.0
 12
93.747139195326156
 22
67.05183146954721
 13
0.0
 23
0.0
 14
5.0
 24
5.0
 15
10.0
 25
10.0
 16
0.0
 26
0.0
 36
1.0
 17
0.0
 27
0.0
 37
0.0
 40
138.6470298934976
 41
2.304913294797688
 42
50.0
 43
0.0
 44
0.0
 50
0.0
 51
0.0
 71
     0
 72
   100
 73
     1
 74
     0
 75
     0
 76
     0
 77
     0
 78
     2
  0
ENDTAB
  0
TABLE
  2
LTYPE
 70
     3
  0
LTYPE
  2
CONTINUOUS
 70
     0
  3
Solid Line
 72
    65
 73
     0
 40
0.0
  0
LTYPE
  2
CENTER
 70
     0
  3
____ _ ____ _ ____ _ ____ _ ____ _ ____ _ ____
 72
    65
 73
     4
 40
2.0
 49
1.25
 49
-0.25
 49
0.25
 49
-0.25
  0
LTYPE
  2
PHANTOM2
 70
     0
  3
___ _ _ ___ _ _ ___ _ _ ___ _ _
 72
    65
 73
     6
 40
1.25
 49
0.625
 49
-0.125
 49
0.125
 49
-0.125
 49
0.125
 49
-0.125
  0
ENDTAB
  0
TABLE
  2
LAYER
 70
     3
  0
LAYER
  2
0
 70
     0
 62
     7
  6
CONTINUOUS
  0
LAYER
  2
1
 70
     0
 62
     1
  6
CENTER
  0
LAYER
  2
3
 70
     0
 62
     3
  6
CONTINUOUS
  0
ENDTAB
  0
TABLE
  2
STYLE
 70
     2
  0
STYLE
  2
STANDARD
 70
     0
 40
0.0
 41
1.0
 50
0.0
 71
     0
 42
0.06
  3
TXT
  4
BIGFONT
  0
STYLE
  2
STANDARD1
 70
     0
 40
0.0
 41
1.0
 50
0.0
 71
     0
 42
3.0
  3
txt
  4

  0
ENDTAB
  0
TABLE
  2
VIEW
 70
     0
  0
ENDTAB
  0
TABLE
  2
UCS
 70
     0
  0
ENDTAB
  0
TABLE
  2
APPID
 70
     3
  0
APPID
  2
ACAD
 70
     0
  0
APPID
  2
ACAD_MLEADERVER
 70
     0
  0
APPID
  2
ACAD_NAV_VCDISPLAY
 70
     0
  0
ENDTAB
  0
TABLE
  2
DIMSTYLE
 70
     1
  0
DIMSTYLE
  2
STANDARD
 70
     0
  3

  4

  5

  6

  7

 40
1.0
 41
0.18
 42
0.0625
 43
0.38
 44
0.18
 45
0.0
 46
0.0
 47
0.0
 48
0.0
140
0.18
141
0.09
142
0.0
143
25.399999999999999
144
1.0
145
0.0
146
1.0
147
0.09
 71
     0
 72
     0
 73
     1
 74
     1
 75
     0
 76
     0
 77
     0
 78
     0
170
     0
171
     2
172
     0
173
     0
174
     0
175
     0
176
     0
177
     0
178
     0
  0
ENDTAB
  0
ENDSEC
  0
SECTION
  2
BLOCKS
  0
BLOCK
  8
0
  2
$MODEL_SPACE
 70
     0
 10
0.0
 20
0.0
 30
0.0
  3
$MODEL_SPACE
  1

  0
ENDBLK
  5
119
  8
0
  0
BLOCK
 67
     1
  8
0
  2
$PAPER_SPACE
 70
     0
 10
0.0
 20
0.0
 30
0.0
  3
$PAPER_SPACE
  1

  0
ENDBLK
  5
117
 67
     1
  8
0
  0
ENDSEC
  0
SECTION
  2
ENTITIES
  0
LINE
  5
8E1
  8
0
 10
49.39087308663769
 20
33.39148557851648
 30
0.0
 11
43.390873086638031
 21
33.39148557851648
 31
0.0
  0
LINE
  5
8E2
  8
0
 10
43.316478209059248
 20
33.57109070093783
 30
0.0
 11
49.46526796421648
 21
33.57109070093783
 31
0.0
  0
LINE
  5
8E4
  8
0
 10
41.390873086637811
 20
35.496695823359282
 30
0.0
 11
51.390872664754959
 21
35.496695823359282
 31
0.0
  0
LINE
  5
912
  8
0
 10
41.390873086637811
 20
32.877695835559251
 30
0.0
 11
51.390873086637839
 21
32.877695835559251
 31
0.0
  0
LINE
  5
916
  8
0
 10
41.390873086637811
 20
24.877695835559479
 30
0.0
 11
51.390873086637811
 21
24.877695835559489
 31
0.0
  0
LINE
  5
917
  8
0
 10
41.390873086637811
 20
24.877695835559479
 30
0.0
 11
41.390873086637811
 21
32.877695835559251
 31
0.0
  0
LINE
  5
919
  8
0
 10
51.390873086637811
 20
32.877695835559251
 30
0.0
 11
51.390873086637811
 21
24.877695835559479
 31
0.0
  0
ARC
  5
91C
  8
0
 10
48.83325146477938
 20
17.001301592118949
 30
0.0
 40
15.876498808756679
 50
80.729551159906435
 51
89.79205220061516
  0
ARC
  5
91D
  8
0
 10
48.94813224725268
 20
17.005673664094189
 30
0.0
 40
15.87212545385623
 50
90.206696662478393
 51
99.271699977002783
  0
ARC
  5
91E
  8
0
 10
48.833613926023141
 20
40.749718007018039
 30
0.0
 40
15.872125453850201
 50
270.20669666247682
 51
279.2716999770052
  0
LINE
  5
91F
  8
0
 10
46.39087308663801
 20
25.084955257196611
 30
0.0
 11
46.39087308663801
 21
32.670436413922467
 31
0.0
  0
ARC
  5
920
  8
0
 10
43.833251464779551
 20
17.001301592118949
 30
0.0
 40
15.876498808756519
 50
80.729551159906435
 51
89.79205220061516
  0
ARC
  5
921
  8
0
 10
43.94813224725285
 20
17.005673664094189
 30
0.0
 40
15.872125453856279
 50
90.206696662478393
 51
99.271699977002783
  0
ARC
  5
923
  8
0
 10
43.94849470849698
 20
40.754090079002658
 30
0.0
 40
15.876498808759729
 50
260.72955115990561
 51
269.79205220061272
  0
ARC
  5
924
  8
0
 10
43.833613926023332
 20
40.749718007018039
 30
0.0
 40
15.872125453850201
 50
270.20669666247682
 51
279.2716999770052
  0
ARC
  5
926
  8
0
 10
48.94849470849681
 20
40.754090079001926
 30
0.0
 40
15.87649880875909
 50
260.72955115990561
 51
269.79205220061272
  0
ARC
  5
927
  8
0
 10
48.006064831268048
 20
35.57022448180355
 30
0.0
 40
1.286150562924369
 50
13.831259592060819
 51
49.325286666930211
  0
ARC
  5
928
  8
0
 10
44.778450956737679
 20
35.570785851894499
 30
0.0
 40
1.2858421308203369
 50
130.6634486145096
 51
166.19111670608939
  0
ARC
  5
929
  8
0
 10
46.752819064539672
 20
35.891673319368671
 30
0.0
 40
1.3818189222703761
 50
145.54093403329361
 51
180.57957318018211
  0
ARC
  5
92A
  8
0
 10
46.035011670269853
 20
35.891286225454003
 30
0.0
 40
1.3794081429990801
 50
359.4354931976543
 51
34.543181494823379
  0
POLYLINE
  5
92B
  8
0
 66
     1
 10
0.0
 20
0.0
 30
0.0
 70
   128
  0
VERTEX
  5
C57
  8
0
 10
50.573794651618577
 20
35.877695823359119
 30
0.0
  0
VERTEX
  5
C58
  8
0
 10
50.747571730982429
 20
35.863429718544729
 30
0.0
  0
VERTEX
  5
C59
  8
0
 10
50.899603876746653
 20
35.82699859552671
 30
0.0
  0
VERTEX
  5
C5A
  8
0
 10
51.032776044624661
 20
35.774624410715461
 30
0.0
  0
VERTEX
  5
C5B
  8
0
 10
51.118417703783791
 20
35.730240104852811
 30
0.0
  0
VERTEX
  5
C5C
  8
0
 10
51.186530059503013
 20
35.693772564359541
 30
0.0
  0
VERTEX
  5
C5D
  8
0
 10
51.237262887853198
 20
35.695778316532397
 30
0.0
  0
VERTEX
  5
C5E
  8
0
 10
51.241331892327082
 20
35.735498720018342
 30
0.0
  0
VERTEX
  5
C5F
  8
0
 10
51.236516187122838
 20
35.746754947206711
 30
0.0
  0
SEQEND
  5
C60
  8
0
  0
LINE
  5
92C
  8
0
 10
50.532300932963459
 20
35.877695823359289
 30
0.0
 11
50.573794651618527
 21
35.877695823359289
 31
0.0
  0
POLYLINE
  5
92D
  8
0
 66
     1
 10
0.0
 20
0.0
 30
0.0
 70
   128
  0
VERTEX
  5
C61
  8
0
 10
49.309505282082057
 20
35.877695823359119
 30
0.0
  0
VERTEX
  5
C62
  8
0
 10
49.525652987315247
 20
35.863429718544729
 30
0.0
  0
VERTEX
  5
C63
  8
0
 10
49.727482306002742
 20
35.82699859552671
 30
0.0
  0
VERTEX
  5
C64
  8
0
 10
49.920334743468914
 20
35.774624410715461
 30
0.0
  0
VERTEX
  5
C65
  8
0
 10
50.05898234307989
 20
35.730240104852811
 30
0.0
  0
VERTEX
  5
C66
  8
0
 10
50.188174769108457
 20
35.693772564359541
 30
0.0
  0
VERTEX
  5
C67
  8
0
 10
50.333498457206417
 20
35.695778316532397
 30
0.0
  0
VERTEX
  5
C68
  8
0
 10
50.414185953252229
 20
35.735498720018342
 30
0.0
  0
VERTEX
  5
C69
  8
0
 10
50.473104078063727
 20
35.783738632339038
 30
0.0
  0
VERTEX
  5
C6A
  8
0
 10
50.521604603432301
 20
35.841268590113522
 30
0.0
  0
VERTEX
  5
C6B
  8
0
 10
50.535630315094579
 20
35.874618605740153
 30
0.0
  0
VERTEX
  5
C6C
  8
0
 10
50.534986287091037
 20
35.875213855621752
 30
0.0
  0
SEQEND
  5
C6D
  8
0
  0
LINE
  5
92E
  8
0
 10
49.234696865354302
 20
35.877695823359289
 30
0.0
 11
49.309505282081943
 21
35.877695823359289
 31
0.0
  0
ARC
  5
92F
  8
0
 10
48.350920938456817
 20
38.850470921685599
 30
0.0
 40
3.1013628736723549
 50
253.44331954212601
 51
286.55668045787388
  0
LINE
  5
930
  8
0
 10
47.373838621160473
 20
35.877695823359289
 30
0.0
 11
47.467145011559353
 21
35.877695823359289
 31
0.0
  0
ARC
  5
931
  8
0
 10
46.392727253923873
 20
40.163287206861668
 30
0.0
 40
4.3964614204238366
 50
257.10533651801148
 51
282.89466348198749
  0
LINE
  5
932
  8
0
 10
45.318291997573219
 20
35.877695823359289
 30
0.0
 11
45.411615886686917
 21
35.877695823359289
 31
0.0
  0
ARC
  5
933
  8
0
 10
44.434166328826109
 20
39.624269824895819
 30
0.0
 40
3.8494798281235911
 50
256.72211681876269
 51
283.27788318123481
  0
LINE
  5
934
  8
0
 10
43.475183213019129
 20
35.877695823359289
 30
0.0
 11
43.550040660078963
 21
35.877695823359289
 31
0.0
  0
POLYLINE
  5
935
  8
0
 66
     1
 10
0.0
 20
0.0
 30
0.0
 70
   128
  0
VERTEX
  5
C6E
  8
0
 10
42.250770311945701
 20
35.87254791497211
 30
0.0
  0
VERTEX
  5
C6F
  8
0
 10
42.25013828972606
 20
35.863429718544729
 30
0.0
  0
VERTEX
  5
C70
  8
0
 10
42.272209024619137
 20
35.82699859552671
 30
0.0
  0
VERTEX
  5
C71
  8
0
 10
42.320481964125342
 20
35.774624410715461
 30
0.0
  0
VERTEX
  5
C72
  8
0
 10
42.377881244484627
 20
35.730240104852811
 30
0.0
  0
VERTEX
  5
C73
  8
0
 10
42.457630878064087
 20
35.693772564359541
 30
0.0
  0
VERTEX
  5
C74
  8
0
 10
42.605499485011762
 20
35.695778316532397
 30
0.0
  0
VERTEX
  5
C75
  8
0
 10
42.741750358883849
 20
35.735498720018342
 30
0.0
  0
VERTEX
  5
C76
  8
0
 10
42.894290951182761
 20
35.783738632339038
 30
0.0
  0
VERTEX
  5
C77
  8
0
 10
43.123657086183179
 20
35.841268590113522
 30
0.0
  0
VERTEX
  5
C78
  8
0
 10
43.376473298713613
 20
35.874618605740153
 30
0.0
  0
VERTEX
  5
C79
  8
0
 10
43.47518321301942
 20
35.877695823359119
 30
0.0
  0
SEQEND
  5
C7A
  8
0
  0
LINE
  5
936
  8
0
 10
42.209562566524767
 20
35.877695823359289
 30
0.0
 11
42.251127136073393
 21
35.877695823359289
 31
0.0
  0
POLYLINE
  5
937
  8
0
 66
     1
 10
0.0
 20
0.0
 30
0.0
 70
   128
  0
VERTEX
  5
C7B
  8
0
 10
41.546229920795042
 20
35.747198891301913
 30
0.0
  0
VERTEX
  5
C7C
  8
0
 10
41.540241299743968
 20
35.730240104852811
 30
0.0
  0
VERTEX
  5
C7D
  8
0
 10
41.546699501727574
 20
35.693772564359541
 30
0.0
  0
VERTEX
  5
C7E
  8
0
 10
41.600605791976989
 20
35.695778316532397
 30
0.0
  0
VERTEX
  5
C7F
  8
0
 10
41.673961195313773
 20
35.735498720018342
 30
0.0
  0
VERTEX
  5
C80
  8
0
 10
41.77006822020013
 20
35.783738632339038
 30
0.0
  0
VERTEX
  5
C81
  8
0
 10
41.932420814768022
 20
35.841268590113522
 30
0.0
  0
VERTEX
  5
C82
  8
0
 10
42.128921646902477
 20
35.874618605740153
 30
0.0
  0
VERTEX
  5
C83
  8
0
 10
42.209562566524987
 20
35.877695823359119
 30
0.0
  0
SEQEND
  5
C84
  8
0
  0
LINE
  5
938
  8
0
 10
41.390873086637811
 20
34.477695823359269
 30
0.0
 11
51.390872664754959
 21
34.477695823359269
 31
0.0
  0
LINE
  5
995
  8
0
 10
49.390873086637612
 20
32.877695835559251
 30
0.0
 11
49.390873086637612
 21
33.39148557851648
 31
0.0
  0
LINE
  5
996
  8
0
 10
43.390873086638031
 20
33.39148557851648
 30
0.0
 11
43.390873086638031
 21
32.877695835559251
 31
0.0
  0
ARC
  5
997
  8
0
 10
49.644873086637709
 20
33.391485578516303
 30
0.0
 40
0.2540000000000107
 50
135.00000000000401
 51
180.0
  0
ARC
  5
998
  8
0
 10
43.136873086637898
 20
33.391485578516303
 30
0.0
 40
0.2540000000000107
 50
0.0
 51
45.000000000000853
  0
LINE
  5
999
  8
0
 10
49.465267964216359
 20
33.57109070093783
 30
0.0
 11
50.371873086637827
 21
34.477695823359269
 31
0.0
  0
LINE
  5
99A
  8
0
 10
42.409873086637823
 20
34.477695823359269
 30
0.0
 11
43.316478209059248
 21
33.57109070093783
 31
0.0
  0
ARC
  5
99B
  8
0
 10
47.870238206958902
 20
35.290195823359262
 30
0.0
 40
1.587499999999975
 50
89.954392494829179
 51
114.6486553958958
  0
ARC
  5
99C
  8
0
 10
44.908981937342382
 20
35.290195823359262
 30
0.0
 40
1.5874999999999639
 50
89.954403774697965
 51
111.9534256888043
  0
ARC
  5
99D
  8
0
 10
49.05799876229915
 20
35.290195823359262
 30
0.0
 40
1.5874999999999599
 50
89.968387133787004
 51
111.96856313019011
  0
ARC
  5
99E
  8
0
 10
43.721999344688207
 20
35.290195823359262
 30
0.0
 40
1.5874999999999591
 50
89.968436881783248
 51
101.9678968016058
  0
POLYLINE
  5
99F
  8
0
 66
     1
 10
0.0
 20
0.0
 30
0.0
 70
   128
  0
VERTEX
  5
C85
  8
0
 10
49.717795865569599
 20
36.877695796227982
 30
0.0
  0
VERTEX
  5
C86
  8
0
 10
49.568647725058163
 20
36.870701611215082
 30
0.0
  0
VERTEX
  5
C87
  8
0
 10
49.387750564861847
 20
36.843070576424253
 30
0.0
  0
SEQEND
  5
C88
  8
0
  0
ARC
  5
9A0
  8
0
 10
43.063619928215751
 20
35.290195823359262
 30
0.0
 40
1.587499999999969
 50
89.989724078845654
 51
160.60266418505961
  0
ARC
  5
9A1
  8
0
 10
46.39087308663801
 20
34.496445823359267
 30
0.0
 40
2.3812499999999481
 50
69.926792604316176
 51
110.1092353642003
  0
ARC
  5
9A2
  8
0
 10
49.718126245059892
 20
35.290195823359262
 30
0.0
 40
1.5874999999999659
 50
16.738089659258709
 51
102.0001450911803
  0
ARC
  5
9A3
  8
0
 10
43.064243805850872
 20
35.290195823359262
 30
0.0
 40
1.5874999999999619
 50
78.043611547609203
 51
163.24241571230689
  0
ARC
  5
9A4
  8
0
 10
49.059746828587443
 20
35.290195823359262
 30
0.0
 40
1.587499999999973
 50
21.625149208632841
 51
112.002582540354
  0
ARC
  5
9A5
  8
0
 10
43.7237474109765
 20
35.290195823359262
 30
0.0
 40
1.587499999999977
 50
68.080581955625703
 51
158.44048844924879
  0
ARC
  5
9A6
  8
0
 10
47.872764235933261
 20
35.290195823359262
 30
0.0
 40
1.587499999999981
 50
52.264971496556669
 51
117.851327738181
  0
ARC
  5
9A7
  8
0
 10
44.911507966316712
 20
35.290195823359262
 30
0.0
 40
1.5874999999999759
 50
62.257398106858773
 51
127.7059927905389
  0
ARC
  5
9A8
  8
0
 10
46.392274926958862
 20
35.290195823359262
 30
0.0
 40
1.587499999999969
 50
60.614736648946817
 51
119.3792136533495
  0
ARC
  5
9A9
  8
0
 10
51.009873086637811
 20
35.49669582335909
 30
0.0
 40
0.3810000000000048
 50
0.0
 51
57.477311972966127
  0
ARC
  5
9AA
  8
0
 10
41.771873086637811
 20
35.49669582335909
 30
0.0
 40
0.3809999999999822
 50
122.6664245583287
 51
180.0
  0
LINE
  5
9AB
  8
0
 10
51.390873086637811
 20
34.477695823359269
 30
0.0
 11
51.390873086637811
 21
35.496695823359282
 31
0.0
  0
LINE
  5
9AC
  8
0
 10
41.390873086637811
 20
35.496695823359282
 30
0.0
 11
41.390873086637811
 21
34.477695823359269
 31
0.0
  0
LINE
  5
9AF
  8
0
 10
17.533706969314
 20
33.39148557851648
 30
0.0
 11
11.53370722244364
 21
33.39148557851648
 31
0.0
  0
LINE
  5
9B0
  8
0
 10
11.459312344865239
 20
33.57109070093783
 30
0.0
 11
17.60810184061539
 21
33.57109070093783
 31
0.0
  0
LINE
  5
9B1
  8
0
 10
9.5337072224437946
 20
35.49669582335892
 30
0.0
 11
19.533707222443439
 21
35.49669582335892
 31
0.0
  0
LINE
  5
9B2
  8
0
 10
9.5337072224437946
 20
32.877695835558903
 30
0.0
 11
19.533707222443439
 21
32.87769583555891
 31
0.0
  0
LINE
  5
9B4
  8
0
 10
9.5337072224437946
 20
24.877695835559109
 30
0.0
 11
19.533707222443439
 21
24.877695835559109
 31
0.0
  0
LINE
  5
9E7
  8
0
 10
20.307209914339641
 20
25.08495525719626
 30
0.0
 11
20.307209914339641
 21
32.670436413922118
 31
0.0
  0
ARC
  5
9E8
  8
0
 10
18.824753449418381
 20
27.475996090713888
 30
0.0
 40
5.4018411159306812
 50
74.071629062301355
 51
89.585477631714454
  0
ARC
  5
9E9
  8
0
 10
18.9026692007244
 20
27.477708093843201
 30
0.0
 40
5.4001273841226229
 50
90.412045548234147
 51
105.93084775775171
  0
ARC
  5
9EA
  8
0
 10
18.824999282007202
 20
30.27768357727517
 30
0.0
 40
5.400127384122599
 50
270.41204554823292
 51
285.93084775775088
  0
ARC
  5
9ED
  8
0
 10
18.902915033313231
 20
30.279395580404469
 30
0.0
 40
5.4018411159309059
 50
254.07162906230261
 51
269.58547763171481
  0
ARC
  5
9EE
  8
0
 10
10.16449941157398
 20
27.475996090712808
 30
0.0
 40
5.401841115931993
 50
74.071629062303131
 51
89.585477631712024
  0
ARC
  5
9EF
  8
0
 10
10.24241516288002
 20
27.477708093843201
 30
0.0
 40
5.4001273841225537
 50
90.412045548233749
 51
105.93084775775171
  0
LINE
  5
9F0
  8
0
 10
8.7602045305475968
 20
25.08495525719626
 30
0.0
 11
8.7602045305475968
 21
32.670436413922118
 31
0.0
  0
ARC
  5
9F1
  8
0
 10
10.24266099546921
 20
30.279395580405549
 30
0.0
 40
5.4018411159316742
 50
254.0716290623044
 51
269.58547763171441
  0
ARC
  5
9F2
  8
0
 10
10.164745244162811
 20
30.27768357727517
 30
0.0
 40
5.4001273841225563
 50
270.41204554823332
 51
285.93084775775128
  0
LINE
  5
9F3
  8
0
 10
17.42045856839162
 20
25.08495525719626
 30
0.0
 11
17.42045856839162
 21
32.670436413922118
 31
0.0
  0
ARC
  5
9F4
  8
0
 10
14.46862473792474
 20
11.763954342813451
 30
0.0
 40
21.113841799925599
 50
81.963401286910823
 51
89.823388011351085
  0
ARC
  5
9F5
  8
0
 10
14.6490331285765
 20
11.064153755589651
 30
0.0
 40
21.813846935816152
 50
90.302913946866667
 51
97.910296754873144
  0
LINE
  5
9F6
  8
0
 10
11.64695587649561
 20
25.08495525719626
 30
0.0
 11
11.64695587649561
 21
32.670436413922118
 31
0.0
  0
ARC
  5
9F7
  8
0
 10
14.64915770548988
 20
46.692973048097826
 30
0.0
 40
21.815582703057441
 50
262.09000633298541
 51
269.69678296527792
  0
ARC
  5
9F8
  8
0
 10
14.46903413074611
 20
45.985735221894089
 30
0.0
 40
21.108138462305419
 50
270.17554845049511
 51
278.03766225124269
  0
ARC
  5
9F9
  8
0
 10
16.782609534914819
 20
35.401964698337821
 30
0.0
 40
1.4236656448692371
 50
19.521423941558009
 51
39.509363470692271
  0
ARC
  5
9FA
  8
0
 10
12.287012862106019
 20
35.402413377607893
 30
0.0
 40
1.4233801219095541
 50
140.4262383395625
 51
160.49366289304169
  0
ARC
  5
9FB
  8
0
 10
15.369509557584459
 20
35.760839205526281
 30
0.0
 40
1.16383108097986
 50
5.7625994330269812
 51
48.714987477121241
  0
ARC
  5
9FC
  8
0
 10
13.70135314650326
 20
35.76139088364998
 30
0.0
 40
1.1638252825135651
 50
131.31025592526879
 51
174.26466848088589
  0
ARC
  5
9FD
  8
0
 10
-352.02830102843183
 20
36.04503637192105
 30
0.0
 40
366.5639324980221
 50
359.9738438328024
 51
0.0999208987295482
  0
POLYLINE
  5
9FE
  8
0
 66
     1
 10
0.0
 20
0.0
 30
0.0
 70
   128
  0
VERTEX
  5
C89
  8
0
 10
9.9686200666758964
 20
35.830816375083288
 30
0.0
  0
VERTEX
  5
C8A
  8
0
 10
9.9659300141768767
 20
35.826998595526248
 30
0.0
  0
VERTEX
  5
C8B
  8
0
 10
9.9665236079684405
 20
35.774624410715226
 30
0.0
  0
VERTEX
  5
C8C
  8
0
 10
9.9879231094358261
 20
35.730240104852363
 30
0.0
  0
VERTEX
  5
C8D
  8
0
 10
10.03213552477774
 20
35.693772564359541
 30
0.0
  0
VERTEX
  5
C8E
  8
0
 10
10.135617482097871
 20
35.695778316531943
 30
0.0
  0
VERTEX
  5
C8F
  8
0
 10
10.243115828688421
 20
35.735498720018342
 30
0.0
  0
VERTEX
  5
C90
  8
0
 10
10.37063685566846
 20
35.78373863233881
 30
0.0
  0
VERTEX
  5
C91
  8
0
 10
10.571533108957111
 20
35.841268590113522
 30
0.0
  0
VERTEX
  5
C92
  8
0
 10
10.80196914379149
 20
35.874618605739933
 30
0.0
  0
VERTEX
  5
C93
  8
0
 10
10.893950731192319
 20
35.877695823358891
 30
0.0
  0
SEQEND
  5
C94
  8
0
  0
ARC
  5
9FF
  8
0
 10
9.9817738758284804
 20
35.36365908592208
 30
0.0
 40
0.5124567215742852
 50
89.467611510656241
 51
139.7598215948577
  0
POLYLINE
  5
A00
  8
0
 66
     1
 10
0.0
 20
0.0
 30
0.0
 70
   128
  0
VERTEX
  5
C95
  8
0
 10
19.077550811837511
 20
35.8746300933947
 30
0.0
  0
VERTEX
  5
C96
  8
0
 10
19.186573511878859
 20
35.863429718544268
 30
0.0
  0
VERTEX
  5
C97
  8
0
 10
19.301533441112319
 20
35.826998595526248
 30
0.0
  0
VERTEX
  5
C98
  8
0
 10
19.393995500521498
 20
35.774624410715226
 30
0.0
  0
VERTEX
  5
C99
  8
0
 10
19.445955750955651
 20
35.730240104852363
 30
0.0
  0
VERTEX
  5
C9A
  8
0
 10
19.477575603543581
 20
35.693772564359541
 30
0.0
  0
VERTEX
  5
C9B
  8
0
 10
19.476820966680229
 20
35.694702567680707
 30
0.0
  0
SEQEND
  5
C9C
  8
0
  0
POLYLINE
  5
A01
  8
0
 66
     1
 10
0.0
 20
0.0
 30
0.0
 70
   128
  0
VERTEX
  5
C9D
  8
0
 10
18.17579894619422
 20
35.877695823358891
 30
0.0
  0
VERTEX
  5
C9E
  8
0
 10
18.375775159680241
 20
35.863429718544268
 30
0.0
  0
VERTEX
  5
C9F
  8
0
 10
18.55725599535555
 20
35.826998595526248
 30
0.0
  0
VERTEX
  5
CA0
  8
0
 10
18.724460463127631
 20
35.774624410715226
 30
0.0
  0
VERTEX
  5
CA1
  8
0
 10
18.83948910061309
 20
35.730240104852363
 30
0.0
  0
VERTEX
  5
CA2
  8
0
 10
18.94067852153449
 20
35.693772564359541
 30
0.0
  0
VERTEX
  5
CA3
  8
0
 10
19.041227759072001
 20
35.695778316531943
 30
0.0
  0
VERTEX
  5
CA4
  8
0
 10
19.084695844999999
 20
35.735498720018342
 30
0.0
  0
VERTEX
  5
CA5
  8
0
 10
19.10432798488074
 20
35.78373863233881
 30
0.0
  0
VERTEX
  5
CA6
  8
0
 10
19.098308182462741
 20
35.829729927405459
 30
0.0
  0
SEQEND
  5
CA7
  8
0
  0
LINE
  5
A02
  8
0
 10
18.11615241544737
 20
35.87769582335892
 30
0.0
 11
18.175798946193911
 21
35.87769582335892
 31
0.0
  0
POLYLINE
  5
A03
  8
0
 66
     1
 10
0.0
 20
0.0
 30
0.0
 70
   128
  0
VERTEX
  5
CA8
  8
0
 10
16.582527484151171
 20
35.877695823358891
 30
0.0
  0
VERTEX
  5
CA9
  8
0
 10
16.804008132641059
 20
35.863429718544268
 30
0.0
  0
VERTEX
  5
CAA
  8
0
 10
17.01606536953642
 20
35.826998595526248
 30
0.0
  0
VERTEX
  5
CAB
  8
0
 10
17.224895350199692
 20
35.774624410715226
 30
0.0
  0
VERTEX
  5
CAC
  8
0
 10
17.380209542350091
 20
35.730240104852363
 30
0.0
  0
VERTEX
  5
CAD
  8
0
 10
17.530926725784241
 20
35.693772564359541
 30
0.0
  0
VERTEX
  5
CAE
  8
0
 10
17.713737727902121
 20
35.695778316531943
 30
0.0
  0
VERTEX
  5
CAF
  8
0
 10
17.8275986260922
 20
35.735498720018342
 30
0.0
  0
VERTEX
  5
CB0
  8
0
 10
17.922848335036459
 20
35.78373863233881
 30
0.0
  0
VERTEX
  5
CB1
  8
0
 10
18.024947465344489
 20
35.841268590113522
 30
0.0
  0
VERTEX
  5
CB2
  8
0
 10
18.097037525045661
 20
35.874618605739933
 30
0.0
  0
VERTEX
  5
CB3
  8
0
 10
18.116152415447509
 20
35.877695823358891
 30
0.0
  0
SEQEND
  5
CB4
  8
0
  0
LINE
  5
A04
  8
0
 10
16.496308387833778
 20
35.87769582335892
 30
0.0
 11
16.582527484151129
 21
35.87769582335892
 31
0.0
  0
ARC
  5
A05
  8
0
 10
15.539885214983279
 20
39.705036072798947
 30
0.0
 40
3.9450321507622248
 50
255.96956001014459
 51
284.03043998985618
  0
LINE
  5
A06
  8
0
 10
14.487747129690829
 20
35.87769582335892
 30
0.0
 11
14.583462042132791
 21
35.87769582335892
 31
0.0
  0
ARC
  5
A07
  8
0
 10
13.53114458878639
 20
40.134462066723913
 30
0.0
 40
4.3629287493512852
 50
257.33460493228642
 51
282.66539506771443
  0
LINE
  5
A08
  8
0
 10
12.488288831581089
 20
35.87769582335892
 30
0.0
 11
12.574542047881209
 21
35.87769582335892
 31
0.0
  0
POLYLINE
  5
A09
  8
0
 66
     1
 10
0.0
 20
0.0
 30
0.0
 70
   128
  0
VERTEX
  5
CB5
  8
0
 10
10.953658744040069
 20
35.877695823358891
 30
0.0
  0
VERTEX
  5
CB6
  8
0
 10
11.001978770890499
 20
35.863429718544268
 30
0.0
  0
VERTEX
  5
CB7
  8
0
 10
11.07068332078626
 20
35.826998595526248
 30
0.0
  0
VERTEX
  5
CB8
  8
0
 10
11.16421499924928
 20
35.774624410715226
 30
0.0
  0
VERTEX
  5
CB9
  8
0
 10
11.25473581890475
 20
35.730240104852363
 30
0.0
  0
VERTEX
  5
CBA
  8
0
 10
11.366023691088509
 20
35.693772564359541
 30
0.0
  0
VERTEX
  5
CBB
  8
0
 10
11.550864198266311
 20
35.695778316531943
 30
0.0
  0
VERTEX
  5
CBC
  8
0
 10
11.709035411669729
 20
35.735498720018342
 30
0.0
  0
VERTEX
  5
CBD
  8
0
 10
11.878946547035691
 20
35.78373863233881
 30
0.0
  0
VERTEX
  5
CBE
  8
0
 10
12.12528118798928
 20
35.841268590113522
 30
0.0
  0
VERTEX
  5
CBF
  8
0
 10
12.38780031765083
 20
35.874618605739933
 30
0.0
  0
VERTEX
  5
CC0
  8
0
 10
12.488288831581309
 20
35.877695823358891
 30
0.0
  0
SEQEND
  5
CC1
  8
0
  0
LINE
  5
A0A
  8
0
 10
10.89395073119212
 20
35.87769582335892
 30
0.0
 11
10.953658744040149
 21
35.87769582335892
 31
0.0
  0
LINE
  5
A0B
  8
0
 10
9.5337072224437946
 20
34.477695823358921
 30
0.0
 11
19.533707222443439
 21
34.477695823358921
 31
0.0
  0
LINE
  5
A22
  8
0
 10
9.5337072224437946
 20
32.877695835558903
 30
0.0
 11
8.7602045305475968
 21
32.670436413922118
 31
0.0
  0
LINE
  5
A23
  8
0
 10
20.307209914339641
 20
32.670436413922118
 30
0.0
 11
19.533707222443439
 21
32.877695835558903
 31
0.0
  0
LINE
  5
A24
  8
0
 10
8.7602045305475968
 20
25.08495525719626
 30
0.0
 11
9.5337072224437946
 21
24.877695835559109
 31
0.0
  0
LINE
  5
A25
  8
0
 10
19.533707222443439
 20
24.877695835559109
 30
0.0
 11
20.307209914339641
 21
25.08495525719626
 31
0.0
  0
LINE
  5
A6C
  8
0
 10
17.533707222443581
 20
32.877695835558903
 30
0.0
 11
17.533707222443581
 21
33.39148557851648
 31
0.0
  0
LINE
  5
A6D
  8
0
 10
11.53370722244364
 20
33.39148557851648
 30
0.0
 11
11.53370722244364
 21
32.877695835558903
 31
0.0
  0
ARC
  5
A6E
  8
0
 10
17.7877072224437
 20
33.39148557851648
 30
0.0
 40
0.2539999999999995
 50
135.00000000000281
 51
180.0000000000008
  0
ARC
  5
A6F
  8
0
 10
11.279707222443889
 20
33.39148557851648
 30
0.0
 40
0.2539999999999995
 50
0.0
 51
44.999999999998252
  0
LINE
  5
A70
  8
0
 10
17.608102100021991
 20
33.57109070093783
 30
0.0
 11
18.51470722244343
 21
34.477695823358921
 31
0.0
  0
LINE
  5
A71
  8
0
 10
10.552707222443431
 20
34.477695823358921
 30
0.0
 11
11.459312344865239
 21
33.57109070093783
 31
0.0
  0
POLYLINE
  5
A72
  8
0
 66
     1
 10
0.0
 20
0.0
 30
0.0
 70
   128
  0
VERTEX
  5
CC2
  8
0
 10
15.29305974454866
 20
36.877695235146383
 30
0.0
  0
VERTEX
  5
CC3
  8
0
 10
15.13022101707185
 20
36.86946242515981
 30
0.0
  0
VERTEX
  5
CC4
  8
0
 10
14.95135319370485
 20
36.8407844092267
 30
0.0
  0
SEQEND
  5
CC5
  8
0
  0
ARC
  5
A73
  8
0
 10
13.772987906132011
 20
35.29019582335907
 30
0.0
 40
1.5874999999999391
 50
89.950660056295462
 51
115.5232492613698
  0
ARC
  5
A74
  8
0
 10
16.660269988865519
 20
35.29019582335907
 30
0.0
 40
1.5874999999999631
 50
89.960472678655236
 51
115.5340759871177
  0
ARC
  5
A75
  8
0
 10
12.4049524502291
 20
35.29019582335907
 30
0.0
 40
1.5874999999999571
 50
89.960466059935442
 51
107.3424232424936
  0
ARC
  5
A76
  8
0
 10
17.60765498902002
 20
35.29019582335907
 30
0.0
 40
1.5874999999999411
 50
89.978134300564975
 51
107.3608669834228
  0
POLYLINE
  5
A77
  8
0
 66
     1
 10
0.0
 20
0.0
 30
0.0
 70
   128
  0
VERTEX
  5
CC6
  8
0
 10
11.459149268599329
 20
36.877695707585673
 30
0.0
  0
VERTEX
  5
CC7
  8
0
 10
11.293425188938549
 20
36.869085421656592
 30
0.0
  0
VERTEX
  5
CC8
  8
0
 10
11.28987524740279
 20
36.868710138937587
 30
0.0
  0
SEQEND
  5
CC9
  8
0
  0
ARC
  5
A78
  8
0
 10
17.94620693450873
 20
35.29019582335907
 30
0.0
 40
1.5874999999999571
 50
14.80354954116817
 51
96.121116742843185
  0
ARC
  5
A79
  8
0
 10
11.12120751037884
 20
35.29019582335907
 30
0.0
 40
1.5874999999999651
 50
83.900961015764835
 51
165.19588409378079
  0
ARC
  5
A7A
  8
0
 10
14.533707222443979
 20
34.496445823359103
 30
0.0
 40
2.381249999999949
 50
79.898681345174481
 51
100.1381957779205
  0
ARC
  5
A7B
  8
0
 10
11.45975945586755
 20
35.29019582335907
 30
0.0
 40
1.5874999999999599
 50
72.680573129371041
 51
160.06803523933709
  0
ARC
  5
A7C
  8
0
 10
17.608871460460328
 20
35.29019582335907
 30
0.0
 40
1.5874999999999511
 50
19.926051887724022
 51
107.3838685531026
  0
ARC
  5
A7D
  8
0
 10
16.66246199465883
 20
35.29019582335907
 30
0.0
 40
1.5874999999999571
 50
39.862834969938078
 51
115.5779225018
  0
ARC
  5
A7E
  8
0
 10
12.407144456021699
 20
35.29019582335907
 30
0.0
 40
1.5874999999999619
 50
64.520577279355024
 51
140.06656297931971
  0
ARC
  5
A7F
  8
0
 10
15.294426538755561
 20
35.29019582335907
 30
0.0
 40
1.58749999999995
 50
57.926007200943708
 51
118.5765476811418
  0
ARC
  5
A80
  8
0
 10
13.775721292646789
 20
35.29019582335907
 30
0.0
 40
1.58749999999995
 50
61.423452318858843
 51
122.0597904897224
  0
ARC
  5
A81
  8
0
 10
19.15270722244378
 20
35.49669582335892
 30
0.0
 40
0.3810000000000048
 50
0.0
 51
31.409940057638099
  0
ARC
  5
A82
  8
0
 10
9.9147072224441501
 20
35.49669582335892
 30
0.0
 40
0.3810000000000048
 50
148.58266730957979
 51
180.0000000000008
  0
LINE
  5
A83
  8
0
 10
19.533707222443439
 20
34.477695823358921
 30
0.0
 11
19.533707222443439
 21
35.49669582335892
 31
0.0
  0
LINE
  5
A84
  8
0
 10
9.5337072224437946
 20
35.49669582335892
 30
0.0
 11
9.5337072224437946
 21
34.477695823358921
 31
0.0
  0
LINE
  5
A85
  8
0
 10
20.307209914339669
 20
60.279749379968223
 30
0.0
 11
17.420458568391979
 21
55.279749379968052
 31
0.0
  0
LINE
  5
A88
  8
0
 10
11.646955876496181
 20
55.279749379968059
 30
0.0
 11
8.7602045305475968
 21
60.279749379967868
 31
0.0
  0
LINE
  5
A8A
  8
0
 10
8.7602045305475826
 20
60.279749379967868
 30
0.0
 11
11.64695587649596
 21
65.279749379968052
 31
0.0
  0
LINE
  5
A8B
  8
0
 10
11.64695587649598
 20
65.279749379968052
 30
0.0
 11
17.420458568391979
 21
65.279749379968052
 31
0.0
  0
LINE
  5
A8E
  8
0
 10
17.420458568391759
 20
65.279749379968038
 30
0.0
 11
20.307209914339641
 21
60.279749379968223
 31
0.0
  0
LINE
  5
A90
  8
0
 10
17.420458568391979
 20
55.279749379968059
 30
0.0
 11
11.64695587649596
 21
55.279749379968052
 31
0.0
  0
CIRCLE
  5
A91
  8
0
 10
14.533707222443979
 20
60.279749379968223
 30
0.0
 40
4.9999999999998916
  0
ARC
  5
A92
  8
0
 10
14.533707222443979
 20
60.279749379968223
 30
0.0
 40
4.6189999999998976
 50
192.2870275084687
 51
193.4743319263921
  0
ARC
  5
A93
  8
0
 10
14.533707222443979
 20
60.279749379968223
 30
0.0
 40
4.6189999999998994
 50
166.5727417941832
 51
167.76004621210581
  0
ARC
  5
A94
  8
0
 10
14.533707222443979
 20
60.279749379968223
 30
0.0
 40
4.6189999999998852
 50
140.85845607989711
 51
142.04576049780709
  0
ARC
  5
A95
  8
0
 10
14.533707222443979
 20
60.279749379968223
 30
0.0
 40
4.6189999999999003
 50
115.1441703656116
 51
116.3314747835971
  0
ARC
  5
A96
  8
0
 10
14.533707222443979
 20
60.279749379968223
 30
0.0
 40
4.6189999999999021
 50
89.429884651325096
 51
90.617189069193813
  0
ARC
  5
A97
  8
0
 10
14.533707222443979
 20
60.279749379968223
 30
0.0
 40
4.6189999999999163
 50
63.715598937039182
 51
64.902903354916802
  0
ARC
  5
A98
  8
0
 10
14.533707222443979
 20
60.279749379968223
 30
0.0
 40
4.6189999999998941
 50
38.001313222753929
 51
39.188617640739068
  0
ARC
  5
A99
  8
0
 10
14.533707222443979
 20
60.279749379968223
 30
0.0
 40
4.6189999999998994
 50
12.287027508467879
 51
13.47433192646071
  0
ARC
  5
A9A
  8
0
 10
14.533707222443979
 20
60.279749379968223
 30
0.0
 40
4.6189999999999127
 50
346.57274179418238
 51
347.76004621204999
  0
ARC
  5
A9B
  8
0
 10
14.533707222443979
 20
60.279749379968223
 30
0.0
 40
4.6189999999999003
 50
320.8584560798962
 51
322.04576049780889
  0
ARC
  5
A9C
  8
0
 10
14.533707222443979
 20
60.279749379968223
 30
0.0
 40
4.6189999999998941
 50
295.14417036561082
 51
296.33147478359501
  0
ARC
  5
A9D
  8
0
 10
14.533707222443979
 20
60.279749379968223
 30
0.0
 40
4.6189999999998941
 50
269.42988465132589
 51
270.61718906919259
  0
ARC
  5
A9E
  8
0
 10
14.533707222443979
 20
60.279749379968223
 30
0.0
 40
4.6189999999999021
 50
243.7155989370396
 51
244.9029033549175
  0
ARC
  5
A9F
  8
0
 10
14.533707222443979
 20
60.279749379968223
 30
0.0
 40
4.6189999999998959
 50
218.00131322275419
 51
219.1886176407393
  0
ARC
  5
AA0
  8
0
 10
11.45975945586755
 20
58.797858230672603
 30
0.0
 40
1.474788120375224
 50
7.6049065915192751
 51
23.485997780279568
  0
ARC
  5
AA1
  8
0
 10
11.45975945586755
 20
58.797858230672603
 30
0.0
 40
1.4747881203752251
 50
27.9896473691492
 51
43.870738557909434
  0
ARC
  5
AA2
  8
0
 10
11.45975945586755
 20
58.797858230672603
 30
0.0
 40
1.474788120386489
 50
161.8906208772348
 51
164.035864750988
  0
ARC
  5
AA3
  8
0
 10
11.320038732313851
 20
58.730501554730267
 30
0.0
 40
1.3628932034554431
 50
159.6937398269101
 51
251.78190532223749
  0
ARC
  5
AA4
  8
0
 10
11.45975945586755
 20
58.797858230672603
 30
0.0
 40
1.474788120375236
 50
247.4397803976675
 51
249.58502427219591
  0
ARC
  5
AA5
  8
0
 10
12.407144456021699
 20
57.610875638018449
 30
0.0
 40
1.4747881203752291
 50
33.319192305805643
 51
49.2002834945649
  0
ARC
  5
AA6
  8
0
 10
12.407144456021699
 20
57.610875638018449
 30
0.0
 40
1.474788120375214
 50
53.703933083434407
 51
69.585024272194474
  0
LINE
  5
AA7
  8
0
 10
12.921575650652031
 20
58.993033568933441
 30
0.0
 11
10.945328261237229
 21
57.415700299757603
 31
0.0
  0
ARC
  5
AA8
  8
0
 10
12.407144456021699
 20
57.610875638018449
 30
0.0
 40
1.4747881203840321
 50
187.60490659152089
 51
189.7501504654428
  0
ARC
  5
AA9
  8
0
 10
12.31048540031035
 20
57.489566819976702
 30
0.0
 40
1.3628932034507619
 50
185.40802554116971
 51
277.49619103660962
  0
ARC
  5
AAA
  8
0
 10
12.407144456021699
 20
57.610875638018449
 30
0.0
 40
1.4747881203752471
 50
273.15406611195158
 51
275.29930998648041
  0
ARC
  5
AAB
  8
0
 10
16.66246199465883
 20
57.612623704306714
 30
0.0
 40
1.4747881203752511
 50
110.4620494486626
 51
126.34314063742301
  0
ARC
  5
AAC
  8
0
 10
16.66246199465883
 20
57.612623704306714
 30
0.0
 40
1.47478812037524
 50
130.84679022629251
 51
146.72788141505231
  0
ARC
  5
AAD
  8
0
 10
16.66246199465883
 20
57.612623704306714
 30
0.0
 40
1.47478812038405
 50
264.74776373437749
 51
266.89300760829678
  0
ARC
  5
AAE
  8
0
 10
16.75922068400919
 20
57.491394341440611
 30
0.0
 40
1.3628932034507619
 50
262.55088268402397
 51
354.6390481794686
  0
ARC
  5
AAF
  8
0
 10
16.66246199465883
 20
57.612623704306714
 30
0.0
 40
1.474788120375224
 50
350.29692325480988
 51
352.44216712933797
  0
ARC
  5
AB0
  8
0
 10
11.12120751037884
 20
60.278347539647001
 30
0.0
 40
1.474788120375236
 50
341.89062087723471
 51
357.77171206599428
  0
ARC
  5
AB1
  8
0
 10
11.12120751037884
 20
60.278347539647001
 30
0.0
 40
1.4747881203752531
 50
2.2753616548629152
 51
18.156452843621832
  0
ARC
  5
AB2
  8
0
 10
11.12120751037884
 20
60.278347539647001
 30
0.0
 40
1.474788120386487
 50
136.1763351629491
 51
138.32157903670151
  0
ARC
  5
AB3
  8
0
 10
10.966098521844099
 20
60.278283821545102
 30
0.0
 40
1.3628932034554591
 50
133.9794541126235
 51
226.0676196079506
  0
ARC
  5
AB4
  8
0
 10
11.12120751037884
 20
60.278347539647001
 30
0.0
 40
1.474788120375228
 50
221.72549468338221
 51
223.8707385579095
  0
LINE
  5
AB5
  8
0
 10
12.52294179802357
 20
59.819936166706469
 30
0.0
 11
10.058025168222841
 21
59.256269603612793
 31
0.0
  0
ARC
  5
AB6
  8
0
 10
11.458542984426879
 20
61.759114500289137
 30
0.0
 40
1.4747881203752391
 50
316.1763351629499
 51
332.05742635170822
  0
ARC
  5
AB7
  8
0
 10
11.458542984426879
 20
61.759114500289137
 30
0.0
 40
1.4747881203752351
 50
336.56107594057812
 51
352.44216712933797
  0
ARC
  5
AB8
  8
0
 10
11.458542984426879
 20
61.759114500289137
 30
0.0
 40
1.474788120387017
 50
110.4620494486644
 51
112.60729332237921
  0
ARC
  5
AB9
  8
0
 10
11.318766968378471
 20
61.826356360179169
 30
0.0
 40
1.3628932034564261
 50
108.2651683983415
 51
200.35333389364939
  0
ARC
  5
ABA
  8
0
 10
11.458542984426879
 20
61.759114500289137
 30
0.0
 40
1.4747881203752311
 50
196.0112089690966
 51
198.1564528436235
  0
LINE
  5
ABB
  8
0
 10
10.05718579668509
 20
61.29955162933112
 30
0.0
 11
12.522564698121011
 21
60.737910410605018
 31
0.0
  0
ARC
  5
ABC
  8
0
 10
15.294426538755561
 20
56.953120099181113
 30
0.0
 40
1.4747881203752311
 50
84.747763734376662
 51
100.62885492313811
  0
ARC
  5
ABD
  8
0
 10
15.294426538755561
 20
56.953120099181113
 30
0.0
 40
1.4747881203752209
 50
105.1325045120069
 51
121.0135957007671
  0
ARC
  5
ABE
  8
0
 10
15.294426538755561
 20
56.953120099181113
 30
0.0
 40
1.4747881203886719
 50
239.03347802009219
 51
241.1787218936928
  0
ARC
  5
ABF
  8
0
 10
15.32900365630274
 20
56.801914195443317
 30
0.0
 40
1.362893203459647
 50
236.83659696978879
 51
328.92476246501479
  0
ARC
  5
AC0
  8
0
 10
15.294426538755561
 20
56.953120099181113
 30
0.0
 40
1.474788120375222
 50
324.5826375405241
 51
326.7278814150514
  0
LINE
  5
AC1
  8
0
 10
15.42942935865155
 20
58.42171610851122
 30
0.0
 11
16.52745917476248
 21
56.144027694976621
 31
0.0
  0
ARC
  5
AC2
  8
0
 10
13.775721292646789
 20
56.952496221545971
 30
0.0
 40
1.4747881203752451
 50
59.033478020091017
 51
74.914569208851361
  0
ARC
  5
AC3
  8
0
 10
13.775721292646789
 20
56.952496221545971
 30
0.0
 40
1.474788120375248
 50
79.418218797720726
 51
95.299309986481589
  0
LINE
  5
AC4
  8
0
 10
13.639511932570461
 20
58.420980818069779
 30
0.0
 11
12.54335381609876
 21
56.142391041494648
 31
0.0
  0
ARC
  5
AC5
  8
0
 10
13.775721292646789
 20
56.952496221545971
 30
0.0
 40
1.4747881203882971
 50
213.31919230580661
 51
215.46443617943399
  0
ARC
  5
AC6
  8
0
 10
13.74126841620868
 20
56.801261960585457
 30
0.0
 40
1.3628932034589201
 50
211.12231125549931
 51
303.2104767507422
  0
ARC
  5
AC7
  8
0
 10
13.775721292646789
 20
56.952496221545971
 30
0.0
 40
1.4747881203752351
 50
298.86835182623832
 51
301.01359570076568
  0
LINE
  5
AC8
  8
0
 10
14.53455455823339
 20
58.217079977190139
 30
0.0
 11
14.53559327316931
 21
55.688536343536953
 31
0.0
  0
ARC
  5
AC9
  8
0
 10
17.608871460460328
 20
58.800384259646961
 30
0.0
 40
1.474788120375232
 50
136.1763351629491
 51
152.05742635170981
  0
ARC
  5
ACA
  8
0
 10
17.608871460460328
 20
58.800384259646961
 30
0.0
 40
1.474788120375238
 50
156.56107594057889
 51
172.442167129338
  0
LINE
  5
ACB
  8
0
 10
16.146895404682379
 20
58.994358516526717
 30
0.0
 11
18.124438050436421
 21
57.418649447426958
 31
0.0
  0
ARC
  5
ACC
  8
0
 10
17.608871460460328
 20
58.800384259646961
 30
0.0
 40
1.4747881203869351
 50
290.46204944866258
 51
292.60729332238469
  0
ARC
  5
ACD
  8
0
 10
17.748647476509461
 20
58.733142399756929
 30
0.0
 40
1.362893203456349
 50
288.26516839834147
 51
20.353333893647601
  0
ARC
  5
ACE
  8
0
 10
17.608871460460328
 20
58.800384259646961
 30
0.0
 40
1.474788120375242
 50
16.01120896909568
 51
18.156452843623509
  0
LINE
  5
ACF
  8
0
 10
15.78847330720984
 20
58.800539431204569
 30
0.0
 11
15.697893664936929
 21
58.728243683196212
 31
0.0
  0
ARC
  5
AD0
  8
0
 10
14.533707222443979
 20
60.279749379968223
 30
0.0
 40
1.939716474127047
 50
310.30686697001357
 51
332.59734960798698
  0
LINE
  5
AD1
  8
0
 10
16.306017544827011
 20
59.491449867616801
 30
0.0
 11
16.255776056541588
 21
59.3870126155023
 31
0.0
  0
ARC
  5
AD2
  8
0
 10
14.533707222443979
 20
60.279749379968223
 30
0.0
 40
1.939716474127045
 50
336.0211526842989
 51
358.3116353222731
  0
ARC
  5
AD3
  8
0
 10
14.533707222443979
 20
60.279749379968223
 30
0.0
 40
1.939716474127045
 50
1.735438398585174
 51
24.025921036558501
  0
ARC
  5
AD4
  8
0
 10
14.533707222443979
 20
60.279749379968223
 30
0.0
 40
1.9397164741270509
 50
27.449724112870619
 51
49.740206750844251
  0
ARC
  5
AD5
  8
0
 10
14.533707222443979
 20
60.279749379968223
 30
0.0
 40
1.939716474127031
 50
53.164009827156491
 51
75.454492465129633
  0
ARC
  5
AD6
  8
0
 10
14.533707222443979
 20
60.279749379968223
 30
0.0
 40
1.9397164741270401
 50
78.878295541442284
 51
101.168778179417
  0
ARC
  5
AD7
  8
0
 10
14.533707222443979
 20
60.279749379968223
 30
0.0
 40
1.939716474127043
 50
104.59258125572801
 51
126.8830638937017
  0
ARC
  5
AD8
  8
0
 10
14.533707222443979
 20
60.279749379968223
 30
0.0
 40
1.9397164741270401
 50
130.30686697001431
 51
152.59734960798789
  0
LINE
  5
AD9
  8
0
 10
12.7613969000602
 20
61.06804889231892
 30
0.0
 11
12.811638388345999
 21
61.172486144433798
 31
0.0
  0
ARC
  5
ADA
  8
0
 10
14.533707222443979
 20
60.279749379968223
 30
0.0
 40
1.939716474127039
 50
156.02115268430069
 51
178.3116353222731
  0
LINE
  5
ADB
  8
0
 10
12.594880457750699
 20
60.221006069626583
 30
0.0
 11
12.594832849122691
 21
60.336899747227392
 31
0.0
  0
ARC
  5
ADC
  8
0
 10
14.533707222443979
 20
60.279749379968223
 30
0.0
 40
1.9397164741270341
 50
181.73543839858519
 51
204.0259210365586
  0
LINE
  5
ADD
  8
0
 10
12.81237243433848
 20
59.385598079986877
 30
0.0
 11
12.762045158269
 21
59.489994018882051
 31
0.0
  0
ARC
  5
ADE
  8
0
 10
14.533707222443979
 20
60.279749379968223
 30
0.0
 40
1.939716474127045
 50
207.44972411287139
 51
229.74020675084509
  0
LINE
  5
ADF
  8
0
 10
13.37079587649624
 20
58.727287721353967
 30
0.0
 11
13.28015686723495
 21
58.799509025513849
 31
0.0
  0
ARC
  5
AE0
  8
0
 10
14.533707222443979
 20
60.279749379968223
 30
0.0
 40
1.939716474127041
 50
233.1640098271574
 51
255.4544924651305
  0
LINE
  5
AE1
  8
0
 10
14.159548172890521
 20
58.376461433902747
 30
0.0
 11
14.04654959783598
 21
58.402203788301563
 31
0.0
  0
ARC
  5
AE2
  8
0
 10
14.533707222443979
 20
60.279749379968223
 30
0.0
 40
1.9397164741270561
 50
258.8782955414427
 51
281.16877817941571
  0
LINE
  5
AE3
  8
0
 10
15.02240725780851
 20
58.402604666464342
 30
0.0
 11
14.909429870586649
 21
58.376769482104521
 31
0.0
  0
ARC
  5
AE4
  8
0
 10
14.533707222443979
 20
60.279749379968223
 30
0.0
 40
1.939716474127043
 50
284.59258125572762
 51
306.88306389370149
  0
ARC
  5
AE5
  8
0
 10
12.4049524502291
 20
62.946875055629391
 30
0.0
 40
1.4747881203752149
 50
290.46204944866298
 51
306.34314063742391
  0
LINE
  5
AE6
  8
0
 10
13.27894113767775
 20
61.758959328731521
 30
0.0
 11
13.369520779950641
 21
61.831255076739893
 31
0.0
  0
ARC
  5
AE7
  8
0
 10
12.4049524502291
 20
62.946875055629391
 30
0.0
 40
1.47478812037522
 50
310.84679022629342
 51
326.72788141505231
  0
ARC
  5
AE8
  8
0
 10
12.4049524502291
 20
62.946875055629391
 30
0.0
 40
1.4747881203840449
 50
84.747763734377457
 51
86.893007608299214
  0
ARC
  5
AE9
  8
0
 10
12.308193760878391
 20
63.06810441849548
 30
0.0
 40
1.3628932034506991
 50
82.550882684024032
 51
174.63904817947019
  0
ARC
  5
AEA
  8
0
 10
12.4049524502291
 20
62.946875055629391
 30
0.0
 40
1.4747881203752351
 50
170.29692325480991
 51
172.4421671293388
  0
LINE
  5
AEB
  8
0
 10
12.920519040204841
 20
61.565140243409388
 30
0.0
 11
10.94297639445116
 21
63.140849312509133
 31
0.0
  0
ARC
  5
AEC
  8
0
 10
13.772987906132011
 20
63.606378660754991
 30
0.0
 40
1.474788120375242
 50
264.74776373437749
 51
280.62885492313728
  0
LINE
  5
AED
  8
0
 10
14.045007187079079
 20
62.156894093471749
 30
0.0
 11
14.15798457430094
 21
62.182729277831577
 31
0.0
  0
ARC
  5
AEE
  8
0
 10
13.772987906132011
 20
63.606378660754991
 30
0.0
 40
1.4747881203752371
 50
285.13250451200548
 51
301.01359570076568
  0
ARC
  5
AEF
  8
0
 10
13.772987906132011
 20
63.606378660754991
 30
0.0
 40
1.474788120388681
 50
59.03347802009214
 51
61.178721893693172
  0
ARC
  5
AF0
  8
0
 10
13.73841078858484
 20
63.757584564492767
 30
0.0
 40
1.3628932034596211
 50
56.836596969788111
 51
148.92476246501769
  0
ARC
  5
AF1
  8
0
 10
13.772987906132011
 20
63.606378660754991
 30
0.0
 40
1.4747881203752511
 50
144.58263754052609
 51
146.72788141505319
  0
LINE
  5
AF2
  8
0
 10
13.63798508623603
 20
62.137782651424878
 30
0.0
 11
12.539955270124731
 21
64.41547106495949
 31
0.0
  0
ARC
  5
AF3
  8
0
 10
15.29169315224043
 20
63.60700253839012
 30
0.0
 40
1.474788120375236
 50
239.03347802009219
 51
254.91456920885241
  0
LINE
  5
AF4
  8
0
 10
14.907866271997049
 20
62.18303732603335
 30
0.0
 11
15.020864847051969
 21
62.157294971634528
 31
0.0
  0
ARC
  5
AF5
  8
0
 10
15.29169315224043
 20
63.60700253839012
 30
0.0
 40
1.474788120375232
 50
259.41821879772158
 51
275.29930998648041
  0
ARC
  5
AF6
  8
0
 10
15.29169315224043
 20
63.60700253839012
 30
0.0
 40
1.474788120388292
 50
33.319192305805643
 51
35.464436179434252
  0
ARC
  5
AF7
  8
0
 10
15.326146028679259
 20
63.758236799350982
 30
0.0
 40
1.362893203458877
 50
31.122311255497479
 51
123.2104767507448
  0
ARC
  5
AF8
  8
0
 10
15.29169315224043
 20
63.60700253839012
 30
0.0
 40
1.474788120375246
 50
118.86835182623931
 51
121.0135957007671
  0
LINE
  5
AF9
  8
0
 10
14.53285988665419
 20
62.342418782745959
 30
0.0
 11
14.53182117171826
 21
64.870962416399493
 31
0.0
  0
ARC
  5
AFA
  8
0
 10
17.94620693450873
 20
60.28115122028909
 30
0.0
 40
1.474788120375244
 50
161.89062087723551
 51
177.77171206599499
  0
LINE
  5
AFB
  8
0
 10
16.472533987136512
 20
60.338492690309522
 30
0.0
 11
16.472581595765249
 21
60.222599012708699
 31
0.0
  0
ARC
  5
AFC
  8
0
 10
17.94620693450873
 20
60.28115122028909
 30
0.0
 40
1.4747881203752391
 50
182.27536165486379
 51
198.15645284362429
  0
LINE
  5
AFD
  8
0
 10
16.54484974676657
 20
59.82158834933108
 30
0.0
 11
19.010228648202851
 21
59.259947130604971
 31
0.0
  0
ARC
  5
AFE
  8
0
 10
17.94620693450873
 20
60.28115122028909
 30
0.0
 40
1.474788120388683
 50
316.17633516294768
 51
318.32157903655047
  0
ARC
  5
AFF
  8
0
 10
18.101315923039149
 20
60.281214938389198
 30
0.0
 40
1.3628932034596619
 50
313.97945411264573
 51
46.067619607871769
  0
ARC
  5
B00
  8
0
 10
17.94620693450873
 20
60.28115122028909
 30
0.0
 40
1.4747881203752251
 50
41.725494683381868
 51
43.870738557909434
  0
ARC
  5
B01
  8
0
 10
17.60765498902002
 20
61.761640529263488
 30
0.0
 40
1.474788120375222
 50
187.60490659152089
 51
203.4859977802812
  0
LINE
  5
B02
  8
0
 10
16.255042010549101
 20
61.17390067994922
 30
0.0
 11
16.305369286618578
 21
61.069504741054033
 31
0.0
  0
ARC
  5
B03
  8
0
 10
17.60765498902002
 20
61.761640529263488
 30
0.0
 40
1.4747881203752331
 50
207.98964736915011
 51
223.8707385579103
  0
LINE
  5
B04
  8
0
 10
16.544472646864019
 20
60.739562593229628
 30
0.0
 11
19.009389276664731
 21
61.303229156323297
 31
0.0
  0
ARC
  5
B05
  8
0
 10
17.60765498902002
 20
61.761640529263488
 30
0.0
 40
1.474788120383753
 50
341.89062087723482
 51
344.03586475117601
  0
ARC
  5
B06
  8
0
 10
17.747375712577352
 20
61.828997205210172
 30
0.0
 40
1.362893203450213
 50
339.69373982687961
 51
71.781905322333856
  0
ARC
  5
B07
  8
0
 10
17.60765498902002
 20
61.761640529263488
 30
0.0
 40
1.474788120375224
 50
67.439780397666723
 51
69.585024272194474
  0
ARC
  5
B08
  8
0
 10
16.660269988865519
 20
62.948623121917649
 30
0.0
 40
1.474788120375226
 50
213.3191923058057
 51
229.2002834945657
  0
LINE
  5
B09
  8
0
 10
15.69661856839134
 20
61.83221103858213
 30
0.0
 11
15.787257577652991
 21
61.759989734422248
 31
0.0
  0
ARC
  5
B0A
  8
0
 10
16.660269988865519
 20
62.948623121917649
 30
0.0
 40
1.4747881203752189
 50
233.7039330834352
 51
249.58502427219551
  0
LINE
  5
B0B
  8
0
 10
16.145838794235189
 20
61.566465191002649
 30
0.0
 11
18.12208618365035
 21
63.143798460178488
 31
0.0
  0
ARC
  5
B0C
  8
0
 10
16.660269988865519
 20
62.948623121917649
 30
0.0
 40
1.474788120384021
 50
7.6049065915201011
 51
9.7501504654420152
  0
ARC
  5
B0D
  8
0
 10
16.75692904457722
 20
63.069931939959389
 30
0.0
 40
1.3628932034507391
 50
5.4080255411672908
 51
97.496191036610384
  0
ARC
  5
B0E
  8
0
 10
16.660269988865519
 20
62.948623121917649
 30
0.0
 40
1.4747881203752551
 50
93.154066111952801
 51
95.299309986481589
  0
LINE
  5
B0F
  8
0
 10
15.427902512317489
 20
62.138517941866318
 30
0.0
 11
16.52406062878919
 21
64.417107718441443
 31
0.0
  0
LINE
  5
B19
  8
1
 10
14.533707222443979
 20
68.279749379968052
 30
0.0
 11
14.533707222443979
 21
52.279749379968059
 31
0.0
  0
LINE
  5
B1A
  8
1
 10
23.307209914339669
 20
60.279749379968223
 30
0.0
 11
5.760204530547596
 21
60.279749379968223
 31
0.0
  0
LINE
  5
B25
  8
1
 10
46.39087308663801
 20
39.877695823359048
 30
0.0
 11
46.39087308663801
 21
9.8776958355596207
 31
0.0
  0
LINE
  5
B26
  8
1
 10
14.533707222443979
 20
39.877695823359048
 30
0.0
 11
14.533707222443979
 21
9.8776958355596207
 31
0.0
  0
LINE
  5
B3E
  8
3
 10
16.992207222515049
 20
23.494895835559898
 30
0.0
 11
17.350626083253761
 21
24.115695835559901
 31
0.0
  0
LINE
  5
B3F
  8
3
 10
12.07520722251502
 20
23.494895835559898
 30
0.0
 11
11.71678836177631
 21
24.115695835559901
 31
0.0
  0
LINE
  5
B40
  8
0
 10
11.53370722251503
 20
23.494895835559898
 30
0.0
 11
17.53370722251503
 21
23.494895835559898
 31
0.0
  0
LINE
  5
B41
  8
0
 10
11.53370722251503
 20
13.877695835559621
 30
0.0
 11
17.53370722251503
 21
13.877695835559621
 31
0.0
  0
LINE
  5
B42
  8
0
 10
16.53370722251503
 20
12.877695835559621
 30
0.0
 11
17.53370722251503
 21
13.877695835559621
 31
0.0
  0
LINE
  5
B43
  8
0
 10
11.53370722251503
 20
13.877695835559621
 30
0.0
 11
12.53370722251503
 21
12.877695835559621
 31
0.0
  0
LINE
  5
B44
  8
0
 10
17.533707222515002
 20
24.115695835559471
 30
0.0
 11
17.53370722251503
 21
13.877695835559621
 31
0.0
  0
LINE
  5
B45
  8
3
 10
16.992207222515049
 20
23.494895835559898
 30
0.0
 11
16.992207222515049
 21
13.33619583555962
 31
0.0
  0
LINE
  5
B46
  8
3
 10
12.07520722251502
 20
23.494895835559898
 30
0.0
 11
12.07520722251502
 21
13.33619583555962
 31
0.0
  0
LINE
  5
B47
  8
0
 10
11.533707222515
 20
24.115695835559471
 30
0.0
 11
11.53370722251503
 21
13.877695835559621
 31
0.0
  0
LINE
  5
B48
  8
0
 10
12.53370722251503
 20
12.877695835559621
 30
0.0
 11
16.53370722251503
 21
12.877695835559621
 31
0.0
  0
ARC
  5
B49
  8
0
 10
18.295707222515119
 20
24.115695835559471
 30
0.0
 40
0.7620000000000146
 50
89.999999999999574
 51
180.0
  0
ARC
  5
B4A
  8
0
 10
10.771707222514889
 20
24.115695835559471
 30
0.0
 40
0.7620000000000146
 50
0.0
 51
89.999999999999574
  0
LINE
  5
B4B
  8
0
 10
17.533707222515119
 20
24.115695835559901
 30
0.0
 11
11.53370722251489
 21
24.115695835559471
 31
0.0
  0
LINE
  5
B4C
  8
3
 10
48.849373086709051
 20
23.494895835559898
 30
0.0
 11
49.20779194744776
 21
24.115695835559901
 31
0.0
  0
LINE
  5
B4D
  8
3
 10
43.932373086709021
 20
23.494895835559898
 30
0.0
 11
43.573954225970311
 21
24.115695835559901
 31
0.0
  0
LINE
  5
B4E
  8
0
 10
43.390873086709043
 20
23.494895835559898
 30
0.0
 11
49.390873086709028
 21
23.494895835559898
 31
0.0
  0
LINE
  5
B4F
  8
0
 10
43.390873086709043
 20
13.877695835559621
 30
0.0
 11
49.390873086709028
 21
13.877695835559621
 31
0.0
  0
LINE
  5
B50
  8
0
 10
48.390873086709043
 20
12.877695835559621
 30
0.0
 11
49.390873086709028
 21
13.877695835559621
 31
0.0
  0
LINE
  5
B51
  8
0
 10
43.390873086709043
 20
13.877695835559621
 30
0.0
 11
44.390873086709028
 21
12.877695835559621
 31
0.0
  0
LINE
  5
B52
  8
0
 10
49.390873086709007
 20
24.115695835559471
 30
0.0
 11
49.390873086709028
 21
13.877695835559621
 31
0.0
  0
LINE
  5
B53
  8
3
 10
48.849373086709051
 20
23.494895835559898
 30
0.0
 11
48.849373086709051
 21
13.33619583555962
 31
0.0
  0
LINE
  5
B54
  8
3
 10
43.932373086709021
 20
23.494895835559898
 30
0.0
 11
43.932373086709021
 21
13.33619583555962
 31
0.0
  0
LINE
  5
B55
  8
0
 10
43.390873086709
 20
24.115695835559471
 30
0.0
 11
43.390873086709043
 21
13.877695835559621
 31
0.0
  0
LINE
  5
B56
  8
0
 10
44.390873086709028
 20
12.877695835559621
 30
0.0
 11
48.390873086709043
 21
12.877695835559621
 31
0.0
  0
ARC
  5
B57
  8
0
 10
50.152873086709121
 20
24.115695835559471
 30
0.0
 40
0.7620000000000146
 50
89.999999999999574
 51
180.0
  0
ARC
  5
B58
  8
0
 10
42.628873086708893
 20
24.115695835559471
 30
0.0
 40
0.7620000000000146
 50
0.0
 51
89.999999999999574
  0
LINE
  5
B59
  8
0
 10
49.390873086709121
 20
24.115695835559901
 30
0.0
 11
43.390873086708893
 21
24.115695835559471
 31
0.0
  0
TEXT
  5
C00
  8
0
 62
     3
 10
0.0
 20
0.0
 30
0.0
 40
5.0
  1
MBUH-06012-80UR
  7
STANDARD1
  0
ENDSEC
  0
EOF
