  0
SECTION
  2
HEADER
  9
$ACADVER
  1
AC1009
  9
$INSBASE
 10
82.638099999999994
 20
103.82319099999999
 30
0.0
  9
$EXTMIN
 10
0.0
 20
-1.4802182810368341
 30
0.0
  9
$EXTMAX
 10
62.5
 20
91.538675229198105
 30
0.0
  9
$LIMMIN
 10
0.0
 20
0.0
  9
$LIMMAX
 10
187.5
 20
135.0
  9
$ORTHOMODE
 70
     1
  9
$REGENMODE
 70
     1
  9
$FILLMODE
 70
     1
  9
$QTEXTMODE
 70
     0
  9
$MIRRTEXT
 70
     0
  9
$DRAGMODE
 70
     2
  9
$LTSCALE
 40
5.0
  9
$OSMODE
 70
  3071
  9
$ATTMODE
 70
     1
  9
$TEXTSIZE
 40
0.06
  9
$TRACEWID
 40
0.05
  9
$TEXTSTYLE
  7
STANDARD
  9
$CLAYER
  8
0
  9
$CELTYPE
  6
BYLAYER
  9
$CECOLOR
 62
   256
  9
$DIMSCALE
 40
0.5
  9
$DIMASZ
 40
3.0
  9
$DIMEXO
 40
2.0
  9
$DIMDLI
 40
10.0
  9
$DIMRND
 40
0.0
  9
$DIMDLE
 40
0.0
  9
$DIMEXE
 40
2.0
  9
$DIMTP
 40
0.0
  9
$DIMTM
 40
0.0
  9
$DIMTXT
 40
3.0
  9
$DIMCEN
 40
0.0
  9
$DIMTSZ
 40
0.0
  9
$DIMTOL
 70
     0
  9
$DIMLIM
 70
     0
  9
$DIMTIH
 70
     0
  9
$DIMTOH
 70
     0
  9
$DIMSE1
 70
     0
  9
$DIMSE2
 70
     0
  9
$DIMTAD
 70
     1
  9
$DIMZIN
 70
     0
  9
$DIMBLK
  1

  9
$DIMASO
 70
     0
  9
$DIMSHO
 70
     0
  9
$DIMPOST
  1

  9
$DIMAPOST
  1

  9
$DIMALT
 70
     0
  9
$DIMALTD
 70
     2
  9
$DIMALTF
 40
25.399999999999999
  9
$DIMLFAC
 40
1.0
  9
$DIMTOFL
 70
     1
  9
$DIMTVP
 40
1.6000000000000001
  9
$DIMTIX
 70
     1
  9
$DIMSOXD
 70
     0
  9
$DIMSAH
 70
     0
  9
$DIMBLK1
  1

  9
$DIMBLK2
  1

  9
$DIMSTYLE
  2
STANDARD
  9
$DIMCLRD
 70
     0
  9
$DIMCLRE
 70
     0
  9
$DIMCLRT
 70
     0
  9
$DIMTFAC
 40
1.0
  9
$DIMGAP
 40
0.09
  9
$LUNITS
 70
     2
  9
$LUPREC
 70
     4
  9
$SKETCHINC
 40
0.1
  9
$FILLETRAD
 40
0.4
  9
$AUNITS
 70
     0
  9
$AUPREC
 70
     4
  9
$MENU
  1
E:\r13\win\SUPPORT\ACAD
  9
$ELEVATION
 40
0.0
  9
$PELEVATION
 40
0.0
  9
$THICKNESS
 40
0.0
  9
$LIMCHECK
 70
     0
  9
$BLIPMODE
 70
     0
  9
$CHAMFERA
 40
0.0
  9
$CHAMFERB
 40
0.0
  9
$SKPOLY
 70
     0
  9
$TDCREATE
 40
2449840.5903472221
  9
$TDUPDATE
 40
2456597.6355335298
  9
$TDINDWG
 40
0.0992742593
  9
$TDUSRTIMER
 40
0.0992742593
  9
$USRTIMER
 70
     1
  9
$ANGBASE
 50
0.0
  9
$ANGDIR
 70
     0
  9
$PDMODE
 70
     0
  9
$PDSIZE
 40
0.0
  9
$PLINEWID
 40
0.0
  9
$COORDS
 70
     1
  9
$SPLFRAME
 70
     0
  9
$SPLINETYPE
 70
     6
  9
$SPLINESEGS
 70
     8
  9
$ATTDIA
 70
     0
  9
$ATTREQ
 70
     1
  9
$HANDLING
 70
     1
  9
$HANDSEED
  5
A87
  9
$SURFTAB1
 70
     6
  9
$SURFTAB2
 70
     6
  9
$SURFTYPE
 70
     6
  9
$SURFU
 70
     6
  9
$SURFV
 70
     6
  9
$UCSNAME
  2

  9
$UCSORG
 10
0.0
 20
0.0
 30
0.0
  9
$UCSXDIR
 10
1.0
 20
0.0
 30
0.0
  9
$UCSYDIR
 10
0.0
 20
1.0
 30
0.0
  9
$PUCSNAME
  2

  9
$PUCSORG
 10
0.0
 20
0.0
 30
0.0
  9
$PUCSXDIR
 10
1.0
 20
0.0
 30
0.0
  9
$PUCSYDIR
 10
0.0
 20
1.0
 30
0.0
  9
$USERI1
 70
     3
  9
$USERI2
 70
     1
  9
$USERI3
 70
     0
  9
$USERI4
 70
     0
  9
$USERI5
 70
     0
  9
$USERR1
 40
0.5
  9
$USERR2
 40
3.0
  9
$USERR3
 40
3.0
  9
$USERR4
 40
3.0
  9
$USERR5
 40
10.0
  9
$WORLDVIEW
 70
     1
  9
$SHADEDGE
 70
     3
  9
$SHADEDIF
 70
    70
  9
$TILEMODE
 70
     1
  9
$MAXACTVP
 70
    16
  9
$PLIMCHECK
 70
     0
  9
$PEXTMIN
 10
1.0000000000000000E+020
 20
1.0000000000000000E+020
 30
1.0000000000000000E+020
  9
$PEXTMAX
 10
-1.0000000000000000E+020
 20
-1.0000000000000000E+020
 30
-1.0000000000000000E+020
  9
$PLIMMIN
 10
0.0
 20
0.0
  9
$PLIMMAX
 10
12.0
 20
9.0
  9
$UNITMODE
 70
     0
  9
$VISRETAIN
 70
     0
  9
$PLINEGEN
 70
     0
  9
$PSLTSCALE
 70
     0
  0
ENDSEC
  0
SECTION
  2
TABLES
  0
TABLE
  2
VPORT
 70
     1
  0
VPORT
  2
*ACTIVE
 70
     0
 10
0.0
 20
0.0
 11
1.0
 21
1.0
 12
93.747139195326156
 22
67.05183146954721
 13
0.0
 23
0.0
 14
5.0
 24
5.0
 15
10.0
 25
10.0
 16
0.0
 26
0.0
 36
1.0
 17
0.0
 27
0.0
 37
0.0
 40
138.6470298934976
 41
2.304913294797688
 42
50.0
 43
0.0
 44
0.0
 50
0.0
 51
0.0
 71
     0
 72
   100
 73
     1
 74
     0
 75
     0
 76
     0
 77
     0
 78
     2
  0
ENDTAB
  0
TABLE
  2
LTYPE
 70
     3
  0
LTYPE
  2
CONTINUOUS
 70
     0
  3
Solid Line
 72
    65
 73
     0
 40
0.0
  0
LTYPE
  2
CENTER
 70
     0
  3
____ _ ____ _ ____ _ ____ _ ____ _ ____ _ ____
 72
    65
 73
     4
 40
2.0
 49
1.25
 49
-0.25
 49
0.25
 49
-0.25
  0
LTYPE
  2
PHANTOM2
 70
     0
  3
___ _ _ ___ _ _ ___ _ _ ___ _ _
 72
    65
 73
     6
 40
1.25
 49
0.625
 49
-0.125
 49
0.125
 49
-0.125
 49
0.125
 49
-0.125
  0
ENDTAB
  0
TABLE
  2
LAYER
 70
     3
  0
LAYER
  2
0
 70
     0
 62
     7
  6
CONTINUOUS
  0
LAYER
  2
1
 70
     0
 62
     1
  6
CENTER
  0
LAYER
  2
3
 70
     0
 62
     3
  6
CONTINUOUS
  0
ENDTAB
  0
TABLE
  2
STYLE
 70
     2
  0
STYLE
  2
STANDARD
 70
     0
 40
0.0
 41
1.0
 50
0.0
 71
     0
 42
0.06
  3
TXT
  4
BIGFONT
  0
STYLE
  2
STANDARD1
 70
     0
 40
0.0
 41
1.0
 50
0.0
 71
     0
 42
3.0
  3
txt
  4

  0
ENDTAB
  0
TABLE
  2
VIEW
 70
     0
  0
ENDTAB
  0
TABLE
  2
UCS
 70
     0
  0
ENDTAB
  0
TABLE
  2
APPID
 70
     3
  0
APPID
  2
ACAD
 70
     0
  0
APPID
  2
ACAD_MLEADERVER
 70
     0
  0
APPID
  2
ACAD_NAV_VCDISPLAY
 70
     0
  0
ENDTAB
  0
TABLE
  2
DIMSTYLE
 70
     1
  0
DIMSTYLE
  2
STANDARD
 70
     0
  3

  4

  5

  6

  7

 40
1.0
 41
0.18
 42
0.0625
 43
0.38
 44
0.18
 45
0.0
 46
0.0
 47
0.0
 48
0.0
140
0.18
141
0.09
142
0.0
143
25.399999999999999
144
1.0
145
0.0
146
1.0
147
0.09
 71
     0
 72
     0
 73
     1
 74
     1
 75
     0
 76
     0
 77
     0
 78
     0
170
     0
171
     2
172
     0
173
     0
174
     0
175
     0
176
     0
177
     0
178
     0
  0
ENDTAB
  0
ENDSEC
  0
SECTION
  2
BLOCKS
  0
BLOCK
  8
0
  2
$MODEL_SPACE
 70
     0
 10
0.0
 20
0.0
 30
0.0
  3
$MODEL_SPACE
  1

  0
ENDBLK
  5
10C
  8
0
  0
BLOCK
 67
     1
  8
0
  2
$PAPER_SPACE
 70
     0
 10
0.0
 20
0.0
 30
0.0
  3
$PAPER_SPACE
  1

  0
ENDBLK
  5
10A
 67
     1
  8
0
  0
ENDSEC
  0
SECTION
  2
ENTITIES
  0
LINE
  5
685
  8
0
 10
59.671297047086249
 20
47.895795360762413
 30
0.0
 11
51.671297047086249
 21
47.895795360762413
 31
0.0
  0
LINE
  5
686
  8
0
 10
51.596902169507473
 20
48.07540048318377
 30
0.0
 11
59.745691924664982
 21
48.07540048318377
 31
0.0
  0
LINE
  5
688
  8
0
 10
49.171297047086078
 20
50.755005605605199
 30
0.0
 11
62.171296498638782
 21
50.755005605605199
 31
0.0
  0
LINE
  5
6AA
  8
0
 10
49.171297047086078
 20
47.136005611205157
 30
0.0
 11
62.171297047086462
 21
47.136005611205171
 31
0.0
  0
LINE
  5
6AF
  8
0
 10
49.171297047086078
 20
35.636005611205107
 30
0.0
 11
49.171297047086078
 21
47.136005611205171
 31
0.0
  0
LINE
  5
6B0
  8
0
 10
49.171297047086107
 20
35.636005611205107
 30
0.0
 11
62.171297047086462
 21
35.636005611205107
 31
0.0
  0
LINE
  5
6B1
  8
0
 10
62.171297047086462
 20
47.136005611205171
 30
0.0
 11
62.171297047086462
 21
35.636005611205107
 31
0.0
  0
ARC
  5
6B4
  8
0
 10
58.846388938669833
 20
26.496693094726499
 30
0.0
 40
20.639448451389871
 50
80.729551159907231
 51
89.792052200613568
  0
ARC
  5
6B5
  8
0
 10
58.995733955885377
 20
26.5023767883056
 30
0.0
 40
20.633763090008149
 50
90.206696662477569
 51
99.271699977004403
  0
ARC
  5
6B6
  8
0
 10
58.846860138287518
 20
56.269634434103949
 30
0.0
 40
20.633763090007431
 50
270.20669666247602
 51
279.27169997700361
  0
ARC
  5
6B8
  8
0
 10
58.996205155501961
 20
56.275318127675469
 30
0.0
 40
20.639448451381568
 50
260.72955115990482
 51
269.79205220061442
  0
LINE
  5
6B9
  8
0
 10
55.671297047086092
 20
35.905442859333078
 30
0.0
 11
55.671297047086092
 21
46.866568363077192
 31
0.0
  0
ARC
  5
6BA
  8
0
 10
52.346388938669833
 20
26.496693094726769
 30
0.0
 40
20.639448451389601
 50
80.729551159907231
 51
89.792052200613568
  0
ARC
  5
6BB
  8
0
 10
52.495733955885377
 20
26.50237678830533
 30
0.0
 40
20.63376309000844
 50
90.206696662477569
 51
99.271699977004403
  0
ARC
  5
6BD
  8
0
 10
52.496205155501968
 20
56.275318127675291
 30
0.0
 40
20.639448451381391
 50
260.72955115990482
 51
269.79205220061442
  0
ARC
  5
6BE
  8
0
 10
52.346860138287532
 20
56.26963443410061
 30
0.0
 40
20.633763090004098
 50
270.20669666247602
 51
279.2716999770044
  0
ARC
  5
6C1
  8
0
 10
53.540229740860269
 20
50.841214127984927
 30
0.0
 40
1.2031354563114649
 50
138.3725470620241
 51
165.81702224541669
  0
ARC
  5
6C2
  8
0
 10
57.806274581791229
 20
50.840620381084634
 30
0.0
 40
1.2034234815813529
 50
14.208671055843141
 51
41.610529711340497
  0
ARC
  5
6C3
  8
0
 10
55.619334718370681
 20
51.160377778404531
 30
0.0
 40
1.213250547394499
 50
358.84894626426808
 51
31.79242399336578
  0
ARC
  5
6C4
  8
0
 10
55.730321256027047
 20
51.160793387103681
 30
0.0
 40
1.2155346609807809
 50
148.2904057510487
 51
181.16848475193851
  0
POLYLINE
  5
6C5
  8
0
 66
     1
 10
0.0
 20
0.0
 30
0.0
 70
   128
  0
VERTEX
  5
9D3
  8
0
 10
61.717467152860138
 20
51.136005605605241
 30
0.0
  0
VERTEX
  5
9D4
  8
0
 10
61.845684388337823
 20
51.121685099493718
 30
0.0
  0
VERTEX
  5
9D5
  8
0
 10
61.974214030525268
 20
51.073994726818832
 30
0.0
  0
VERTEX
  5
9D6
  8
0
 10
62.069848665781649
 20
51.00498271636642
 30
0.0
  0
VERTEX
  5
9D7
  8
0
 10
62.106218485712418
 20
50.964646621784752
 30
0.0
  0
VERTEX
  5
9D8
  8
0
 10
62.12131004138115
 20
50.943657596779339
 30
0.0
  0
VERTEX
  5
9D9
  8
0
 10
62.120953780553982
 20
50.944165710657707
 30
0.0
  0
SEQEND
  5
9DA
  8
0
  0
LINE
  5
6C6
  8
0
 10
61.683870719847732
 20
51.13600560560522
 30
0.0
 11
61.717467152860507
 21
51.13600560560522
 31
0.0
  0
POLYLINE
  5
6C7
  8
0
 66
     1
 10
0.0
 20
0.0
 30
0.0
 70
   128
  0
VERTEX
  5
9DB
  8
0
 10
60.897021659490342
 20
51.136005605605241
 30
0.0
  0
VERTEX
  5
9DC
  8
0
 10
61.080216745386281
 20
51.121685099493831
 30
0.0
  0
VERTEX
  5
9DD
  8
0
 10
61.28187623846685
 20
51.073994726818832
 30
0.0
  0
VERTEX
  5
9DE
  8
0
 10
61.46048462519326
 20
51.00498271636642
 30
0.0
  0
VERTEX
  5
9DF
  8
0
 10
61.551752199422083
 20
50.964646621784638
 30
0.0
  0
VERTEX
  5
9E0
  8
0
 10
61.628050701168881
 20
50.943657596779339
 30
0.0
  0
VERTEX
  5
9E1
  8
0
 10
61.670988607758829
 20
50.954858487805879
 30
0.0
  0
VERTEX
  5
9E2
  8
0
 10
61.698343771569448
 20
50.985455519091531
 30
0.0
  0
VERTEX
  5
9E3
  8
0
 10
61.712640336000327
 20
51.052691686388052
 30
0.0
  0
VERTEX
  5
9E4
  8
0
 10
61.702921669756108
 20
51.07514860528606
 30
0.0
  0
SEQEND
  5
9E5
  8
0
  0
LINE
  5
6C8
  8
0
 10
60.6151269317591
 20
51.13600560560522
 30
0.0
 11
60.897021659490548
 21
51.13600560560522
 31
0.0
  0
POLYLINE
  5
6C9
  8
0
 66
     1
 10
0.0
 20
0.0
 30
0.0
 70
   128
  0
VERTEX
  5
9E6
  8
0
 10
59.281006965193292
 20
51.136005605605241
 30
0.0
  0
VERTEX
  5
9E7
  8
0
 10
59.49129011034762
 20
51.121685099493718
 30
0.0
  0
VERTEX
  5
9E8
  8
0
 10
59.735378624548559
 20
51.073994726818832
 30
0.0
  0
VERTEX
  5
9E9
  8
0
 10
59.969769254953967
 20
51.00498271636642
 30
0.0
  0
VERTEX
  5
9EA
  8
0
 10
60.102039922647741
 20
50.964646621784638
 30
0.0
  0
VERTEX
  5
9EB
  8
0
 10
60.227929615228327
 20
50.943657596779339
 30
0.0
  0
VERTEX
  5
9EC
  8
0
 10
60.315121955160123
 20
50.954858487805879
 30
0.0
  0
VERTEX
  5
9ED
  8
0
 10
60.390558651554841
 20
50.985455519091531
 30
0.0
  0
VERTEX
  5
9EE
  8
0
 10
60.49597122604888
 20
51.052691686388172
 30
0.0
  0
VERTEX
  5
9EF
  8
0
 10
60.569067583781873
 20
51.108867216800533
 30
0.0
  0
VERTEX
  5
9F0
  8
0
 10
60.61512693175888
 20
51.136005605605241
 30
0.0
  0
SEQEND
  5
9F1
  8
0
  0
LINE
  5
6CA
  8
0
 10
58.858978029279477
 20
51.13600560560522
 30
0.0
 11
59.281006965193292
 21
51.13600560560522
 31
0.0
  0
ARC
  5
6CB
  8
0
 10
57.987212343622957
 20
54.193024972881922
 30
0.0
 40
3.1788901872498951
 50
254.08351838225309
 51
285.91648161774691
  0
LINE
  5
6CC
  8
0
 10
56.617533593661129
 20
51.13600560560522
 30
0.0
 11
57.115446657966061
 21
51.13600560560522
 31
0.0
  0
ARC
  5
6CD
  8
0
 10
55.67378062869625
 20
54.724950120759239
 30
0.0
 40
3.710955724841575
 50
255.2669804030995
 51
284.73301959690048
  0
LINE
  5
6CE
  8
0
 10
54.232033221482311
 20
51.13600560560522
 30
0.0
 11
54.730027663731363
 21
51.13600560560522
 31
0.0
  0
ARC
  5
6CF
  8
0
 10
53.359970810983327
 20
54.045569964638169
 30
0.0
 40
3.0374426096900069
 50
253.31533449025389
 51
286.68466550974608
  0
LINE
  5
6D0
  8
0
 10
52.06564771979248
 20
51.13600560560522
 30
0.0
 11
52.487908400484322
 21
51.13600560560522
 31
0.0
  0
POLYLINE
  5
6D1
  8
0
 66
     1
 10
0.0
 20
0.0
 30
0.0
 70
   128
  0
VERTEX
  5
9F2
  8
0
 10
50.730431201192509
 20
51.136005605605241
 30
0.0
  0
VERTEX
  5
9F3
  8
0
 10
50.759387793004002
 20
51.121685099493718
 30
0.0
  0
VERTEX
  5
9F4
  8
0
 10
50.821707944056982
 20
51.073994726818832
 30
0.0
  0
VERTEX
  5
9F5
  8
0
 10
50.92085077625012
 20
51.00498271636642
 30
0.0
  0
VERTEX
  5
9F6
  8
0
 10
51.001686751336869
 20
50.964646621784638
 30
0.0
  0
VERTEX
  5
9F7
  8
0
 10
51.106233761213453
 20
50.943657596779339
 30
0.0
  0
VERTEX
  5
9F8
  8
0
 10
51.204532533731772
 20
50.954858487805879
 30
0.0
  0
VERTEX
  5
9F9
  8
0
 10
51.31517034140149
 20
50.985455519091531
 30
0.0
  0
VERTEX
  5
9FA
  8
0
 10
51.532300085168629
 20
51.052691686388052
 30
0.0
  0
VERTEX
  5
9FB
  8
0
 10
51.772298133035349
 20
51.108867216800533
 30
0.0
  0
VERTEX
  5
9FC
  8
0
 10
52.065647719792253
 20
51.136005605605241
 30
0.0
  0
SEQEND
  5
9FD
  8
0
  0
LINE
  5
6D2
  8
0
 10
50.448189642890718
 20
51.13600560560522
 30
0.0
 11
50.730431201192552
 21
51.13600560560522
 31
0.0
  0
POLYLINE
  5
6D3
  8
0
 66
     1
 10
0.0
 20
0.0
 30
0.0
 70
   128
  0
VERTEX
  5
9FE
  8
0
 10
49.638102950294119
 20
51.077320331558589
 30
0.0
  0
VERTEX
  5
9FF
  8
0
 10
49.635604246232617
 20
51.073994726818832
 30
0.0
  0
VERTEX
  5
A00
  8
0
 10
49.63750286873352
 20
51.00498271636642
 30
0.0
  0
VERTEX
  5
A01
  8
0
 10
49.661567778492611
 20
50.964646621784638
 30
0.0
  0
VERTEX
  5
A02
  8
0
 10
49.70998072144635
 20
50.943657596779339
 30
0.0
  0
VERTEX
  5
A03
  8
0
 10
49.76742988152597
 20
50.954858487805879
 30
0.0
  0
VERTEX
  5
A04
  8
0
 10
49.840777513651631
 20
50.985455519091531
 30
0.0
  0
VERTEX
  5
A05
  8
0
 10
50.001039593995358
 20
51.052691686388052
 30
0.0
  0
VERTEX
  5
A06
  8
0
 10
50.194796113191451
 20
51.108867216800533
 30
0.0
  0
VERTEX
  5
A07
  8
0
 10
50.448189642890668
 20
51.136005605605241
 30
0.0
  0
SEQEND
  5
A08
  8
0
  0
LINE
  5
6D4
  8
0
 10
49.625902320691146
 20
51.13600560560522
 30
0.0
 11
49.657178838069733
 21
51.13600560560522
 31
0.0
  0
ARC
  5
6D5
  8
0
 10
49.600552869289572
 20
50.66755571564746
 30
0.0
 40
0.4691352620382853
 50
86.902547302074566
 51
143.8696335306885
  0
LINE
  5
6D6
  8
0
 10
49.171297047086078
 20
49.536005605605219
 30
0.0
 11
62.171296498638782
 21
49.536005605605219
 31
0.0
  0
LINE
  5
71B
  8
0
 10
59.671297047086291
 20
47.136005611205157
 30
0.0
 11
59.671297047086291
 21
47.895795360762413
 31
0.0
  0
LINE
  5
71C
  8
0
 10
51.671297047086249
 20
47.895795360762413
 30
0.0
 11
51.671297047086249
 21
47.136005611205157
 31
0.0
  0
ARC
  5
71D
  8
0
 10
59.92529704708641
 20
47.895795360762413
 30
0.0
 40
0.2540000000000104
 50
134.9999999999971
 51
180.0
  0
ARC
  5
71E
  8
0
 10
51.41729704708613
 20
47.895795360762413
 30
0.0
 40
0.2539999999999959
 50
0.0
 51
45.000000000007773
  0
LINE
  5
71F
  8
0
 10
50.172262347720391
 20
49.536005605605219
 30
0.0
 11
50.17129704708622
 21
49.501005605605208
 31
0.0
  0
LINE
  5
720
  8
0
 10
61.171297047086277
 20
49.501005605605208
 30
0.0
 11
61.170331746452121
 21
49.536005605605219
 31
0.0
  0
LINE
  5
721
  8
0
 10
59.745691924665032
 20
48.07540048318377
 30
0.0
 11
61.171297047086277
 21
49.501005605605208
 31
0.0
  0
LINE
  5
722
  8
0
 10
50.17129704708622
 20
49.501005605605208
 30
0.0
 11
51.596902169507473
 21
48.07540048318377
 31
0.0
  0
ARC
  5
723
  8
0
 10
57.549364829770013
 20
50.548505605605172
 30
0.0
 40
1.5875000000000099
 50
89.932705014770406
 51
119.0323783928993
  0
LINE
  5
724
  8
0
 10
53.791364858828842
 20
52.136004510764792
 30
0.0
 11
53.607405683816289
 21
52.125527404943242
 31
0.0
  0
POLYLINE
  5
725
  8
0
 66
     1
 10
0.0
 20
0.0
 30
0.0
 70
   128
  0
VERTEX
  5
A09
  8
0
 10
59.144958585790903
 20
52.136004964480023
 30
0.0
  0
VERTEX
  5
A0A
  8
0
 10
59.077623420848397
 20
52.134636851378033
 30
0.0
  0
VERTEX
  5
A0B
  8
0
 10
58.994914315163498
 20
52.129033706589603
 30
0.0
  0
SEQEND
  5
A0C
  8
0
  0
ARC
  5
726
  8
0
 10
52.19620831216946
 20
50.548505605605172
 30
0.0
 40
1.587500000000017
 50
89.948484728801347
 51
109.5843431453456
  0
POLYLINE
  5
727
  8
0
 66
     1
 10
0.0
 20
0.0
 30
0.0
 70
   128
  0
VERTEX
  5
A0D
  8
0
 10
57.916358690647989
 20
52.136005338984589
 30
0.0
  0
VERTEX
  5
A0E
  8
0
 10
57.802782409139191
 20
52.132003261734027
 30
0.0
  0
VERTEX
  5
A0F
  8
0
 10
57.732401727523268
 20
52.125418331173982
 30
0.0
  0
SEQEND
  5
A10
  8
0
  0
ARC
  5
728
  8
0
 10
53.425310943603307
 20
50.548505605605172
 30
0.0
 40
1.587500000000007
 50
89.966745587365466
 51
107.0138413576778
  0
ARC
  5
729
  8
0
 10
60.209082599472652
 20
50.548505605605172
 30
0.0
 40
1.587500000000027
 50
89.972158816779256
 51
109.609425231592
  0
LINE
  5
72A
  8
0
 10
51.132739234161789
 20
52.136005417759591
 30
0.0
 11
50.945382210015033
 21
52.125002475774387
 31
0.0
  0
ARC
  5
72B
  8
0
 10
60.583796632586541
 20
50.548505605605172
 30
0.0
 40
1.587500000000017
 50
14.44141510041276
 51
96.777854581523314
  0
ARC
  5
72C
  8
0
 10
50.758797461585971
 20
50.548505605605172
 30
0.0
 40
1.587500000000027
 50
83.250213339032769
 51
165.54893911593999
  0
ARC
  5
72D
  8
0
 10
58.846296779190901
 20
50.548505605605172
 30
0.0
 40
1.587500000000015
 50
84.628255126923719
 51
107.0486542168199
  0
ARC
  5
72E
  8
0
 10
52.496297314981973
 20
50.548505605605172
 30
0.0
 40
1.5875000000000199
 50
72.986158642322181
 51
95.423476049893935
  0
ARC
  5
72F
  8
0
 10
55.671297047086448
 20
48.961005605605159
 30
0.0
 40
3.1750000000000171
 50
69.582059513799109
 51
110.4609262897343
  0
ARC
  5
730
  8
0
 10
60.210627135727719
 20
50.548505605605172
 30
0.0
 40
1.5875000000000179
 50
19.436414462423478
 51
109.6390165995723
  0
ARC
  5
731
  8
0
 10
51.13351149469986
 20
50.548505605605172
 30
0.0
 40
1.587500000000005
 50
70.445238172239925
 51
160.52429951687219
  0
ARC
  5
732
  8
0
 10
57.917283150569233
 20
50.548505605605172
 30
0.0
 40
1.5874999999999959
 50
67.280495818186481
 51
96.654372352387668
  0
ARC
  5
733
  8
0
 10
53.42715546889621
 20
50.548505605605172
 30
0.0
 40
1.587500000000025
 50
83.446875900109205
 51
112.8114554607421
  0
ARC
  5
734
  8
0
 10
55.672601323429149
 20
50.548505605605172
 30
0.0
 40
1.587500000000019
 50
90.059939373604792
 51
126.3774918645946
  0
ARC
  5
735
  8
0
 10
59.14638578200308
 20
50.548505605605172
 30
0.0
 40
1.587500000000019
 50
21.720473473414529
 51
120.19859316192429
  0
ARC
  5
736
  8
0
 10
52.199062243036131
 20
50.548505605605172
 30
0.0
 40
1.587500000000003
 50
59.938756369503523
 51
158.279526526588
  0
ARC
  5
737
  8
0
 10
53.79322926440252
 20
50.548505605605172
 30
0.0
 40
1.5875000000000259
 50
53.780390841939379
 51
136.5412936440284
  0
ARC
  5
738
  8
0
 10
57.55309367014501
 20
50.548505605605172
 30
0.0
 40
1.5875000000000019
 50
43.425493966033301
 51
126.39349149564531
  0
ARC
  5
739
  8
0
 10
55.673315080955199
 20
50.548505605605172
 30
0.0
 40
1.5875000000000281
 50
52.005754810390357
 51
127.98693206245819
  0
ARC
  5
73A
  8
0
 10
61.790297047086433
 20
50.755005605605199
 30
0.0
 40
0.3809999999999939
 50
0.0
 51
29.744119664497848
  0
ARC
  5
73B
  8
0
 10
49.552297047086078
 20
50.755005605605199
 30
0.0
 40
0.381000000000003
 50
150.24401940704789
 51
180.0
  0
LINE
  5
73C
  8
0
 10
62.171297047086462
 20
49.536005605605219
 30
0.0
 11
62.171297047086462
 21
50.755005605605199
 31
0.0
  0
LINE
  5
73D
  8
0
 10
49.171297047086078
 20
50.755005605605199
 30
0.0
 11
49.171297047086078
 21
49.536005605605219
 31
0.0
  0
LINE
  5
740
  8
0
 10
20.00707585343784
 20
47.895795360762413
 30
0.0
 11
12.007076190944019
 21
47.895795360762413
 31
0.0
  0
LINE
  5
741
  8
0
 10
11.93268131336526
 20
48.07540048318377
 30
0.0
 11
20.08147072473923
 21
48.07540048318377
 31
0.0
  0
LINE
  5
742
  8
0
 10
9.5070761909438488
 20
50.755005605605199
 30
0.0
 11
22.507076190944218
 21
50.755005605605199
 31
0.0
  0
LINE
  5
744
  8
0
 10
9.5070761909438488
 20
47.136005611205157
 30
0.0
 11
22.507076190943849
 21
47.13600561120515
 31
0.0
  0
LINE
  5
746
  8
0
 10
9.5070761909438488
 20
35.636005611205107
 30
0.0
 11
22.507076190943849
 21
35.636005611205107
 31
0.0
  0
ARC
  5
76C
  8
0
 10
10.327106036814
 20
40.113795942909569
 30
0.0
 40
7.0223934507067787
 50
74.071629062297959
 51
89.585477631717339
  0
ARC
  5
76D
  8
0
 10
10.428396513510901
 20
40.116021546977692
 30
0.0
 40
7.0201655993561278
 50
90.412045548229656
 51
105.9308477577555
  0
LINE
  5
76E
  8
0
 10
8.5015226914788684
 20
35.905442859333078
 30
0.0
 11
8.5015226914788684
 21
46.866568363077192
 31
0.0
  0
ARC
  5
76F
  8
0
 10
10.428716095876609
 20
42.658215279504482
 30
0.0
 40
7.0223934507105668
 50
254.07162906230309
 51
269.58547763171572
  0
ARC
  5
771
  8
0
 10
10.32742561917896
 20
42.655989675435272
 30
0.0
 40
7.020165599358859
 50
270.41204554823207
 51
285.93084775775122
  0
ARC
  5
772
  8
0
 10
15.922468961070869
 20
19.688141670653849
 30
0.0
 40
27.44799433988506
 50
81.963401286908393
 51
89.823388011353515
  0
ARC
  5
773
  8
0
 10
16.15541832329205
 20
18.80042899611999
 30
0.0
 40
28.335964912061669
 50
90.299951561818503
 51
97.913259139921138
  0
LINE
  5
774
  8
0
 10
12.254299441211369
 20
35.905442859333078
 30
0.0
 11
12.254299441211369
 21
46.866568363077192
 31
0.0
  0
ARC
  5
775
  8
0
 10
16.155576433444221
 20
63.973784416624639
 30
0.0
 40
28.33816790032321
 50
262.08703722267228
 51
269.6997520755923
  0
ARC
  5
777
  8
0
 10
15.92300117173707
 20
63.076456813437922
 30
0.0
 40
27.440580000994409
 50
270.17554845049432
 51
278.03766225124309
  0
LINE
  5
778
  8
0
 10
23.512629690409199
 20
35.905442859333078
 30
0.0
 11
23.512629690409199
 21
46.866568363077192
 31
0.0
  0
ARC
  5
779
  8
0
 10
21.585436286011831
 20
40.113795942911203
 30
0.0
 40
7.0223934507051711
 50
74.071629062296282
 51
89.585477631719783
  0
ARC
  5
77A
  8
0
 10
21.686726762708389
 20
40.116021546977613
 30
0.0
 40
7.0201655993562193
 50
90.412045548230481
 51
105.9308477577555
  0
LINE
  5
77B
  8
0
 10
19.759852940676691
 20
35.905442859333078
 30
0.0
 11
19.759852940676691
 21
46.866568363077192
 31
0.0
  0
ARC
  5
77C
  8
0
 10
21.687046345074432
 20
42.658215279504482
 30
0.0
 40
7.0223934507105694
 50
254.07162906230309
 51
269.58547763171492
  0
ARC
  5
77D
  8
0
 10
21.58575586837679
 20
42.655989675435457
 30
0.0
 40
7.020165599358994
 50
270.41204554823128
 51
285.93084775775122
  0
ARC
  5
77F
  8
0
 10
13.87600888471769
 20
50.841214127985111
 30
0.0
 40
1.2031354563111809
 50
138.37254706202049
 51
165.8170222454186
  0
ARC
  5
780
  8
0
 10
18.142053725649362
 20
50.840620381084896
 30
0.0
 40
1.2034234815809699
 50
14.208671055833671
 51
41.610529711339488
  0
ARC
  5
781
  8
0
 10
15.955113862229179
 20
51.160377778404708
 30
0.0
 40
1.213250547393657
 50
358.84894626425898
 51
31.792423993378989
  0
ARC
  5
782
  8
0
 10
16.066100399884469
 20
51.160793387103773
 30
0.0
 40
1.2155346609803661
 50
148.29040575104261
 51
181.16848475194499
  0
POLYLINE
  5
783
  8
0
 66
     1
 10
0.0
 20
0.0
 30
0.0
 70
   128
  0
VERTEX
  5
A11
  8
0
 10
22.0532462967181
 20
51.136005605605241
 30
0.0
  0
VERTEX
  5
A12
  8
0
 10
22.181463532195782
 20
51.121685099493718
 30
0.0
  0
VERTEX
  5
A13
  8
0
 10
22.309993174382779
 20
51.073994726818832
 30
0.0
  0
VERTEX
  5
A14
  8
0
 10
22.40562780963916
 20
51.00498271636642
 30
0.0
  0
VERTEX
  5
A15
  8
0
 10
22.441997629569929
 20
50.964646621784752
 30
0.0
  0
VERTEX
  5
A16
  8
0
 10
22.457089185238662
 20
50.943657596779339
 30
0.0
  0
VERTEX
  5
A17
  8
0
 10
22.45673292441148
 20
50.944165710657707
 30
0.0
  0
SEQEND
  5
A18
  8
0
  0
LINE
  5
784
  8
0
 10
22.019649863705531
 20
51.13600560560522
 30
0.0
 11
22.053246296718271
 21
51.13600560560522
 31
0.0
  0
POLYLINE
  5
785
  8
0
 66
     1
 10
0.0
 20
0.0
 30
0.0
 70
   128
  0
VERTEX
  5
A19
  8
0
 10
21.23280080334786
 20
51.136005605605241
 30
0.0
  0
VERTEX
  5
A1A
  8
0
 10
21.41599588924425
 20
51.121685099493718
 30
0.0
  0
VERTEX
  5
A1B
  8
0
 10
21.617655382324809
 20
51.073994726818832
 30
0.0
  0
VERTEX
  5
A1C
  8
0
 10
21.796263769051219
 20
51.00498271636642
 30
0.0
  0
VERTEX
  5
A1D
  8
0
 10
21.887531343279591
 20
50.964646621784752
 30
0.0
  0
VERTEX
  5
A1E
  8
0
 10
21.9638298450264
 20
50.943657596779339
 30
0.0
  0
VERTEX
  5
A1F
  8
0
 10
22.006767751616341
 20
50.954858487805879
 30
0.0
  0
VERTEX
  5
A20
  8
0
 10
22.034122915427421
 20
50.985455519091531
 30
0.0
  0
VERTEX
  5
A21
  8
0
 10
22.0484194798583
 20
51.052691686388052
 30
0.0
  0
VERTEX
  5
A22
  8
0
 10
22.03870081361362
 20
51.07514860528606
 30
0.0
  0
SEQEND
  5
A23
  8
0
  0
LINE
  5
786
  8
0
 10
20.950906075616899
 20
51.13600560560522
 30
0.0
 11
21.23280080334797
 21
51.13600560560522
 31
0.0
  0
POLYLINE
  5
787
  8
0
 66
     1
 10
0.0
 20
0.0
 30
0.0
 70
   128
  0
VERTEX
  5
A24
  8
0
 10
19.616786109050789
 20
51.136005605605241
 30
0.0
  0
VERTEX
  5
A25
  8
0
 10
19.827069254205131
 20
51.121685099493718
 30
0.0
  0
VERTEX
  5
A26
  8
0
 10
20.071157768406518
 20
51.073994726818832
 30
0.0
  0
VERTEX
  5
A27
  8
0
 10
20.30554839881194
 20
51.00498271636642
 30
0.0
  0
VERTEX
  5
A28
  8
0
 10
20.437819066505259
 20
50.964646621784752
 30
0.0
  0
VERTEX
  5
A29
  8
0
 10
20.5637087590863
 20
50.943657596779339
 30
0.0
  0
VERTEX
  5
A2A
  8
0
 10
20.650901099018089
 20
50.954858487805879
 30
0.0
  0
VERTEX
  5
A2B
  8
0
 10
20.726337795412348
 20
50.985455519091531
 30
0.0
  0
VERTEX
  5
A2C
  8
0
 10
20.831750369906391
 20
51.052691686388052
 30
0.0
  0
VERTEX
  5
A2D
  8
0
 10
20.904846727639839
 20
51.108867216800533
 30
0.0
  0
VERTEX
  5
A2E
  8
0
 10
20.950906075616839
 20
51.136005605605241
 30
0.0
  0
SEQEND
  5
A2F
  8
0
  0
LINE
  5
788
  8
0
 10
19.194757173137251
 20
51.13600560560522
 30
0.0
 11
19.61678610905108
 21
51.13600560560522
 31
0.0
  0
ARC
  5
789
  8
0
 10
18.322991487480749
 20
54.19302497288119
 30
0.0
 40
3.178890187249225
 50
254.08351838225141
 51
285.91648161775032
  0
LINE
  5
78A
  8
0
 10
16.9533127375189
 20
51.13600560560522
 30
0.0
 11
17.451225801823849
 21
51.13600560560522
 31
0.0
  0
ARC
  5
78B
  8
0
 10
16.00955977255401
 20
54.724950120758713
 30
0.0
 40
3.7109557248409861
 50
255.2669804030979
 51
284.73301959690292
  0
LINE
  5
78C
  8
0
 10
14.56781236533973
 20
51.13600560560522
 30
0.0
 11
15.06580680758913
 21
51.13600560560522
 31
0.0
  0
ARC
  5
78D
  8
0
 10
13.695749954841091
 20
54.045569964638069
 30
0.0
 40
3.037442609689859
 50
253.31533449025389
 51
286.68466550974699
  0
LINE
  5
78E
  8
0
 10
12.40142686365024
 20
51.13600560560522
 30
0.0
 11
12.82368754434208
 21
51.13600560560522
 31
0.0
  0
POLYLINE
  5
78F
  8
0
 66
     1
 10
0.0
 20
0.0
 30
0.0
 70
   128
  0
VERTEX
  5
A30
  8
0
 10
11.06621034505002
 20
51.136005605605241
 30
0.0
  0
VERTEX
  5
A31
  8
0
 10
11.095166936861521
 20
51.121685099493718
 30
0.0
  0
VERTEX
  5
A32
  8
0
 10
11.157487087914941
 20
51.073994726818832
 30
0.0
  0
VERTEX
  5
A33
  8
0
 10
11.256629920108081
 20
51.00498271636642
 30
0.0
  0
VERTEX
  5
A34
  8
0
 10
11.337465895194841
 20
50.964646621784752
 30
0.0
  0
VERTEX
  5
A35
  8
0
 10
11.44201290507141
 20
50.943657596779339
 30
0.0
  0
VERTEX
  5
A36
  8
0
 10
11.540311677589269
 20
50.954858487805879
 30
0.0
  0
VERTEX
  5
A37
  8
0
 10
11.65094948525944
 20
50.985455519091531
 30
0.0
  0
VERTEX
  5
A38
  8
0
 10
11.86807922902659
 20
51.052691686388052
 30
0.0
  0
VERTEX
  5
A39
  8
0
 10
12.10807727689285
 20
51.108867216800533
 30
0.0
  0
VERTEX
  5
A3A
  8
0
 10
12.40142686365021
 20
51.136005605605241
 30
0.0
  0
SEQEND
  5
A3B
  8
0
  0
LINE
  5
790
  8
0
 10
10.783968786748151
 20
51.13600560560522
 30
0.0
 11
11.06621034505031
 21
51.13600560560522
 31
0.0
  0
POLYLINE
  5
791
  8
0
 66
     1
 10
0.0
 20
0.0
 30
0.0
 70
   128
  0
VERTEX
  5
A3C
  8
0
 10
9.9738820941516337
 20
51.077320331558589
 30
0.0
  0
VERTEX
  5
A3D
  8
0
 10
9.9713833900905797
 20
51.073994726818832
 30
0.0
  0
VERTEX
  5
A3E
  8
0
 10
9.9732820125910262
 20
51.00498271636642
 30
0.0
  0
VERTEX
  5
A3F
  8
0
 10
9.9973469223505731
 20
50.964646621784752
 30
0.0
  0
VERTEX
  5
A40
  8
0
 10
10.045759865304319
 20
50.943657596779339
 30
0.0
  0
VERTEX
  5
A41
  8
0
 10
10.10320902538348
 20
50.954858487805879
 30
0.0
  0
VERTEX
  5
A42
  8
0
 10
10.17655665750914
 20
50.985455519091531
 30
0.0
  0
VERTEX
  5
A43
  8
0
 10
10.336818737853321
 20
51.052691686388052
 30
0.0
  0
VERTEX
  5
A44
  8
0
 10
10.53057525704895
 20
51.108867216800533
 30
0.0
  0
VERTEX
  5
A45
  8
0
 10
10.783968786747719
 20
51.136005605605241
 30
0.0
  0
SEQEND
  5
A46
  8
0
  0
LINE
  5
792
  8
0
 10
9.9616814645489171
 20
51.13600560560522
 30
0.0
 11
9.9929579819275034
 21
51.13600560560522
 31
0.0
  0
ARC
  5
793
  8
0
 10
9.9363320131469948
 20
50.667555715647822
 30
0.0
 40
0.4691352620379158
 50
86.902547302050095
 51
143.86963353070939
  0
LINE
  5
794
  8
0
 10
9.5070761909438488
 20
49.536005605605219
 30
0.0
 11
22.507076190943849
 21
49.536005605605219
 31
0.0
  0
LINE
  5
7A5
  8
0
 10
23.512629690409199
 20
46.866568363077192
 30
0.0
 11
22.507076190943849
 21
47.136005611205157
 31
0.0
  0
LINE
  5
7A6
  8
0
 10
9.5070761909438488
 20
47.136005611205157
 30
0.0
 11
8.5015226914788684
 21
46.866568363077192
 31
0.0
  0
LINE
  5
7A7
  8
0
 10
22.507076190943849
 20
35.636005611205107
 30
0.0
 11
23.512629690409199
 21
35.905442859333078
 31
0.0
  0
LINE
  5
7A8
  8
0
 10
8.5015226914788684
 20
35.905442859333078
 30
0.0
 11
9.5070761909438488
 21
35.636005611205107
 31
0.0
  0
LINE
  5
7DD
  8
0
 10
20.007076190944051
 20
47.136005611205157
 30
0.0
 11
20.007076190944051
 21
47.895795360762413
 31
0.0
  0
LINE
  5
7DE
  8
0
 10
12.007076190944019
 20
47.895795360762413
 30
0.0
 11
12.007076190944019
 21
47.136005611205157
 31
0.0
  0
ARC
  5
7DF
  8
0
 10
20.261076190944181
 20
47.895795360762413
 30
0.0
 40
0.2540000000000072
 50
135.0000000000006
 51
180.0000000000008
  0
ARC
  5
7E0
  8
0
 10
11.753076190943879
 20
47.895795360762413
 30
0.0
 40
0.2539999999999944
 50
0.0
 51
44.999999999999709
  0
LINE
  5
7E1
  8
0
 10
10.508041491578179
 20
49.536005605605219
 30
0.0
 11
10.507076190943989
 21
49.501005605605208
 31
0.0
  0
LINE
  5
7E2
  8
0
 10
21.50707619094408
 20
49.501005605605208
 30
0.0
 11
21.506110890309909
 21
49.536005605605219
 31
0.0
  0
LINE
  5
7E3
  8
0
 10
20.081471068522461
 20
48.07540048318377
 30
0.0
 11
21.50707619094408
 21
49.501005605605208
 31
0.0
  0
LINE
  5
7E4
  8
0
 10
10.507076190943989
 20
49.501005605605208
 30
0.0
 11
11.93268131336526
 21
48.07540048318377
 31
0.0
  0
ARC
  5
7E5
  8
0
 10
17.88514397362777
 20
50.548505605605172
 30
0.0
 40
1.5874999999999959
 50
89.932714164613515
 51
119.0323783929002
  0
LINE
  5
7E6
  8
0
 10
14.12714394955935
 20
52.136004510827128
 30
0.0
 11
13.943184827673351
 21
52.125527404943163
 31
0.0
  0
POLYLINE
  5
7E7
  8
0
 66
     1
 10
0.0
 20
0.0
 30
0.0
 70
   128
  0
VERTEX
  5
A47
  8
0
 10
19.480737966207979
 20
52.136004964267421
 30
0.0
  0
VERTEX
  5
A48
  8
0
 10
19.413402564706359
 20
52.134636851378033
 30
0.0
  0
VERTEX
  5
A49
  8
0
 10
19.330693459021909
 20
52.129033706589702
 30
0.0
  0
SEQEND
  5
A4A
  8
0
  0
ARC
  5
7E8
  8
0
 10
12.53198745602722
 20
50.548505605605172
 30
0.0
 40
1.5875000000000219
 50
89.948498936494033
 51
109.5843431453448
  0
POLYLINE
  5
7E9
  8
0
 66
     1
 10
0.0
 20
0.0
 30
0.0
 70
   128
  0
VERTEX
  5
A4B
  8
0
 10
18.252142229027012
 20
52.136005336431523
 30
0.0
  0
VERTEX
  5
A4C
  8
0
 10
18.138561552996691
 20
52.132003261734027
 30
0.0
  0
VERTEX
  5
A4D
  8
0
 10
18.068180871380768
 20
52.125418331173982
 30
0.0
  0
SEQEND
  5
A4E
  8
0
  0
ARC
  5
7EA
  8
0
 10
13.761090087461071
 20
50.548505605605172
 30
0.0
 40
1.587500000000007
 50
89.966682117273805
 51
107.0138413576778
  0
ARC
  5
7EB
  8
0
 10
20.54486174333007
 20
50.548505605605172
 30
0.0
 40
1.5875000000000119
 50
89.971991893845214
 51
109.60942523159279
  0
LINE
  5
7EC
  8
0
 10
11.468519240063751
 20
52.136005417339973
 30
0.0
 11
11.281161353873159
 21
52.125002475774387
 31
0.0
  0
ARC
  5
7ED
  8
0
 10
20.919575776444329
 20
50.548505605605172
 30
0.0
 40
1.5875000000000039
 50
14.441415100411181
 51
96.777854581516806
  0
ARC
  5
7EE
  8
0
 10
11.094576605443731
 20
50.548505605605172
 30
0.0
 40
1.587499999999995
 50
83.250213339027852
 51
165.5489391159397
  0
ARC
  5
7EF
  8
0
 10
19.18207592304833
 20
50.548505605605172
 30
0.0
 40
1.5875000000000159
 50
84.628255126904904
 51
107.0486542168199
  0
ARC
  5
7F0
  8
0
 10
12.83207645883939
 20
50.548505605605172
 30
0.0
 40
1.5875000000000139
 50
72.986158642322181
 51
95.423476049906213
  0
ARC
  5
7F1
  8
0
 10
16.007076190943849
 20
48.961005605605159
 30
0.0
 40
3.1750000000000131
 50
69.582059513798271
 51
110.4609262897343
  0
ARC
  5
7F2
  8
0
 10
20.546406279585479
 20
50.548505605605172
 30
0.0
 40
1.587500000000003
 50
19.43641446242167
 51
109.63901659957151
  0
ARC
  5
7F3
  8
0
 10
11.46929063855765
 20
50.548505605605172
 30
0.0
 40
1.5875000000000039
 50
70.445238172239925
 51
160.52429951687219
  0
ARC
  5
7F4
  8
0
 10
18.253062294427
 20
50.548505605605172
 30
0.0
 40
1.5874999999999919
 50
67.280495818185727
 51
96.654372352373755
  0
ARC
  5
7F5
  8
0
 10
13.762934612754011
 20
50.548505605605172
 30
0.0
 40
1.5875000000000059
 50
83.446875900164116
 51
112.8114554607439
  0
ARC
  5
7F6
  8
0
 10
16.008380467286539
 20
50.548505605605172
 30
0.0
 40
1.587500000000007
 50
90.059942239394999
 51
126.37749186459639
  0
ARC
  5
7F7
  8
0
 10
19.482164925860499
 20
50.548505605605172
 30
0.0
 40
1.587500000000007
 50
21.720473473412529
 51
120.1985931619227
  0
ARC
  5
7F8
  8
0
 10
12.53484138689393
 20
50.548505605605172
 30
0.0
 40
1.5875000000000059
 50
59.938756369503629
 51
158.279526526588
  0
ARC
  5
7F9
  8
0
 10
14.129008408259949
 20
50.548505605605172
 30
0.0
 40
1.587500000000003
 50
53.780390841938477
 51
136.54129364402959
  0
ARC
  5
7FA
  8
0
 10
17.888872814002809
 20
50.548505605605172
 30
0.0
 40
1.587500000000011
 50
43.42549396603286
 51
126.3934914956472
  0
ARC
  5
7FB
  8
0
 10
16.009094224812969
 20
50.548505605605172
 30
0.0
 40
1.587499999999991
 50
52.005754810389227
 51
127.98693206245819
  0
ARC
  5
7FC
  8
0
 10
22.126076190943849
 20
50.755005605605199
 30
0.0
 40
0.3810000000000052
 50
0.0
 51
29.74411966449621
  0
ARC
  5
7FD
  8
0
 10
9.8880761909438775
 20
50.755005605605199
 30
0.0
 40
0.3810000000000052
 50
150.24401940704789
 51
180.0000000000008
  0
LINE
  5
7FE
  8
0
 10
22.507076190943849
 20
49.536005605605219
 30
0.0
 11
22.507076190944218
 21
50.755005605605199
 31
0.0
  0
LINE
  5
7FF
  8
0
 10
9.5070761909438488
 20
50.755005605605199
 30
0.0
 11
9.5070761909438488
 21
49.536005605605219
 31
0.0
  0
LINE
  5
801
  8
0
 10
19.759852940676691
 20
75.53867522919802
 30
0.0
 11
12.254299441211399
 21
75.53867522919802
 31
0.0
  0
LINE
  5
803
  8
0
 10
19.759852940676691
 20
88.538675229198105
 30
0.0
 11
23.512629690409231
 21
82.038675229198077
 31
0.0
  0
LINE
  5
804
  8
0
 10
8.5015226914788684
 20
82.03867522919802
 30
0.0
 11
12.254299441211341
 21
88.538675229198105
 31
0.0
  0
LINE
  5
806
  8
0
 10
23.512629690409199
 20
82.03867522919802
 30
0.0
 11
19.759852940676659
 21
75.53867522919802
 31
0.0
  0
LINE
  5
808
  8
0
 10
12.254299441211369
 20
75.53867522919802
 30
0.0
 11
8.5015226914788968
 21
82.038675229198034
 31
0.0
  0
LINE
  5
80A
  8
0
 10
12.254299441211369
 20
88.538675229198105
 30
0.0
 11
19.759852940676659
 21
88.538675229198105
 31
0.0
  0
CIRCLE
  5
80C
  8
0
 10
16.007076190943849
 20
82.03867522919802
 30
0.0
 40
6.5000000000000524
  0
ARC
  5
80D
  8
0
 10
16.007076190943849
 20
82.03867522919802
 30
0.0
 40
6.1190000000000486
 50
143.8958648354654
 51
148.65120888520059
  0
ARC
  5
80E
  8
0
 10
16.007076190943849
 20
82.03867522919802
 30
0.0
 40
6.119000000000054
 50
121.3958648354659
 51
126.151208885201
  0
ARC
  5
80F
  8
0
 10
16.007076190943849
 20
82.03867522919802
 30
0.0
 40
6.1190000000000566
 50
98.895864835465545
 51
103.65120888520021
  0
ARC
  5
810
  8
0
 10
16.007076190943849
 20
82.03867522919802
 30
0.0
 40
6.1190000000000442
 50
76.395864835465233
 51
81.151208885199367
  0
ARC
  5
811
  8
0
 10
16.007076190943849
 20
82.03867522919802
 30
0.0
 40
6.1190000000000326
 50
53.895864835464799
 51
58.6512088851998
  0
ARC
  5
812
  8
0
 10
16.007076190943849
 20
82.03867522919802
 30
0.0
 40
6.1190000000000566
 50
31.395864835465041
 51
36.151208885199871
  0
ARC
  5
813
  8
0
 10
16.007076190943849
 20
82.03867522919802
 30
0.0
 40
6.1190000000000611
 50
8.8958648354649412
 51
13.651208885199789
  0
ARC
  5
814
  8
0
 10
16.007076190943849
 20
82.03867522919802
 30
0.0
 40
6.1190000000000602
 50
346.39586483546498
 51
351.15120888519982
  0
ARC
  5
815
  8
0
 10
16.007076190943849
 20
82.03867522919802
 30
0.0
 40
6.1190000000000397
 50
323.89586483546498
 51
328.65120888520011
  0
ARC
  5
816
  8
0
 10
16.007076190943849
 20
82.03867522919802
 30
0.0
 40
6.119000000000046
 50
301.39586483546498
 51
306.15120888519942
  0
ARC
  5
817
  8
0
 10
16.007076190943849
 20
82.03867522919802
 30
0.0
 40
6.1190000000000602
 50
278.89586483546469
 51
283.65120888519942
  0
ARC
  5
818
  8
0
 10
16.007076190943849
 20
82.03867522919802
 30
0.0
 40
6.1190000000000451
 50
256.3958648354652
 51
261.15120888520022
  0
ARC
  5
819
  8
0
 10
16.007076190943849
 20
82.03867522919802
 30
0.0
 40
6.1190000000000362
 50
233.8958648354656
 51
238.65120888520059
  0
ARC
  5
81A
  8
0
 10
16.007076190943849
 20
82.03867522919802
 30
0.0
 40
6.1190000000000397
 50
211.3958648354654
 51
216.15120888519999
  0
ARC
  5
81B
  8
0
 10
16.007076190943849
 20
82.03867522919802
 30
0.0
 40
6.1190000000000433
 50
188.89586483546589
 51
193.65120888519991
  0
ARC
  5
81C
  8
0
 10
16.007076190943849
 20
82.03867522919802
 30
0.0
 40
6.1190000000000442
 50
166.395864835466
 51
171.15120888539249
  0
LINE
  5
81D
  8
0
 10
12.727900565571611
 20
80.678817750918412
 30
0.0
 11
12.579891729793051
 21
79.746666789510456
 31
0.0
  0
ARC
  5
81E
  8
0
 10
11.46929063855765
 20
80.156878606139344
 30
0.0
 40
1.4747881203858351
 50
150.7437470240634
 51
162.73734727537189
  0
ARC
  5
81F
  8
0
 10
11.30810342423163
 20
80.090035086970062
 30
0.0
 40
1.3453398534615211
 50
157.97623448770949
 51
247.0708392329544
  0
ARC
  5
820
  8
0
 10
11.46929063855765
 20
80.156878606139344
 30
0.0
 40
1.474788120375268
 50
242.30972644479851
 51
254.30332669679561
  0
ARC
  5
821
  8
0
 10
12.53198745602722
 20
85.510910033247953
 30
0.0
 40
1.4747881203858171
 50
83.243747024062685
 51
95.237347275373153
  0
ARC
  5
822
  8
0
 10
12.408548420354119
 20
85.634247694119296
 30
0.0
 40
1.3453398534614831
 50
90.476234487710826
 51
179.57083923295701
  0
ARC
  5
823
  8
0
 10
12.53198745602722
 20
85.510910033247953
 30
0.0
 40
1.474788120375276
 50
174.80972644479951
 51
186.8033266967972
  0
ARC
  5
824
  8
0
 10
11.094576605443731
 20
82.036657195329184
 30
0.0
 40
1.474788120375266
 50
128.2437470240653
 51
140.23734727605779
  0
ARC
  5
825
  8
0
 10
10.9200791298505
 20
82.036585512510769
 30
0.0
 40
1.3453398534357599
 50
135.47623448733211
 51
224.57083923352531
  0
ARC
  5
826
  8
0
 10
11.094576605443731
 20
82.036657195329184
 30
0.0
 40
1.4747881203752859
 50
219.80972644480141
 51
231.80332669679589
  0
LINE
  5
827
  8
0
 10
11.96365695643644
 20
81.23266225636921
 30
0.0
 11
10.18262254400585
 21
80.877631833299901
 31
0.0
  0
LINE
  5
828
  8
0
 10
13.717884269855229
 20
78.609608830485996
 30
0.0
 11
14.64991331388052
 21
78.758383463457051
 31
0.0
  0
ARC
  5
829
  8
0
 10
14.129008408259949
 20
77.499345140556656
 30
0.0
 40
1.4747881203858491
 50
195.74374702406379
 51
207.73734727537291
  0
ARC
  5
82A
  8
0
 10
14.06229734165254
 20
77.338103062583173
 30
0.0
 40
1.3453398534614911
 50
202.97623448770969
 51
292.07083923295539
  0
ARC
  5
82B
  8
0
 10
14.129008408259949
 20
77.499345140556656
 30
0.0
 40
1.4747881203752999
 50
287.30972644479789
 51
299.30332669679348
  0
LINE
  5
82C
  8
0
 10
11.96299610784706
 20
82.841365891815286
 30
0.0
 11
11.96365695643644
 21
81.23266225636921
 31
0.0
  0
LINE
  5
82D
  8
0
 10
11.96365695643644
 20
81.23266225636921
 30
0.0
 11
12.727900565571611
 21
80.678817750918412
 31
0.0
  0
LINE
  5
82E
  8
0
 10
13.979367836491431
 20
81.197794872489695
 30
0.0
 11
12.727900565571611
 21
80.678817750918412
 31
0.0
  0
LINE
  5
82F
  8
0
 10
15.20438552832667
 20
77.994595146101034
 30
0.0
 11
14.85081850751004
 21
76.213269644864141
 31
0.0
  0
ARC
  5
830
  8
0
 10
16.009094224812969
 20
77.12617564369792
 30
0.0
 40
1.474788120385822
 50
218.24374702406379
 51
230.2373472753722
  0
ARC
  5
831
  8
0
 10
16.009165907622808
 20
76.95167816813246
 30
0.0
 40
1.3453398534615031
 50
225.47623448771
 51
314.5708392329534
  0
ARC
  5
832
  8
0
 10
16.009094224812969
 20
77.12617564369792
 30
0.0
 40
1.4747881203752911
 50
309.80972644479778
 51
321.80332669679422
  0
LINE
  5
833
  8
0
 10
14.64991331388052
 20
78.758383463457051
 30
0.0
 11
15.16786206563699
 21
80.010276699101084
 31
0.0
  0
LINE
  5
834
  8
0
 10
14.64991331388052
 20
78.758383463457051
 30
0.0
 11
15.20438552832667
 21
77.994595146101034
 31
0.0
  0
LINE
  5
835
  8
0
 10
15.20438552832667
 20
77.994595146101034
 30
0.0
 11
16.81308916377284
 21
77.995255994690424
 31
0.0
  0
LINE
  5
836
  8
0
 10
17.366933669223471
 20
78.759499603825944
 30
0.0
 11
16.847956547652359
 21
80.010966874745591
 31
0.0
  0
LINE
  5
837
  8
0
 10
13.717884269855229
 20
78.609608830485996
 30
0.0
 11
12.70954717897896
 21
77.099182900249986
 31
0.0
  0
LINE
  5
838
  8
0
 10
12.579891729793051
 20
79.746666789510456
 30
0.0
 11
13.717884269855229
 21
78.609608830485996
 31
0.0
  0
LINE
  5
839
  8
0
 10
12.579891729793051
 20
79.746666789510456
 30
0.0
 11
11.07029475034423
 21
78.737089086108725
 31
0.0
  0
ARC
  5
83A
  8
0
 10
12.53484138689393
 20
78.563586494281381
 30
0.0
 40
1.474788120385816
 50
173.24374702406351
 51
185.23734727537251
  0
ARC
  5
83B
  8
0
 10
12.411503726022829
 20
78.440147458608209
 30
0.0
 40
1.3453398534614831
 50
180.47623448770921
 51
269.57083923295619
  0
ARC
  5
83C
  8
0
 10
12.53484138689393
 20
78.563586494281381
 30
0.0
 40
1.47478812037528
 50
264.80972644479931
 51
276.80332669679427
  0
ARC
  5
83D
  8
0
 10
11.467746102302581
 20
83.916743011881934
 30
0.0
 40
1.4747881203752691
 50
197.30972644479999
 51
209.3033266967941
  0
LINE
  5
83E
  8
0
 10
10.18167060661005
 20
83.194932912632027
 30
0.0
 11
11.96299610784706
 21
82.841365891815286
 31
0.0
  0
LINE
  5
83F
  8
0
 10
12.726784425202791
 20
83.39583810626155
 30
0.0
 11
11.96299610784706
 21
82.841365891815286
 31
0.0
  0
LINE
  5
840
  8
0
 10
12.57800979223202
 20
84.327867150286906
 30
0.0
 11
11.06758386199601
 21
85.336204241163173
 31
0.0
  0
ARC
  5
841
  8
0
 10
11.467746102302581
 20
83.916743011881934
 30
0.0
 40
1.4747881203858191
 50
105.74374702406411
 51
117.7373472753725
  0
ARC
  5
842
  8
0
 10
11.306504024329
 20
83.98345407848953
 30
0.0
 40
1.345339853461482
 50
112.97623448770911
 51
202.0708392329563
  0
LINE
  5
843
  8
0
 10
19.2873679566849
 20
80.68151235213449
 30
0.0
 11
18.035474721041169
 21
81.199461103891167
 31
0.0
  0
LINE
  5
844
  8
0
 10
14.64721871266425
 20
85.317850854570267
 30
0.0
 11
15.16619583423571
 21
84.066383583650634
 31
0.0
  0
LINE
  5
845
  8
0
 10
13.715067751256299
 20
85.465859690349205
 30
0.0
 11
12.57800979223202
 21
84.327867150286906
 31
0.0
  0
LINE
  5
846
  8
0
 10
12.57800979223202
 20
84.327867150286906
 30
0.0
 11
12.726784425202791
 21
83.39583810626155
 31
0.0
  0
LINE
  5
847
  8
0
 10
12.726784425202791
 20
83.39583810626155
 30
0.0
 11
13.97867766084692
 21
82.877889354505044
 31
0.0
  0
LINE
  5
848
  8
0
 10
17.366933669223471
 20
78.759499603825944
 30
0.0
 11
18.29908463063143
 21
78.611490768046949
 31
0.0
  0
LINE
  5
849
  8
0
 10
16.81308916377284
 20
77.995255994690424
 30
0.0
 11
17.366933669223471
 21
78.759499603825944
 31
0.0
  0
LINE
  5
84A
  8
0
 10
16.81308916377284
 20
77.995255994690424
 30
0.0
 11
17.168119586842241
 21
76.214221582260009
 31
0.0
  0
ARC
  5
84B
  8
0
 10
17.888872814002809
 20
77.500889676811809
 30
0.0
 40
1.474788120385818
 50
240.74374702406439
 51
252.737347275373
  0
ARC
  5
84C
  8
0
 10
17.9557163331718
 20
77.339702462485789
 30
0.0
 40
1.3453398534614991
 50
247.97623448771071
 51
337.07083923295443
  0
ARC
  5
84D
  8
0
 10
17.888872814002809
 20
77.500889676811809
 30
0.0
 40
1.4747881203752651
 50
332.3097264447984
 51
344.30332669679512
  0
LINE
  5
84E
  8
0
 10
19.2873679566849
 20
80.68151235213449
 30
0.0
 11
20.051156274041031
 21
81.235984566580839
 31
0.0
  0
LINE
  5
84F
  8
0
 10
19.436142589656068
 20
79.74948330810922
 30
0.0
 11
19.2873679566849
 21
80.68151235213449
 31
0.0
  0
ARC
  5
850
  8
0
 10
20.546406279585479
 20
80.160607446514192
 30
0.0
 40
1.474788120385824
 50
285.74374702406237
 51
297.73734727537169
  0
ARC
  5
851
  8
0
 10
20.707648357559069
 20
80.09389637990661
 30
0.0
 40
1.345339853461498
 50
292.97623448770918
 51
22.07083923295415
  0
ARC
  5
852
  8
0
 10
20.546406279585479
 20
80.160607446514192
 30
0.0
 40
1.4747881203752811
 50
17.309726444798251
 51
29.303326696794102
  0
LINE
  5
853
  8
0
 10
13.715067751256299
 20
85.465859690349205
 30
0.0
 11
12.70549004785474
 21
86.975456669797737
 31
0.0
  0
LINE
  5
854
  8
0
 10
14.64721871266425
 20
85.317850854570267
 30
0.0
 11
13.715067751256299
 21
85.465859690349205
 31
0.0
  0
LINE
  5
855
  8
0
 10
15.20106321811488
 20
86.082094463705715
 30
0.0
 11
14.64721871266425
 21
85.317850854570267
 31
0.0
  0
ARC
  5
856
  8
0
 10
14.125279567885279
 20
86.576460781584231
 30
0.0
 40
1.4747881203858639
 50
60.743747024063381
 51
72.737347275372173
  0
ARC
  5
857
  8
0
 10
14.05843604871589
 20
86.737647995910436
 30
0.0
 40
1.34533985346152
 50
67.976234487710684
 51
157.07083923295579
  0
ARC
  5
858
  8
0
 10
14.125279567885279
 20
86.576460781584231
 30
0.0
 40
1.474788120375276
 50
152.30972644479829
 51
164.30332669679589
  0
LINE
  5
859
  8
0
 10
17.364239068007581
 20
85.318966994939174
 30
0.0
 11
16.80976685356103
 21
86.082755312295092
 31
0.0
  0
ARC
  5
85A
  8
0
 10
17.88514397362777
 20
86.578005317839455
 30
0.0
 40
1.4747881203858191
 50
15.74374702406295
 51
27.737347275371771
  0
ARC
  5
85B
  8
0
 10
17.951855040235529
 20
86.739247395813052
 30
0.0
 40
1.3453398534614369
 50
22.976234487707728
 51
112.07083923295789
  0
ARC
  5
85C
  8
0
 10
17.88514397362777
 20
86.578005317839455
 30
0.0
 40
1.474788120375266
 50
107.3097264447988
 51
119.30332669679549
  0
LINE
  5
85D
  8
0
 10
20.051156274041031
 20
81.235984566580839
 30
0.0
 11
20.050495425451629
 21
82.844688202027001
 31
0.0
  0
LINE
  5
85E
  8
0
 10
20.051156274041031
 20
81.235984566580839
 30
0.0
 11
21.832481775278008
 21
80.882417545764199
 31
0.0
  0
ARC
  5
85F
  8
0
 10
20.919575776444329
 20
82.040693263067041
 30
0.0
 40
1.47478812038584
 50
308.24374702406323
 51
320.23734727537192
  0
ARC
  5
860
  8
0
 10
21.09407325200976
 20
82.040764945876788
 30
0.0
 40
1.3453398534614629
 50
315.47623448770912
 51
44.570839232956992
  0
ARC
  5
861
  8
0
 10
20.919575776444329
 20
82.040693263067041
 30
0.0
 40
1.474788120375268
 50
39.809726444798201
 51
51.803326696794258
  0
LINE
  5
862
  8
0
 10
15.20106321811488
 20
86.082094463705715
 30
0.0
 11
14.846032795045829
 21
87.863128876136116
 31
0.0
  0
LINE
  5
863
  8
0
 10
16.80976685356103
 20
86.082755312295092
 30
0.0
 11
15.20106321811488
 21
86.082094463705715
 31
0.0
  0
LINE
  5
864
  8
0
 10
16.80976685356103
 20
86.082755312295092
 30
0.0
 11
17.163333874377681
 21
87.864080813531984
 31
0.0
  0
ARC
  5
865
  8
0
 10
16.005058157075101
 20
86.951174814698319
 30
0.0
 40
1.47478812038584
 50
38.24374702406363
 51
50.237347275372208
  0
ARC
  5
866
  8
0
 10
16.00498647426528
 20
87.125672290263765
 30
0.0
 40
1.3453398534614609
 50
45.47623448770792
 51
134.57083923295781
  0
ARC
  5
867
  8
0
 10
16.005058157075101
 20
86.951174814698319
 30
0.0
 40
1.4747881203752771
 50
129.80972644479971
 51
141.80332669679561
  0
LINE
  5
868
  8
0
 10
18.296268112032831
 20
85.467741627910215
 30
0.0
 11
19.304605202909102
 21
86.978167558146154
 31
0.0
  0
ARC
  5
869
  8
0
 10
19.479310994993789
 20
85.513763964114816
 30
0.0
 40
1.4747881203858271
 50
353.24374702406192
 51
5.2373472753717136
  0
ARC
  5
86A
  8
0
 10
19.602648655865231
 20
85.637202999788016
 30
0.0
 40
1.345339853461466
 50
0.4762344877094053
 51
89.570839232957027
  0
ARC
  5
86B
  8
0
 10
19.479310994993789
 20
85.513763964114816
 30
0.0
 40
1.474788120375262
 50
84.809726444799253
 51
96.803326696795978
  0
ARC
  5
86C
  8
0
 10
16.005107727768831
 20
86.830504881199218
 30
0.0
 40
2.8886224593520899
 50
253.11693568475599
 51
286.93013803610211
  0
ARC
  5
86D
  8
0
 10
12.61734903606358
 20
85.425618556759161
 30
0.0
 40
2.8886224593520651
 50
298.11693568475459
 51
331.93013803610182
  0
ARC
  5
86E
  8
0
 10
11.21524653894312
 20
82.036706766023002
 30
0.0
 40
2.8886224593519252
 50
343.11693568475431
 51
16.930138036102669
  0
ARC
  5
86F
  8
0
 10
12.62013286338254
 20
78.648948074317374
 30
0.0
 40
2.888622459352487
 50
28.116935684757209
 51
61.9301380360994
  0
ARC
  5
870
  8
0
 10
16.009044654119229
 20
77.246845577196737
 30
0.0
 40
2.8886224593522951
 50
73.116935684755973
 51
106.9301380361012
  0
ARC
  5
871
  8
0
 10
19.39680334582448
 20
78.651731901636865
 30
0.0
 40
2.8886224593521841
 50
118.1169356847555
 51
151.93013803610091
  0
ARC
  5
872
  8
0
 10
20.798905842944968
 20
82.040643692373123
 30
0.0
 40
2.888622459352046
 50
163.11693568475519
 51
196.9301380361027
  0
ARC
  5
873
  8
0
 10
19.394019518505189
 20
85.428402384078396
 30
0.0
 40
2.8886224593520402
 50
208.11693568475479
 51
241.93013803610231
  0
LINE
  5
874
  8
0
 10
19.28625181631611
 20
83.398532707477713
 30
0.0
 11
18.034784545396629
 21
82.879555585906445
 31
0.0
  0
LINE
  5
875
  8
0
 10
19.43426065209502
 20
84.330683668885669
 30
0.0
 11
18.296268112032831
 21
85.467741627910215
 31
0.0
  0
LINE
  5
876
  8
0
 10
18.296268112032831
 20
85.467741627910215
 30
0.0
 11
17.364239068007581
 21
85.318966994939174
 31
0.0
  0
LINE
  5
877
  8
0
 10
17.364239068007581
 20
85.318966994939174
 30
0.0
 11
16.846290316251071
 21
84.067073759295141
 31
0.0
  0
LINE
  5
878
  8
0
 10
19.436142589656068
 20
79.74948330810922
 30
0.0
 11
20.946568519892079
 21
78.741146217232952
 31
0.0
  0
LINE
  5
879
  8
0
 10
18.29908463063143
 20
78.611490768046949
 30
0.0
 11
19.436142589656068
 21
79.74948330810922
 31
0.0
  0
LINE
  5
87A
  8
0
 10
18.29908463063143
 20
78.611490768046949
 30
0.0
 11
19.308662334033329
 21
77.101893788598389
 31
0.0
  0
ARC
  5
87B
  8
0
 10
19.48216492586084
 20
78.566440425148173
 30
0.0
 40
1.4747881203858391
 50
263.24374702406351
 51
275.23734727537152
  0
ARC
  5
87C
  8
0
 10
19.605603961533941
 20
78.443102764276816
 30
0.0
 40
1.345339853461522
 50
270.47623448770997
 51
359.57083923295443
  0
ARC
  5
87D
  8
0
 10
19.48216492586084
 20
78.566440425148173
 30
0.0
 40
1.4747881203752731
 50
354.80972644479891
 51
6.8033266967953194
  0
LINE
  5
87E
  8
0
 10
19.43426065209502
 20
84.330683668885669
 30
0.0
 11
20.943857631543491
 21
85.340261372287415
 31
0.0
  0
LINE
  5
87F
  8
0
 10
19.28625181631611
 20
83.398532707477713
 30
0.0
 11
19.43426065209502
 21
84.330683668885669
 31
0.0
  0
LINE
  5
880
  8
0
 10
20.050495425451629
 20
82.844688202027001
 30
0.0
 11
19.28625181631611
 21
83.398532707477713
 31
0.0
  0
LINE
  5
881
  8
0
 10
20.050495425451629
 20
82.844688202027001
 30
0.0
 11
21.831529837881881
 21
83.199718625096224
 31
0.0
  0
ARC
  5
882
  8
0
 10
20.54486174333007
 20
83.920471852256782
 30
0.0
 40
1.4747881203858499
 50
330.74374702406311
 51
342.73734727537237
  0
ARC
  5
883
  8
0
 10
20.70604895765646
 20
83.987315371426064
 30
0.0
 40
1.3453398534615251
 50
337.97623448771088
 51
67.070839232954242
  0
ARC
  5
884
  8
0
 10
20.54486174333007
 20
83.920471852256782
 30
0.0
 40
1.474788120375268
 50
62.30972644479845
 51
74.303326696794713
  0
LINE
  5
88D
  8
1
 10
16.007076190943849
 20
7.6360056112050643
 30
0.0
 11
16.007076190943881
 21
55.135998129701562
 31
0.0
  0
LINE
  5
88E
  8
1
 10
26.512629690409199
 20
82.03867522919802
 30
0.0
 11
5.5015226914788684
 21
82.03867522919802
 31
0.0
  0
LINE
  5
88F
  8
1
 10
55.671297047086092
 20
7.6360056112050643
 30
0.0
 11
55.671297047086092
 21
55.135998129701562
 31
0.0
  0
LINE
  5
89A
  8
1
 10
16.007076190943849
 20
72.53867522919802
 30
0.0
 11
16.007076190943849
 21
91.538675229198105
 31
0.0
  0
LINE
  5
8AA
  8
3
 10
19.330576190943841
 20
33.636005611204411
 30
0.0
 11
20.007076190943849
 21
34.807737611204409
 31
0.0
  0
LINE
  5
8AB
  8
3
 10
12.68357619094385
 20
33.636005611204411
 30
0.0
 11
12.007076190943851
 21
34.807737611204409
 31
0.0
  0
LINE
  5
8AC
  8
0
 10
12.007076190943851
 20
11.83600561120504
 30
0.0
 11
20.007076190943849
 21
11.83600561120504
 31
0.0
  0
LINE
  5
8AD
  8
0
 10
18.80707619094386
 20
10.636005611205031
 30
0.0
 11
20.007076190943849
 21
11.83600561120504
 31
0.0
  0
LINE
  5
8AE
  8
0
 10
13.207076190943839
 20
10.636005611205031
 30
0.0
 11
12.007076190943851
 21
11.83600561120504
 31
0.0
  0
LINE
  5
8AF
  8
0
 10
12.007076190943851
 20
33.636005611204411
 30
0.0
 11
20.007076190943849
 21
33.636005611204411
 31
0.0
  0
LINE
  5
8B0
  8
0
 10
12.007076190943851
 20
11.83600561120504
 30
0.0
 11
12.007076190943851
 21
34.874005611204581
 31
0.0
  0
LINE
  5
8B1
  8
3
 10
12.68357619094385
 20
11.159505611205031
 30
0.0
 11
12.68357619094385
 21
33.636005611204411
 31
0.0
  0
LINE
  5
8B2
  8
3
 10
19.330576190943841
 20
11.159505611205031
 30
0.0
 11
19.330576190943841
 21
33.636005611204411
 31
0.0
  0
LINE
  5
8B3
  8
0
 10
20.007076190943849
 20
11.83600561120504
 30
0.0
 11
20.007076190943849
 21
34.874005611204581
 31
0.0
  0
LINE
  5
8B4
  8
0
 10
13.207076190943839
 20
10.636005611205031
 30
0.0
 11
18.80707619094386
 21
10.636005611205031
 31
0.0
  0
LINE
  5
8B5
  8
0
 10
20.007076190943881
 20
34.874005611204581
 30
0.0
 11
12.00707619094425
 21
34.874005611204581
 31
0.0
  0
ARC
  5
8B6
  8
0
 10
11.245076190944239
 20
34.87400561120463
 30
0.0
 40
0.7619999999999455
 50
0.0
 51
89.999999999999986
  0
ARC
  5
8B7
  8
0
 10
20.769076190944158
 20
34.87400561120463
 30
0.0
 40
0.7619999999999682
 50
89.999999999999986
 51
180.0
  0
LINE
  5
8B8
  8
3
 10
58.994797047086081
 20
33.636005611204439
 30
0.0
 11
59.671297047086078
 21
34.807737611204431
 31
0.0
  0
LINE
  5
8B9
  8
3
 10
52.34779704708609
 20
33.636005611204439
 30
0.0
 11
51.671297047086078
 21
34.807737611204431
 31
0.0
  0
LINE
  5
8BA
  8
0
 10
51.671297047086078
 20
11.83600561120506
 30
0.0
 11
59.671297047086078
 21
11.83600561120506
 31
0.0
  0
LINE
  5
8BB
  8
0
 10
58.471297047086097
 20
10.636005611205061
 30
0.0
 11
59.671297047086078
 21
11.83600561120506
 31
0.0
  0
LINE
  5
8BC
  8
0
 10
52.871297047086081
 20
10.636005611205061
 30
0.0
 11
51.671297047086078
 21
11.83600561120506
 31
0.0
  0
LINE
  5
8BD
  8
0
 10
51.671297047086078
 20
33.636005611204439
 30
0.0
 11
59.671297047086078
 21
33.636005611204439
 31
0.0
  0
LINE
  5
8BE
  8
0
 10
51.671297047086078
 20
11.83600561120506
 30
0.0
 11
51.671297047086078
 21
34.874005611204609
 31
0.0
  0
LINE
  5
8BF
  8
3
 10
52.34779704708609
 20
11.159505611205059
 30
0.0
 11
52.34779704708609
 21
33.636005611204439
 31
0.0
  0
LINE
  5
8C0
  8
3
 10
58.994797047086081
 20
11.159505611205059
 30
0.0
 11
58.994797047086081
 21
33.636005611204439
 31
0.0
  0
LINE
  5
8C1
  8
0
 10
59.671297047086078
 20
11.83600561120506
 30
0.0
 11
59.671297047086078
 21
34.874005611204609
 31
0.0
  0
LINE
  5
8C2
  8
0
 10
52.871297047086081
 20
10.636005611205061
 30
0.0
 11
58.471297047086097
 21
10.636005611205061
 31
0.0
  0
LINE
  5
8C3
  8
0
 10
59.671297047086107
 20
34.874005611204609
 30
0.0
 11
51.671297047086483
 21
34.874005611204609
 31
0.0
  0
ARC
  5
8C4
  8
0
 10
50.909297047086483
 20
34.874005611204659
 30
0.0
 40
0.7619999999999455
 50
0.0
 51
89.999999999999986
  0
ARC
  5
8C5
  8
0
 10
60.433297047086391
 20
34.874005611204659
 30
0.0
 40
0.7619999999999682
 50
89.999999999999986
 51
180.0
  0
TEXT
  5
97C
  8
0
 62
     3
 10
0.0
 20
0.0
 30
0.0
 40
5.0
  1
MBUH-08025-80UR
  7
STANDARD1
  0
ENDSEC
  0
EOF
