  0
SECTION
  2
HEADER
  9
$ACADVER
  1
AC1009
  9
$INSBASE
 10
82.638099999999994
 20
103.82319099999999
 30
0.0
  9
$EXTMIN
 10
0.0
 20
-1.4802182810368341
 30
0.0
  9
$EXTMAX
 10
62.5
 20
106.53867522919811
 30
0.0
  9
$LIMMIN
 10
0.0
 20
0.0
  9
$LIMMAX
 10
187.5
 20
135.0
  9
$ORTHOMODE
 70
     1
  9
$REGENMODE
 70
     1
  9
$FILLMODE
 70
     1
  9
$QTEXTMODE
 70
     0
  9
$MIRRTEXT
 70
     0
  9
$DRAGMODE
 70
     2
  9
$LTSCALE
 40
5.0
  9
$OSMODE
 70
  3071
  9
$ATTMODE
 70
     1
  9
$TEXTSIZE
 40
0.06
  9
$TRACEWID
 40
0.05
  9
$TEXTSTYLE
  7
STANDARD
  9
$CLAYER
  8
0
  9
$CELTYPE
  6
BYLAYER
  9
$CECOLOR
 62
   256
  9
$DIMSCALE
 40
0.5
  9
$DIMASZ
 40
3.0
  9
$DIMEXO
 40
2.0
  9
$DIMDLI
 40
10.0
  9
$DIMRND
 40
0.0
  9
$DIMDLE
 40
0.0
  9
$DIMEXE
 40
2.0
  9
$DIMTP
 40
0.0
  9
$DIMTM
 40
0.0
  9
$DIMTXT
 40
3.0
  9
$DIMCEN
 40
0.0
  9
$DIMTSZ
 40
0.0
  9
$DIMTOL
 70
     0
  9
$DIMLIM
 70
     0
  9
$DIMTIH
 70
     0
  9
$DIMTOH
 70
     0
  9
$DIMSE1
 70
     0
  9
$DIMSE2
 70
     0
  9
$DIMTAD
 70
     1
  9
$DIMZIN
 70
     0
  9
$DIMBLK
  1

  9
$DIMASO
 70
     0
  9
$DIMSHO
 70
     0
  9
$DIMPOST
  1

  9
$DIMAPOST
  1

  9
$DIMALT
 70
     0
  9
$DIMALTD
 70
     2
  9
$DIMALTF
 40
25.399999999999999
  9
$DIMLFAC
 40
1.0
  9
$DIMTOFL
 70
     1
  9
$DIMTVP
 40
1.6000000000000001
  9
$DIMTIX
 70
     1
  9
$DIMSOXD
 70
     0
  9
$DIMSAH
 70
     0
  9
$DIMBLK1
  1

  9
$DIMBLK2
  1

  9
$DIMSTYLE
  2
STANDARD
  9
$DIMCLRD
 70
     0
  9
$DIMCLRE
 70
     0
  9
$DIMCLRT
 70
     0
  9
$DIMTFAC
 40
1.0
  9
$DIMGAP
 40
0.09
  9
$LUNITS
 70
     2
  9
$LUPREC
 70
     4
  9
$SKETCHINC
 40
0.1
  9
$FILLETRAD
 40
0.4
  9
$AUNITS
 70
     0
  9
$AUPREC
 70
     4
  9
$MENU
  1
E:\r13\win\SUPPORT\ACAD
  9
$ELEVATION
 40
0.0
  9
$PELEVATION
 40
0.0
  9
$THICKNESS
 40
0.0
  9
$LIMCHECK
 70
     0
  9
$BLIPMODE
 70
     0
  9
$CHAMFERA
 40
0.0
  9
$CHAMFERB
 40
0.0
  9
$SKPOLY
 70
     0
  9
$TDCREATE
 40
2449840.5903472221
  9
$TDUPDATE
 40
2456597.6355496072
  9
$TDINDWG
 40
0.0998909259
  9
$TDUSRTIMER
 40
0.0998909259
  9
$USRTIMER
 70
     1
  9
$ANGBASE
 50
0.0
  9
$ANGDIR
 70
     0
  9
$PDMODE
 70
     0
  9
$PDSIZE
 40
0.0
  9
$PLINEWID
 40
0.0
  9
$COORDS
 70
     1
  9
$SPLFRAME
 70
     0
  9
$SPLINETYPE
 70
     6
  9
$SPLINESEGS
 70
     8
  9
$ATTDIA
 70
     0
  9
$ATTREQ
 70
     1
  9
$HANDLING
 70
     1
  9
$HANDSEED
  5
A97
  9
$SURFTAB1
 70
     6
  9
$SURFTAB2
 70
     6
  9
$SURFTYPE
 70
     6
  9
$SURFU
 70
     6
  9
$SURFV
 70
     6
  9
$UCSNAME
  2

  9
$UCSORG
 10
0.0
 20
0.0
 30
0.0
  9
$UCSXDIR
 10
1.0
 20
0.0
 30
0.0
  9
$UCSYDIR
 10
0.0
 20
1.0
 30
0.0
  9
$PUCSNAME
  2

  9
$PUCSORG
 10
0.0
 20
0.0
 30
0.0
  9
$PUCSXDIR
 10
1.0
 20
0.0
 30
0.0
  9
$PUCSYDIR
 10
0.0
 20
1.0
 30
0.0
  9
$USERI1
 70
     3
  9
$USERI2
 70
     1
  9
$USERI3
 70
     0
  9
$USERI4
 70
     0
  9
$USERI5
 70
     0
  9
$USERR1
 40
0.5
  9
$USERR2
 40
3.0
  9
$USERR3
 40
3.0
  9
$USERR4
 40
3.0
  9
$USERR5
 40
10.0
  9
$WORLDVIEW
 70
     1
  9
$SHADEDGE
 70
     3
  9
$SHADEDIF
 70
    70
  9
$TILEMODE
 70
     1
  9
$MAXACTVP
 70
    16
  9
$PLIMCHECK
 70
     0
  9
$PEXTMIN
 10
1.0000000000000000E+020
 20
1.0000000000000000E+020
 30
1.0000000000000000E+020
  9
$PEXTMAX
 10
-1.0000000000000000E+020
 20
-1.0000000000000000E+020
 30
-1.0000000000000000E+020
  9
$PLIMMIN
 10
0.0
 20
0.0
  9
$PLIMMAX
 10
12.0
 20
9.0
  9
$UNITMODE
 70
     0
  9
$VISRETAIN
 70
     0
  9
$PLINEGEN
 70
     0
  9
$PSLTSCALE
 70
     0
  0
ENDSEC
  0
SECTION
  2
TABLES
  0
TABLE
  2
VPORT
 70
     1
  0
VPORT
  2
*ACTIVE
 70
     0
 10
0.0
 20
0.0
 11
1.0
 21
1.0
 12
93.747139195326156
 22
67.05183146954721
 13
0.0
 23
0.0
 14
5.0
 24
5.0
 15
10.0
 25
10.0
 16
0.0
 26
0.0
 36
1.0
 17
0.0
 27
0.0
 37
0.0
 40
138.6470298934976
 41
2.304913294797688
 42
50.0
 43
0.0
 44
0.0
 50
0.0
 51
0.0
 71
     0
 72
   100
 73
     1
 74
     0
 75
     0
 76
     0
 77
     0
 78
     2
  0
ENDTAB
  0
TABLE
  2
LTYPE
 70
     3
  0
LTYPE
  2
CONTINUOUS
 70
     0
  3
Solid Line
 72
    65
 73
     0
 40
0.0
  0
LTYPE
  2
CENTER
 70
     0
  3
____ _ ____ _ ____ _ ____ _ ____ _ ____ _ ____
 72
    65
 73
     4
 40
2.0
 49
1.25
 49
-0.25
 49
0.25
 49
-0.25
  0
LTYPE
  2
PHANTOM2
 70
     0
  3
___ _ _ ___ _ _ ___ _ _ ___ _ _
 72
    65
 73
     6
 40
1.25
 49
0.625
 49
-0.125
 49
0.125
 49
-0.125
 49
0.125
 49
-0.125
  0
ENDTAB
  0
TABLE
  2
LAYER
 70
     3
  0
LAYER
  2
0
 70
     0
 62
     7
  6
CONTINUOUS
  0
LAYER
  2
1
 70
     0
 62
     1
  6
CENTER
  0
LAYER
  2
3
 70
     0
 62
     3
  6
CONTINUOUS
  0
ENDTAB
  0
TABLE
  2
STYLE
 70
     2
  0
STYLE
  2
STANDARD
 70
     0
 40
0.0
 41
1.0
 50
0.0
 71
     0
 42
0.06
  3
TXT
  4
BIGFONT
  0
STYLE
  2
STANDARD1
 70
     0
 40
0.0
 41
1.0
 50
0.0
 71
     0
 42
3.0
  3
txt
  4

  0
ENDTAB
  0
TABLE
  2
VIEW
 70
     0
  0
ENDTAB
  0
TABLE
  2
UCS
 70
     0
  0
ENDTAB
  0
TABLE
  2
APPID
 70
     3
  0
APPID
  2
ACAD
 70
     0
  0
APPID
  2
ACAD_MLEADERVER
 70
     0
  0
APPID
  2
ACAD_NAV_VCDISPLAY
 70
     0
  0
ENDTAB
  0
TABLE
  2
DIMSTYLE
 70
     1
  0
DIMSTYLE
  2
STANDARD
 70
     0
  3

  4

  5

  6

  7

 40
1.0
 41
0.18
 42
0.0625
 43
0.38
 44
0.18
 45
0.0
 46
0.0
 47
0.0
 48
0.0
140
0.18
141
0.09
142
0.0
143
25.399999999999999
144
1.0
145
0.0
146
1.0
147
0.09
 71
     0
 72
     0
 73
     1
 74
     1
 75
     0
 76
     0
 77
     0
 78
     0
170
     0
171
     2
172
     0
173
     0
174
     0
175
     0
176
     0
177
     0
178
     0
  0
ENDTAB
  0
ENDSEC
  0
SECTION
  2
BLOCKS
  0
BLOCK
  8
0
  2
$MODEL_SPACE
 70
     0
 10
0.0
 20
0.0
 30
0.0
  3
$MODEL_SPACE
  1

  0
ENDBLK
  5
10C
  8
0
  0
BLOCK
 67
     1
  8
0
  2
$PAPER_SPACE
 70
     0
 10
0.0
 20
0.0
 30
0.0
  3
$PAPER_SPACE
  1

  0
ENDBLK
  5
10A
 67
     1
  8
0
  0
ENDSEC
  0
SECTION
  2
ENTITIES
  0
LINE
  5
685
  8
0
 10
59.671297047086249
 20
62.895795360762428
 30
0.0
 11
51.671297047086249
 21
62.895795360762428
 31
0.0
  0
LINE
  5
686
  8
0
 10
51.596902169507473
 20
63.075400483183792
 30
0.0
 11
59.745691924664982
 21
63.075400483183792
 31
0.0
  0
LINE
  5
688
  8
0
 10
49.171297047086078
 20
65.75500560560522
 30
0.0
 11
62.171296498638782
 21
65.75500560560522
 31
0.0
  0
LINE
  5
6AA
  8
0
 10
49.171297047086078
 20
62.136005611205178
 30
0.0
 11
62.171297047086462
 21
62.136005611205178
 31
0.0
  0
LINE
  5
6AF
  8
0
 10
49.171297047086078
 20
50.636005611205121
 30
0.0
 11
49.171297047086078
 21
62.136005611205178
 31
0.0
  0
LINE
  5
6B0
  8
0
 10
49.171297047086107
 20
50.636005611205121
 30
0.0
 11
62.171297047086462
 21
50.636005611205121
 31
0.0
  0
LINE
  5
6B1
  8
0
 10
62.171297047086462
 20
62.136005611205192
 30
0.0
 11
62.171297047086462
 21
50.636005611205121
 31
0.0
  0
ARC
  5
6B4
  8
0
 10
58.846388938669833
 20
41.49669309472651
 30
0.0
 40
20.639448451389871
 50
80.729551159907231
 51
89.792052200613568
  0
ARC
  5
6B5
  8
0
 10
58.995733955885377
 20
41.502376788305611
 30
0.0
 40
20.633763090008149
 50
90.206696662477569
 51
99.271699977004403
  0
ARC
  5
6B6
  8
0
 10
58.846860138287518
 20
71.269634434103963
 30
0.0
 40
20.633763090007431
 50
270.20669666247602
 51
279.27169997700361
  0
ARC
  5
6B8
  8
0
 10
58.996205155501961
 20
71.27531812767549
 30
0.0
 40
20.639448451381568
 50
260.72955115990482
 51
269.79205220061442
  0
LINE
  5
6B9
  8
0
 10
55.671297047086092
 20
50.905442859333093
 30
0.0
 11
55.671297047086092
 21
61.866568363077207
 31
0.0
  0
ARC
  5
6BA
  8
0
 10
52.346388938669833
 20
41.496693094726773
 30
0.0
 40
20.639448451389601
 50
80.729551159907231
 51
89.792052200613568
  0
ARC
  5
6BB
  8
0
 10
52.495733955885377
 20
41.502376788305341
 30
0.0
 40
20.63376309000844
 50
90.206696662477569
 51
99.271699977004403
  0
ARC
  5
6BD
  8
0
 10
52.496205155501968
 20
71.275318127675305
 30
0.0
 40
20.639448451381391
 50
260.72955115990482
 51
269.79205220061442
  0
ARC
  5
6BE
  8
0
 10
52.346860138287532
 20
71.269634434100624
 30
0.0
 40
20.633763090004098
 50
270.20669666247602
 51
279.2716999770044
  0
ARC
  5
6C1
  8
0
 10
53.540229740860269
 20
65.841214127984955
 30
0.0
 40
1.2031354563114649
 50
138.3725470620241
 51
165.81702224541669
  0
ARC
  5
6C2
  8
0
 10
57.806274581791229
 20
65.840620381084648
 30
0.0
 40
1.2034234815813529
 50
14.208671055843141
 51
41.610529711340497
  0
ARC
  5
6C3
  8
0
 10
55.619334718370681
 20
66.160377778404552
 30
0.0
 40
1.213250547394499
 50
358.84894626426808
 51
31.79242399336578
  0
ARC
  5
6C4
  8
0
 10
55.730321256027047
 20
66.160793387103695
 30
0.0
 40
1.2155346609807809
 50
148.2904057510487
 51
181.16848475193851
  0
POLYLINE
  5
6C5
  8
0
 66
     1
 10
0.0
 20
0.0
 30
0.0
 70
   128
  0
VERTEX
  5
9E3
  8
0
 10
61.717467152860138
 20
66.136005605605249
 30
0.0
  0
VERTEX
  5
9E4
  8
0
 10
61.845684388337823
 20
66.121685099493732
 30
0.0
  0
VERTEX
  5
9E5
  8
0
 10
61.974214030525268
 20
66.073994726818853
 30
0.0
  0
VERTEX
  5
9E6
  8
0
 10
62.069848665781649
 20
66.004982716366442
 30
0.0
  0
VERTEX
  5
9E7
  8
0
 10
62.106218485712418
 20
65.964646621784766
 30
0.0
  0
VERTEX
  5
9E8
  8
0
 10
62.12131004138115
 20
65.94365759677936
 30
0.0
  0
VERTEX
  5
9E9
  8
0
 10
62.120953780553982
 20
65.944165710657728
 30
0.0
  0
SEQEND
  5
9EA
  8
0
  0
LINE
  5
6C6
  8
0
 10
61.683870719847732
 20
66.136005605605234
 30
0.0
 11
61.717467152860507
 21
66.136005605605234
 31
0.0
  0
POLYLINE
  5
6C7
  8
0
 66
     1
 10
0.0
 20
0.0
 30
0.0
 70
   128
  0
VERTEX
  5
9EB
  8
0
 10
60.897021659490342
 20
66.136005605605249
 30
0.0
  0
VERTEX
  5
9EC
  8
0
 10
61.080216745386281
 20
66.121685099493845
 30
0.0
  0
VERTEX
  5
9ED
  8
0
 10
61.28187623846685
 20
66.073994726818853
 30
0.0
  0
VERTEX
  5
9EE
  8
0
 10
61.46048462519326
 20
66.004982716366442
 30
0.0
  0
VERTEX
  5
9EF
  8
0
 10
61.551752199422083
 20
65.964646621784652
 30
0.0
  0
VERTEX
  5
9F0
  8
0
 10
61.628050701168881
 20
65.94365759677936
 30
0.0
  0
VERTEX
  5
9F1
  8
0
 10
61.670988607758829
 20
65.954858487805893
 30
0.0
  0
VERTEX
  5
9F2
  8
0
 10
61.698343771569448
 20
65.985455519091545
 30
0.0
  0
VERTEX
  5
9F3
  8
0
 10
61.712640336000327
 20
66.052691686388073
 30
0.0
  0
VERTEX
  5
9F4
  8
0
 10
61.702921669756108
 20
66.075148605286074
 30
0.0
  0
SEQEND
  5
9F5
  8
0
  0
LINE
  5
6C8
  8
0
 10
60.6151269317591
 20
66.136005605605234
 30
0.0
 11
60.897021659490548
 21
66.136005605605234
 31
0.0
  0
POLYLINE
  5
6C9
  8
0
 66
     1
 10
0.0
 20
0.0
 30
0.0
 70
   128
  0
VERTEX
  5
9F6
  8
0
 10
59.281006965193292
 20
66.136005605605249
 30
0.0
  0
VERTEX
  5
9F7
  8
0
 10
59.49129011034762
 20
66.121685099493732
 30
0.0
  0
VERTEX
  5
9F8
  8
0
 10
59.735378624548559
 20
66.073994726818853
 30
0.0
  0
VERTEX
  5
9F9
  8
0
 10
59.969769254953967
 20
66.004982716366442
 30
0.0
  0
VERTEX
  5
9FA
  8
0
 10
60.102039922647741
 20
65.964646621784652
 30
0.0
  0
VERTEX
  5
9FB
  8
0
 10
60.227929615228327
 20
65.94365759677936
 30
0.0
  0
VERTEX
  5
9FC
  8
0
 10
60.315121955160123
 20
65.954858487805893
 30
0.0
  0
VERTEX
  5
9FD
  8
0
 10
60.390558651554841
 20
65.985455519091545
 30
0.0
  0
VERTEX
  5
9FE
  8
0
 10
60.49597122604888
 20
66.052691686388187
 30
0.0
  0
VERTEX
  5
9FF
  8
0
 10
60.569067583781873
 20
66.108867216800547
 30
0.0
  0
VERTEX
  5
A00
  8
0
 10
60.61512693175888
 20
66.136005605605249
 30
0.0
  0
SEQEND
  5
A01
  8
0
  0
LINE
  5
6CA
  8
0
 10
58.858978029279477
 20
66.136005605605234
 30
0.0
 11
59.281006965193292
 21
66.136005605605234
 31
0.0
  0
ARC
  5
6CB
  8
0
 10
57.987212343622957
 20
69.193024972881915
 30
0.0
 40
3.1788901872498951
 50
254.08351838225309
 51
285.91648161774691
  0
LINE
  5
6CC
  8
0
 10
56.617533593661129
 20
66.136005605605234
 30
0.0
 11
57.115446657966061
 21
66.136005605605234
 31
0.0
  0
ARC
  5
6CD
  8
0
 10
55.67378062869625
 20
69.72495012075926
 30
0.0
 40
3.710955724841575
 50
255.2669804030995
 51
284.73301959690048
  0
LINE
  5
6CE
  8
0
 10
54.232033221482311
 20
66.136005605605234
 30
0.0
 11
54.730027663731363
 21
66.136005605605234
 31
0.0
  0
ARC
  5
6CF
  8
0
 10
53.359970810983327
 20
69.04556996463819
 30
0.0
 40
3.0374426096900069
 50
253.31533449025389
 51
286.68466550974608
  0
LINE
  5
6D0
  8
0
 10
52.06564771979248
 20
66.136005605605234
 30
0.0
 11
52.487908400484322
 21
66.136005605605234
 31
0.0
  0
POLYLINE
  5
6D1
  8
0
 66
     1
 10
0.0
 20
0.0
 30
0.0
 70
   128
  0
VERTEX
  5
A02
  8
0
 10
50.730431201192509
 20
66.136005605605249
 30
0.0
  0
VERTEX
  5
A03
  8
0
 10
50.759387793004002
 20
66.121685099493732
 30
0.0
  0
VERTEX
  5
A04
  8
0
 10
50.821707944056982
 20
66.073994726818853
 30
0.0
  0
VERTEX
  5
A05
  8
0
 10
50.92085077625012
 20
66.004982716366442
 30
0.0
  0
VERTEX
  5
A06
  8
0
 10
51.001686751336869
 20
65.964646621784652
 30
0.0
  0
VERTEX
  5
A07
  8
0
 10
51.106233761213453
 20
65.94365759677936
 30
0.0
  0
VERTEX
  5
A08
  8
0
 10
51.204532533731772
 20
65.954858487805893
 30
0.0
  0
VERTEX
  5
A09
  8
0
 10
51.31517034140149
 20
65.985455519091545
 30
0.0
  0
VERTEX
  5
A0A
  8
0
 10
51.532300085168629
 20
66.052691686388073
 30
0.0
  0
VERTEX
  5
A0B
  8
0
 10
51.772298133035349
 20
66.108867216800547
 30
0.0
  0
VERTEX
  5
A0C
  8
0
 10
52.065647719792253
 20
66.136005605605249
 30
0.0
  0
SEQEND
  5
A0D
  8
0
  0
LINE
  5
6D2
  8
0
 10
50.448189642890718
 20
66.136005605605234
 30
0.0
 11
50.730431201192552
 21
66.136005605605234
 31
0.0
  0
POLYLINE
  5
6D3
  8
0
 66
     1
 10
0.0
 20
0.0
 30
0.0
 70
   128
  0
VERTEX
  5
A0E
  8
0
 10
49.638102950294119
 20
66.07732033155861
 30
0.0
  0
VERTEX
  5
A0F
  8
0
 10
49.635604246232617
 20
66.073994726818853
 30
0.0
  0
VERTEX
  5
A10
  8
0
 10
49.63750286873352
 20
66.004982716366442
 30
0.0
  0
VERTEX
  5
A11
  8
0
 10
49.661567778492611
 20
65.964646621784652
 30
0.0
  0
VERTEX
  5
A12
  8
0
 10
49.70998072144635
 20
65.94365759677936
 30
0.0
  0
VERTEX
  5
A13
  8
0
 10
49.76742988152597
 20
65.954858487805893
 30
0.0
  0
VERTEX
  5
A14
  8
0
 10
49.840777513651631
 20
65.985455519091545
 30
0.0
  0
VERTEX
  5
A15
  8
0
 10
50.001039593995358
 20
66.052691686388073
 30
0.0
  0
VERTEX
  5
A16
  8
0
 10
50.194796113191451
 20
66.108867216800547
 30
0.0
  0
VERTEX
  5
A17
  8
0
 10
50.448189642890668
 20
66.136005605605249
 30
0.0
  0
SEQEND
  5
A18
  8
0
  0
LINE
  5
6D4
  8
0
 10
49.625902320691146
 20
66.136005605605234
 30
0.0
 11
49.657178838069733
 21
66.136005605605234
 31
0.0
  0
ARC
  5
6D5
  8
0
 10
49.600552869289572
 20
65.667555715647467
 30
0.0
 40
0.4691352620382853
 50
86.902547302074566
 51
143.8696335306885
  0
LINE
  5
6D6
  8
0
 10
49.171297047086078
 20
64.536005605605226
 30
0.0
 11
62.171296498638782
 21
64.536005605605226
 31
0.0
  0
LINE
  5
71B
  8
0
 10
59.671297047086291
 20
62.136005611205178
 30
0.0
 11
59.671297047086291
 21
62.895795360762428
 31
0.0
  0
LINE
  5
71C
  8
0
 10
51.671297047086249
 20
62.895795360762428
 30
0.0
 11
51.671297047086249
 21
62.136005611205178
 31
0.0
  0
ARC
  5
71D
  8
0
 10
59.92529704708641
 20
62.895795360762428
 30
0.0
 40
0.2540000000000104
 50
134.9999999999971
 51
180.0
  0
ARC
  5
71E
  8
0
 10
51.41729704708613
 20
62.895795360762428
 30
0.0
 40
0.2539999999999959
 50
0.0
 51
45.000000000007773
  0
LINE
  5
71F
  8
0
 10
50.172262347720391
 20
64.536005605605226
 30
0.0
 11
50.17129704708622
 21
64.501005605605229
 31
0.0
  0
LINE
  5
720
  8
0
 10
61.171297047086277
 20
64.501005605605229
 30
0.0
 11
61.170331746452121
 21
64.536005605605226
 31
0.0
  0
LINE
  5
721
  8
0
 10
59.745691924665032
 20
63.075400483183792
 30
0.0
 11
61.171297047086277
 21
64.501005605605229
 31
0.0
  0
LINE
  5
722
  8
0
 10
50.17129704708622
 20
64.501005605605229
 30
0.0
 11
51.596902169507473
 21
63.075400483183792
 31
0.0
  0
ARC
  5
723
  8
0
 10
57.549364829770013
 20
65.548505605605186
 30
0.0
 40
1.5875000000000099
 50
89.932705014770406
 51
119.0323783928993
  0
LINE
  5
724
  8
0
 10
53.791364858828842
 20
67.136004510764806
 30
0.0
 11
53.607405683816289
 21
67.125527404943256
 31
0.0
  0
POLYLINE
  5
725
  8
0
 66
     1
 10
0.0
 20
0.0
 30
0.0
 70
   128
  0
VERTEX
  5
A19
  8
0
 10
59.144958585790903
 20
67.136004964480037
 30
0.0
  0
VERTEX
  5
A1A
  8
0
 10
59.077623420848397
 20
67.134636851378048
 30
0.0
  0
VERTEX
  5
A1B
  8
0
 10
58.994914315163498
 20
67.12903370658961
 30
0.0
  0
SEQEND
  5
A1C
  8
0
  0
ARC
  5
726
  8
0
 10
52.19620831216946
 20
65.548505605605186
 30
0.0
 40
1.587500000000017
 50
89.948484728801347
 51
109.5843431453456
  0
POLYLINE
  5
727
  8
0
 66
     1
 10
0.0
 20
0.0
 30
0.0
 70
   128
  0
VERTEX
  5
A1D
  8
0
 10
57.916358690647989
 20
67.136005338984603
 30
0.0
  0
VERTEX
  5
A1E
  8
0
 10
57.802782409139191
 20
67.132003261734042
 30
0.0
  0
VERTEX
  5
A1F
  8
0
 10
57.732401727523268
 20
67.125418331173975
 30
0.0
  0
SEQEND
  5
A20
  8
0
  0
ARC
  5
728
  8
0
 10
53.425310943603307
 20
65.548505605605186
 30
0.0
 40
1.587500000000007
 50
89.966745587365466
 51
107.0138413576778
  0
ARC
  5
729
  8
0
 10
60.209082599472652
 20
65.548505605605186
 30
0.0
 40
1.587500000000027
 50
89.972158816779256
 51
109.609425231592
  0
LINE
  5
72A
  8
0
 10
51.132739234161789
 20
67.136005417759606
 30
0.0
 11
50.945382210015033
 21
67.125002475774409
 31
0.0
  0
ARC
  5
72B
  8
0
 10
60.583796632586541
 20
65.548505605605186
 30
0.0
 40
1.587500000000017
 50
14.44141510041276
 51
96.777854581523314
  0
ARC
  5
72C
  8
0
 10
50.758797461585971
 20
65.548505605605186
 30
0.0
 40
1.587500000000027
 50
83.250213339032769
 51
165.54893911593999
  0
ARC
  5
72D
  8
0
 10
58.846296779190901
 20
65.548505605605186
 30
0.0
 40
1.587500000000015
 50
84.628255126923719
 51
107.0486542168199
  0
ARC
  5
72E
  8
0
 10
52.496297314981973
 20
65.548505605605186
 30
0.0
 40
1.5875000000000199
 50
72.986158642322181
 51
95.423476049893935
  0
ARC
  5
72F
  8
0
 10
55.671297047086448
 20
63.96100560560518
 30
0.0
 40
3.1750000000000171
 50
69.582059513799109
 51
110.4609262897343
  0
ARC
  5
730
  8
0
 10
60.210627135727719
 20
65.548505605605186
 30
0.0
 40
1.5875000000000179
 50
19.436414462423478
 51
109.6390165995723
  0
ARC
  5
731
  8
0
 10
51.13351149469986
 20
65.548505605605186
 30
0.0
 40
1.587500000000005
 50
70.445238172239925
 51
160.52429951687219
  0
ARC
  5
732
  8
0
 10
57.917283150569233
 20
65.548505605605186
 30
0.0
 40
1.5874999999999959
 50
67.280495818186481
 51
96.654372352387668
  0
ARC
  5
733
  8
0
 10
53.42715546889621
 20
65.548505605605186
 30
0.0
 40
1.587500000000025
 50
83.446875900109205
 51
112.8114554607421
  0
ARC
  5
734
  8
0
 10
55.672601323429149
 20
65.548505605605186
 30
0.0
 40
1.587500000000019
 50
90.059939373604792
 51
126.3774918645946
  0
ARC
  5
735
  8
0
 10
59.14638578200308
 20
65.548505605605186
 30
0.0
 40
1.587500000000019
 50
21.720473473414529
 51
120.19859316192429
  0
ARC
  5
736
  8
0
 10
52.199062243036131
 20
65.548505605605186
 30
0.0
 40
1.587500000000003
 50
59.938756369503523
 51
158.279526526588
  0
ARC
  5
737
  8
0
 10
53.79322926440252
 20
65.548505605605186
 30
0.0
 40
1.5875000000000259
 50
53.780390841939379
 51
136.5412936440284
  0
ARC
  5
738
  8
0
 10
57.55309367014501
 20
65.548505605605186
 30
0.0
 40
1.5875000000000019
 50
43.425493966033301
 51
126.39349149564531
  0
ARC
  5
739
  8
0
 10
55.673315080955199
 20
65.548505605605186
 30
0.0
 40
1.5875000000000281
 50
52.005754810390357
 51
127.98693206245819
  0
ARC
  5
73A
  8
0
 10
61.790297047086433
 20
65.75500560560522
 30
0.0
 40
0.3809999999999939
 50
0.0
 51
29.744119664497848
  0
ARC
  5
73B
  8
0
 10
49.552297047086078
 20
65.75500560560522
 30
0.0
 40
0.381000000000003
 50
150.24401940704789
 51
180.0
  0
LINE
  5
73C
  8
0
 10
62.171297047086462
 20
64.536005605605226
 30
0.0
 11
62.171297047086462
 21
65.75500560560522
 31
0.0
  0
LINE
  5
73D
  8
0
 10
49.171297047086078
 20
65.75500560560522
 30
0.0
 11
49.171297047086078
 21
64.536005605605226
 31
0.0
  0
LINE
  5
740
  8
0
 10
20.00707585343784
 20
62.895795360762428
 30
0.0
 11
12.007076190944019
 21
62.895795360762428
 31
0.0
  0
LINE
  5
741
  8
0
 10
11.93268131336526
 20
63.075400483183792
 30
0.0
 11
20.08147072473923
 21
63.075400483183792
 31
0.0
  0
LINE
  5
742
  8
0
 10
9.5070761909438488
 20
65.75500560560522
 30
0.0
 11
22.507076190944218
 21
65.75500560560522
 31
0.0
  0
LINE
  5
744
  8
0
 10
9.5070761909438488
 20
62.136005611205178
 30
0.0
 11
22.507076190943849
 21
62.136005611205171
 31
0.0
  0
LINE
  5
746
  8
0
 10
9.5070761909438488
 20
50.636005611205121
 30
0.0
 11
22.507076190943849
 21
50.636005611205121
 31
0.0
  0
ARC
  5
76C
  8
0
 10
10.327106036814
 20
55.11379594290959
 30
0.0
 40
7.0223934507067787
 50
74.071629062297959
 51
89.585477631717339
  0
ARC
  5
76D
  8
0
 10
10.428396513510901
 20
55.116021546977699
 30
0.0
 40
7.0201655993561278
 50
90.412045548229656
 51
105.9308477577555
  0
LINE
  5
76E
  8
0
 10
8.5015226914788684
 20
50.905442859333093
 30
0.0
 11
8.5015226914788684
 21
61.866568363077207
 31
0.0
  0
ARC
  5
76F
  8
0
 10
10.428716095876609
 20
57.658215279504503
 30
0.0
 40
7.0223934507105668
 50
254.07162906230309
 51
269.58547763171572
  0
ARC
  5
771
  8
0
 10
10.32742561917896
 20
57.655989675435293
 30
0.0
 40
7.020165599358859
 50
270.41204554823207
 51
285.93084775775122
  0
ARC
  5
772
  8
0
 10
15.922468961070869
 20
34.68814167065387
 30
0.0
 40
27.44799433988506
 50
81.963401286908393
 51
89.823388011353515
  0
ARC
  5
773
  8
0
 10
16.15541832329205
 20
33.800428996119997
 30
0.0
 40
28.335964912061669
 50
90.299951561818503
 51
97.913259139921138
  0
LINE
  5
774
  8
0
 10
12.254299441211369
 20
50.905442859333093
 30
0.0
 11
12.254299441211369
 21
61.866568363077207
 31
0.0
  0
ARC
  5
775
  8
0
 10
16.155576433444221
 20
78.973784416624653
 30
0.0
 40
28.33816790032321
 50
262.08703722267228
 51
269.6997520755923
  0
ARC
  5
777
  8
0
 10
15.92300117173707
 20
78.076456813437943
 30
0.0
 40
27.440580000994409
 50
270.17554845049432
 51
278.03766225124309
  0
LINE
  5
778
  8
0
 10
23.512629690409199
 20
50.905442859333093
 30
0.0
 11
23.512629690409199
 21
61.866568363077207
 31
0.0
  0
ARC
  5
779
  8
0
 10
21.585436286011831
 20
55.11379594291121
 30
0.0
 40
7.0223934507051711
 50
74.071629062296282
 51
89.585477631719783
  0
ARC
  5
77A
  8
0
 10
21.686726762708389
 20
55.11602154697762
 30
0.0
 40
7.0201655993562193
 50
90.412045548230481
 51
105.9308477577555
  0
LINE
  5
77B
  8
0
 10
19.759852940676691
 20
50.905442859333093
 30
0.0
 11
19.759852940676691
 21
61.866568363077207
 31
0.0
  0
ARC
  5
77C
  8
0
 10
21.687046345074432
 20
57.658215279504503
 30
0.0
 40
7.0223934507105694
 50
254.07162906230309
 51
269.58547763171492
  0
ARC
  5
77D
  8
0
 10
21.58575586837679
 20
57.655989675435478
 30
0.0
 40
7.020165599358994
 50
270.41204554823128
 51
285.93084775775122
  0
ARC
  5
77F
  8
0
 10
13.87600888471769
 20
65.841214127985126
 30
0.0
 40
1.2031354563111809
 50
138.37254706202049
 51
165.8170222454186
  0
ARC
  5
780
  8
0
 10
18.142053725649362
 20
65.840620381084904
 30
0.0
 40
1.2034234815809699
 50
14.208671055833671
 51
41.610529711339488
  0
ARC
  5
781
  8
0
 10
15.955113862229179
 20
66.160377778404722
 30
0.0
 40
1.213250547393657
 50
358.84894626425898
 51
31.792423993378989
  0
ARC
  5
782
  8
0
 10
16.066100399884469
 20
66.16079338710378
 30
0.0
 40
1.2155346609803661
 50
148.29040575104261
 51
181.16848475194499
  0
POLYLINE
  5
783
  8
0
 66
     1
 10
0.0
 20
0.0
 30
0.0
 70
   128
  0
VERTEX
  5
A21
  8
0
 10
22.0532462967181
 20
66.136005605605249
 30
0.0
  0
VERTEX
  5
A22
  8
0
 10
22.181463532195782
 20
66.121685099493732
 30
0.0
  0
VERTEX
  5
A23
  8
0
 10
22.309993174382779
 20
66.073994726818853
 30
0.0
  0
VERTEX
  5
A24
  8
0
 10
22.40562780963916
 20
66.004982716366442
 30
0.0
  0
VERTEX
  5
A25
  8
0
 10
22.441997629569929
 20
65.964646621784766
 30
0.0
  0
VERTEX
  5
A26
  8
0
 10
22.457089185238662
 20
65.94365759677936
 30
0.0
  0
VERTEX
  5
A27
  8
0
 10
22.45673292441148
 20
65.944165710657728
 30
0.0
  0
SEQEND
  5
A28
  8
0
  0
LINE
  5
784
  8
0
 10
22.019649863705531
 20
66.136005605605234
 30
0.0
 11
22.053246296718271
 21
66.136005605605234
 31
0.0
  0
POLYLINE
  5
785
  8
0
 66
     1
 10
0.0
 20
0.0
 30
0.0
 70
   128
  0
VERTEX
  5
A29
  8
0
 10
21.23280080334786
 20
66.136005605605249
 30
0.0
  0
VERTEX
  5
A2A
  8
0
 10
21.41599588924425
 20
66.121685099493732
 30
0.0
  0
VERTEX
  5
A2B
  8
0
 10
21.617655382324809
 20
66.073994726818853
 30
0.0
  0
VERTEX
  5
A2C
  8
0
 10
21.796263769051219
 20
66.004982716366442
 30
0.0
  0
VERTEX
  5
A2D
  8
0
 10
21.887531343279591
 20
65.964646621784766
 30
0.0
  0
VERTEX
  5
A2E
  8
0
 10
21.9638298450264
 20
65.94365759677936
 30
0.0
  0
VERTEX
  5
A2F
  8
0
 10
22.006767751616341
 20
65.954858487805893
 30
0.0
  0
VERTEX
  5
A30
  8
0
 10
22.034122915427421
 20
65.985455519091545
 30
0.0
  0
VERTEX
  5
A31
  8
0
 10
22.0484194798583
 20
66.052691686388073
 30
0.0
  0
VERTEX
  5
A32
  8
0
 10
22.03870081361362
 20
66.075148605286074
 30
0.0
  0
SEQEND
  5
A33
  8
0
  0
LINE
  5
786
  8
0
 10
20.950906075616899
 20
66.136005605605234
 30
0.0
 11
21.23280080334797
 21
66.136005605605234
 31
0.0
  0
POLYLINE
  5
787
  8
0
 66
     1
 10
0.0
 20
0.0
 30
0.0
 70
   128
  0
VERTEX
  5
A34
  8
0
 10
19.616786109050789
 20
66.136005605605249
 30
0.0
  0
VERTEX
  5
A35
  8
0
 10
19.827069254205131
 20
66.121685099493732
 30
0.0
  0
VERTEX
  5
A36
  8
0
 10
20.071157768406518
 20
66.073994726818853
 30
0.0
  0
VERTEX
  5
A37
  8
0
 10
20.30554839881194
 20
66.004982716366442
 30
0.0
  0
VERTEX
  5
A38
  8
0
 10
20.437819066505259
 20
65.964646621784766
 30
0.0
  0
VERTEX
  5
A39
  8
0
 10
20.5637087590863
 20
65.94365759677936
 30
0.0
  0
VERTEX
  5
A3A
  8
0
 10
20.650901099018089
 20
65.954858487805893
 30
0.0
  0
VERTEX
  5
A3B
  8
0
 10
20.726337795412348
 20
65.985455519091545
 30
0.0
  0
VERTEX
  5
A3C
  8
0
 10
20.831750369906391
 20
66.052691686388073
 30
0.0
  0
VERTEX
  5
A3D
  8
0
 10
20.904846727639839
 20
66.108867216800547
 30
0.0
  0
VERTEX
  5
A3E
  8
0
 10
20.950906075616839
 20
66.136005605605249
 30
0.0
  0
SEQEND
  5
A3F
  8
0
  0
LINE
  5
788
  8
0
 10
19.194757173137251
 20
66.136005605605234
 30
0.0
 11
19.61678610905108
 21
66.136005605605234
 31
0.0
  0
ARC
  5
789
  8
0
 10
18.322991487480749
 20
69.193024972881204
 30
0.0
 40
3.178890187249225
 50
254.08351838225141
 51
285.91648161775032
  0
LINE
  5
78A
  8
0
 10
16.9533127375189
 20
66.136005605605234
 30
0.0
 11
17.451225801823849
 21
66.136005605605234
 31
0.0
  0
ARC
  5
78B
  8
0
 10
16.00955977255401
 20
69.72495012075872
 30
0.0
 40
3.7109557248409861
 50
255.2669804030979
 51
284.73301959690292
  0
LINE
  5
78C
  8
0
 10
14.56781236533973
 20
66.136005605605234
 30
0.0
 11
15.06580680758913
 21
66.136005605605234
 31
0.0
  0
ARC
  5
78D
  8
0
 10
13.695749954841091
 20
69.045569964638091
 30
0.0
 40
3.037442609689859
 50
253.31533449025389
 51
286.68466550974699
  0
LINE
  5
78E
  8
0
 10
12.40142686365024
 20
66.136005605605234
 30
0.0
 11
12.82368754434208
 21
66.136005605605234
 31
0.0
  0
POLYLINE
  5
78F
  8
0
 66
     1
 10
0.0
 20
0.0
 30
0.0
 70
   128
  0
VERTEX
  5
A40
  8
0
 10
11.06621034505002
 20
66.136005605605249
 30
0.0
  0
VERTEX
  5
A41
  8
0
 10
11.095166936861521
 20
66.121685099493732
 30
0.0
  0
VERTEX
  5
A42
  8
0
 10
11.157487087914941
 20
66.073994726818853
 30
0.0
  0
VERTEX
  5
A43
  8
0
 10
11.256629920108081
 20
66.004982716366442
 30
0.0
  0
VERTEX
  5
A44
  8
0
 10
11.337465895194841
 20
65.964646621784766
 30
0.0
  0
VERTEX
  5
A45
  8
0
 10
11.44201290507141
 20
65.94365759677936
 30
0.0
  0
VERTEX
  5
A46
  8
0
 10
11.540311677589269
 20
65.954858487805893
 30
0.0
  0
VERTEX
  5
A47
  8
0
 10
11.65094948525944
 20
65.985455519091545
 30
0.0
  0
VERTEX
  5
A48
  8
0
 10
11.86807922902659
 20
66.052691686388073
 30
0.0
  0
VERTEX
  5
A49
  8
0
 10
12.10807727689285
 20
66.108867216800547
 30
0.0
  0
VERTEX
  5
A4A
  8
0
 10
12.40142686365021
 20
66.136005605605249
 30
0.0
  0
SEQEND
  5
A4B
  8
0
  0
LINE
  5
790
  8
0
 10
10.783968786748151
 20
66.136005605605234
 30
0.0
 11
11.06621034505031
 21
66.136005605605234
 31
0.0
  0
POLYLINE
  5
791
  8
0
 66
     1
 10
0.0
 20
0.0
 30
0.0
 70
   128
  0
VERTEX
  5
A4C
  8
0
 10
9.9738820941516337
 20
66.07732033155861
 30
0.0
  0
VERTEX
  5
A4D
  8
0
 10
9.9713833900905797
 20
66.073994726818853
 30
0.0
  0
VERTEX
  5
A4E
  8
0
 10
9.9732820125910262
 20
66.004982716366442
 30
0.0
  0
VERTEX
  5
A4F
  8
0
 10
9.9973469223505731
 20
65.964646621784766
 30
0.0
  0
VERTEX
  5
A50
  8
0
 10
10.045759865304319
 20
65.94365759677936
 30
0.0
  0
VERTEX
  5
A51
  8
0
 10
10.10320902538348
 20
65.954858487805893
 30
0.0
  0
VERTEX
  5
A52
  8
0
 10
10.17655665750914
 20
65.985455519091545
 30
0.0
  0
VERTEX
  5
A53
  8
0
 10
10.336818737853321
 20
66.052691686388073
 30
0.0
  0
VERTEX
  5
A54
  8
0
 10
10.53057525704895
 20
66.108867216800547
 30
0.0
  0
VERTEX
  5
A55
  8
0
 10
10.783968786747719
 20
66.136005605605249
 30
0.0
  0
SEQEND
  5
A56
  8
0
  0
LINE
  5
792
  8
0
 10
9.9616814645489171
 20
66.136005605605234
 30
0.0
 11
9.9929579819275034
 21
66.136005605605234
 31
0.0
  0
ARC
  5
793
  8
0
 10
9.9363320131469948
 20
65.667555715647836
 30
0.0
 40
0.4691352620379158
 50
86.902547302050095
 51
143.86963353070939
  0
LINE
  5
794
  8
0
 10
9.5070761909438488
 20
64.536005605605226
 30
0.0
 11
22.507076190943849
 21
64.536005605605226
 31
0.0
  0
LINE
  5
7A5
  8
0
 10
23.512629690409199
 20
61.866568363077207
 30
0.0
 11
22.507076190943849
 21
62.136005611205178
 31
0.0
  0
LINE
  5
7A6
  8
0
 10
9.5070761909438488
 20
62.136005611205178
 30
0.0
 11
8.5015226914788684
 21
61.866568363077207
 31
0.0
  0
LINE
  5
7A7
  8
0
 10
22.507076190943849
 20
50.636005611205121
 30
0.0
 11
23.512629690409199
 21
50.905442859333093
 31
0.0
  0
LINE
  5
7A8
  8
0
 10
8.5015226914788684
 20
50.905442859333093
 30
0.0
 11
9.5070761909438488
 21
50.636005611205121
 31
0.0
  0
LINE
  5
7DD
  8
0
 10
20.007076190944051
 20
62.136005611205178
 30
0.0
 11
20.007076190944051
 21
62.895795360762428
 31
0.0
  0
LINE
  5
7DE
  8
0
 10
12.007076190944019
 20
62.895795360762428
 30
0.0
 11
12.007076190944019
 21
62.136005611205178
 31
0.0
  0
ARC
  5
7DF
  8
0
 10
20.261076190944181
 20
62.895795360762428
 30
0.0
 40
0.2540000000000072
 50
135.0000000000006
 51
180.0000000000008
  0
ARC
  5
7E0
  8
0
 10
11.753076190943879
 20
62.895795360762428
 30
0.0
 40
0.2539999999999944
 50
0.0
 51
44.999999999999709
  0
LINE
  5
7E1
  8
0
 10
10.508041491578179
 20
64.536005605605226
 30
0.0
 11
10.507076190943989
 21
64.501005605605229
 31
0.0
  0
LINE
  5
7E2
  8
0
 10
21.50707619094408
 20
64.501005605605229
 30
0.0
 11
21.506110890309909
 21
64.536005605605226
 31
0.0
  0
LINE
  5
7E3
  8
0
 10
20.081471068522461
 20
63.075400483183792
 30
0.0
 11
21.50707619094408
 21
64.501005605605229
 31
0.0
  0
LINE
  5
7E4
  8
0
 10
10.507076190943989
 20
64.501005605605229
 30
0.0
 11
11.93268131336526
 21
63.075400483183792
 31
0.0
  0
ARC
  5
7E5
  8
0
 10
17.88514397362777
 20
65.548505605605186
 30
0.0
 40
1.5874999999999959
 50
89.932714164613515
 51
119.0323783929002
  0
LINE
  5
7E6
  8
0
 10
14.12714394955935
 20
67.136004510827149
 30
0.0
 11
13.943184827673351
 21
67.12552740494317
 31
0.0
  0
POLYLINE
  5
7E7
  8
0
 66
     1
 10
0.0
 20
0.0
 30
0.0
 70
   128
  0
VERTEX
  5
A57
  8
0
 10
19.480737966207979
 20
67.136004964267443
 30
0.0
  0
VERTEX
  5
A58
  8
0
 10
19.413402564706359
 20
67.134636851378048
 30
0.0
  0
VERTEX
  5
A59
  8
0
 10
19.330693459021909
 20
67.129033706589723
 30
0.0
  0
SEQEND
  5
A5A
  8
0
  0
ARC
  5
7E8
  8
0
 10
12.53198745602722
 20
65.548505605605186
 30
0.0
 40
1.5875000000000219
 50
89.948498936494033
 51
109.5843431453448
  0
POLYLINE
  5
7E9
  8
0
 66
     1
 10
0.0
 20
0.0
 30
0.0
 70
   128
  0
VERTEX
  5
A5B
  8
0
 10
18.252142229027012
 20
67.136005336431538
 30
0.0
  0
VERTEX
  5
A5C
  8
0
 10
18.138561552996691
 20
67.132003261734042
 30
0.0
  0
VERTEX
  5
A5D
  8
0
 10
18.068180871380768
 20
67.125418331173975
 30
0.0
  0
SEQEND
  5
A5E
  8
0
  0
ARC
  5
7EA
  8
0
 10
13.761090087461071
 20
65.548505605605186
 30
0.0
 40
1.587500000000007
 50
89.966682117273805
 51
107.0138413576778
  0
ARC
  5
7EB
  8
0
 10
20.54486174333007
 20
65.548505605605186
 30
0.0
 40
1.5875000000000119
 50
89.971991893845214
 51
109.60942523159279
  0
LINE
  5
7EC
  8
0
 10
11.468519240063751
 20
67.136005417339987
 30
0.0
 11
11.281161353873159
 21
67.125002475774409
 31
0.0
  0
ARC
  5
7ED
  8
0
 10
20.919575776444329
 20
65.548505605605186
 30
0.0
 40
1.5875000000000039
 50
14.441415100411181
 51
96.777854581516806
  0
ARC
  5
7EE
  8
0
 10
11.094576605443731
 20
65.548505605605186
 30
0.0
 40
1.587499999999995
 50
83.250213339027852
 51
165.5489391159397
  0
ARC
  5
7EF
  8
0
 10
19.18207592304833
 20
65.548505605605186
 30
0.0
 40
1.5875000000000159
 50
84.628255126904904
 51
107.0486542168199
  0
ARC
  5
7F0
  8
0
 10
12.83207645883939
 20
65.548505605605186
 30
0.0
 40
1.5875000000000139
 50
72.986158642322181
 51
95.423476049906213
  0
ARC
  5
7F1
  8
0
 10
16.007076190943849
 20
63.96100560560518
 30
0.0
 40
3.1750000000000131
 50
69.582059513798271
 51
110.4609262897343
  0
ARC
  5
7F2
  8
0
 10
20.546406279585479
 20
65.548505605605186
 30
0.0
 40
1.587500000000003
 50
19.43641446242167
 51
109.63901659957151
  0
ARC
  5
7F3
  8
0
 10
11.46929063855765
 20
65.548505605605186
 30
0.0
 40
1.5875000000000039
 50
70.445238172239925
 51
160.52429951687219
  0
ARC
  5
7F4
  8
0
 10
18.253062294427
 20
65.548505605605186
 30
0.0
 40
1.5874999999999919
 50
67.280495818185727
 51
96.654372352373755
  0
ARC
  5
7F5
  8
0
 10
13.762934612754011
 20
65.548505605605186
 30
0.0
 40
1.5875000000000059
 50
83.446875900164116
 51
112.8114554607439
  0
ARC
  5
7F6
  8
0
 10
16.008380467286539
 20
65.548505605605186
 30
0.0
 40
1.587500000000007
 50
90.059942239394999
 51
126.37749186459639
  0
ARC
  5
7F7
  8
0
 10
19.482164925860499
 20
65.548505605605186
 30
0.0
 40
1.587500000000007
 50
21.720473473412529
 51
120.1985931619227
  0
ARC
  5
7F8
  8
0
 10
12.53484138689393
 20
65.548505605605186
 30
0.0
 40
1.5875000000000059
 50
59.938756369503629
 51
158.279526526588
  0
ARC
  5
7F9
  8
0
 10
14.129008408259949
 20
65.548505605605186
 30
0.0
 40
1.587500000000003
 50
53.780390841938477
 51
136.54129364402959
  0
ARC
  5
7FA
  8
0
 10
17.888872814002809
 20
65.548505605605186
 30
0.0
 40
1.587500000000011
 50
43.42549396603286
 51
126.3934914956472
  0
ARC
  5
7FB
  8
0
 10
16.009094224812969
 20
65.548505605605186
 30
0.0
 40
1.587499999999991
 50
52.005754810389227
 51
127.98693206245819
  0
ARC
  5
7FC
  8
0
 10
22.126076190943849
 20
65.75500560560522
 30
0.0
 40
0.3810000000000052
 50
0.0
 51
29.74411966449621
  0
ARC
  5
7FD
  8
0
 10
9.8880761909438775
 20
65.75500560560522
 30
0.0
 40
0.3810000000000052
 50
150.24401940704789
 51
180.0000000000008
  0
LINE
  5
7FE
  8
0
 10
22.507076190943849
 20
64.536005605605226
 30
0.0
 11
22.507076190944218
 21
65.75500560560522
 31
0.0
  0
LINE
  5
7FF
  8
0
 10
9.5070761909438488
 20
65.75500560560522
 30
0.0
 11
9.5070761909438488
 21
64.536005605605226
 31
0.0
  0
LINE
  5
801
  8
0
 10
19.759852940676691
 20
90.538675229198034
 30
0.0
 11
12.254299441211399
 21
90.538675229198034
 31
0.0
  0
LINE
  5
803
  8
0
 10
19.759852940676691
 20
103.53867522919811
 30
0.0
 11
23.512629690409231
 21
97.038675229198091
 31
0.0
  0
LINE
  5
804
  8
0
 10
8.5015226914788684
 20
97.038675229198034
 30
0.0
 11
12.254299441211341
 21
103.53867522919811
 31
0.0
  0
LINE
  5
806
  8
0
 10
23.512629690409199
 20
97.038675229198034
 30
0.0
 11
19.759852940676659
 21
90.538675229198034
 31
0.0
  0
LINE
  5
808
  8
0
 10
12.254299441211369
 20
90.538675229198034
 30
0.0
 11
8.5015226914788968
 21
97.038675229198049
 31
0.0
  0
LINE
  5
80A
  8
0
 10
12.254299441211369
 20
103.53867522919811
 30
0.0
 11
19.759852940676659
 21
103.53867522919811
 31
0.0
  0
CIRCLE
  5
80C
  8
0
 10
16.007076190943849
 20
97.038675229198034
 30
0.0
 40
6.5000000000000524
  0
ARC
  5
80D
  8
0
 10
16.007076190943849
 20
97.038675229198034
 30
0.0
 40
6.1190000000000486
 50
143.8958648354654
 51
148.65120888520059
  0
ARC
  5
80E
  8
0
 10
16.007076190943849
 20
97.038675229198034
 30
0.0
 40
6.119000000000054
 50
121.3958648354659
 51
126.151208885201
  0
ARC
  5
80F
  8
0
 10
16.007076190943849
 20
97.038675229198034
 30
0.0
 40
6.1190000000000566
 50
98.895864835465545
 51
103.65120888520021
  0
ARC
  5
810
  8
0
 10
16.007076190943849
 20
97.038675229198034
 30
0.0
 40
6.1190000000000442
 50
76.395864835465233
 51
81.151208885199367
  0
ARC
  5
811
  8
0
 10
16.007076190943849
 20
97.038675229198034
 30
0.0
 40
6.1190000000000326
 50
53.895864835464799
 51
58.6512088851998
  0
ARC
  5
812
  8
0
 10
16.007076190943849
 20
97.038675229198034
 30
0.0
 40
6.1190000000000566
 50
31.395864835465041
 51
36.151208885199871
  0
ARC
  5
813
  8
0
 10
16.007076190943849
 20
97.038675229198034
 30
0.0
 40
6.1190000000000611
 50
8.8958648354649412
 51
13.651208885199789
  0
ARC
  5
814
  8
0
 10
16.007076190943849
 20
97.038675229198034
 30
0.0
 40
6.1190000000000602
 50
346.39586483546498
 51
351.15120888519982
  0
ARC
  5
815
  8
0
 10
16.007076190943849
 20
97.038675229198034
 30
0.0
 40
6.1190000000000397
 50
323.89586483546498
 51
328.65120888520011
  0
ARC
  5
816
  8
0
 10
16.007076190943849
 20
97.038675229198034
 30
0.0
 40
6.119000000000046
 50
301.39586483546498
 51
306.15120888519942
  0
ARC
  5
817
  8
0
 10
16.007076190943849
 20
97.038675229198034
 30
0.0
 40
6.1190000000000602
 50
278.89586483546469
 51
283.65120888519942
  0
ARC
  5
818
  8
0
 10
16.007076190943849
 20
97.038675229198034
 30
0.0
 40
6.1190000000000451
 50
256.3958648354652
 51
261.15120888520022
  0
ARC
  5
819
  8
0
 10
16.007076190943849
 20
97.038675229198034
 30
0.0
 40
6.1190000000000362
 50
233.8958648354656
 51
238.65120888520059
  0
ARC
  5
81A
  8
0
 10
16.007076190943849
 20
97.038675229198034
 30
0.0
 40
6.1190000000000397
 50
211.3958648354654
 51
216.15120888519999
  0
ARC
  5
81B
  8
0
 10
16.007076190943849
 20
97.038675229198034
 30
0.0
 40
6.1190000000000433
 50
188.89586483546589
 51
193.65120888519991
  0
ARC
  5
81C
  8
0
 10
16.007076190943849
 20
97.038675229198034
 30
0.0
 40
6.1190000000000442
 50
166.395864835466
 51
171.15120888539249
  0
LINE
  5
81D
  8
0
 10
12.727900565571611
 20
95.678817750918427
 30
0.0
 11
12.579891729793051
 21
94.746666789510471
 31
0.0
  0
ARC
  5
81E
  8
0
 10
11.46929063855765
 20
95.156878606139372
 30
0.0
 40
1.4747881203858351
 50
150.7437470240634
 51
162.73734727537189
  0
ARC
  5
81F
  8
0
 10
11.30810342423163
 20
95.090035086970076
 30
0.0
 40
1.3453398534615211
 50
157.97623448770949
 51
247.0708392329544
  0
ARC
  5
820
  8
0
 10
11.46929063855765
 20
95.156878606139372
 30
0.0
 40
1.474788120375268
 50
242.30972644479851
 51
254.30332669679561
  0
ARC
  5
821
  8
0
 10
12.53198745602722
 20
100.5109100332479
 30
0.0
 40
1.4747881203858171
 50
83.243747024062685
 51
95.237347275373153
  0
ARC
  5
822
  8
0
 10
12.408548420354119
 20
100.6342476941193
 30
0.0
 40
1.3453398534614831
 50
90.476234487710826
 51
179.57083923295701
  0
ARC
  5
823
  8
0
 10
12.53198745602722
 20
100.5109100332479
 30
0.0
 40
1.474788120375276
 50
174.80972644479951
 51
186.8033266967972
  0
ARC
  5
824
  8
0
 10
11.094576605443731
 20
97.036657195329212
 30
0.0
 40
1.474788120375266
 50
128.2437470240653
 51
140.23734727605779
  0
ARC
  5
825
  8
0
 10
10.9200791298505
 20
97.036585512510797
 30
0.0
 40
1.3453398534357599
 50
135.47623448733211
 51
224.57083923352531
  0
ARC
  5
826
  8
0
 10
11.094576605443731
 20
97.036657195329212
 30
0.0
 40
1.4747881203752859
 50
219.80972644480141
 51
231.80332669679589
  0
LINE
  5
827
  8
0
 10
11.96365695643644
 20
96.232662256369224
 30
0.0
 11
10.18262254400585
 21
95.877631833299915
 31
0.0
  0
LINE
  5
828
  8
0
 10
13.717884269855229
 20
93.60960883048601
 30
0.0
 11
14.64991331388052
 21
93.758383463457065
 31
0.0
  0
ARC
  5
829
  8
0
 10
14.129008408259949
 20
92.49934514055667
 30
0.0
 40
1.4747881203858491
 50
195.74374702406379
 51
207.73734727537291
  0
ARC
  5
82A
  8
0
 10
14.06229734165254
 20
92.338103062583187
 30
0.0
 40
1.3453398534614911
 50
202.97623448770969
 51
292.07083923295539
  0
ARC
  5
82B
  8
0
 10
14.129008408259949
 20
92.49934514055667
 30
0.0
 40
1.4747881203752999
 50
287.30972644479789
 51
299.30332669679348
  0
LINE
  5
82C
  8
0
 10
11.96299610784706
 20
97.8413658918153
 30
0.0
 11
11.96365695643644
 21
96.232662256369224
 31
0.0
  0
LINE
  5
82D
  8
0
 10
11.96365695643644
 20
96.232662256369224
 30
0.0
 11
12.727900565571611
 21
95.678817750918427
 31
0.0
  0
LINE
  5
82E
  8
0
 10
13.979367836491431
 20
96.197794872489709
 30
0.0
 11
12.727900565571611
 21
95.678817750918427
 31
0.0
  0
LINE
  5
82F
  8
0
 10
15.20438552832667
 20
92.994595146101034
 30
0.0
 11
14.85081850751004
 21
91.213269644864155
 31
0.0
  0
ARC
  5
830
  8
0
 10
16.009094224812969
 20
92.126175643697934
 30
0.0
 40
1.474788120385822
 50
218.24374702406379
 51
230.2373472753722
  0
ARC
  5
831
  8
0
 10
16.009165907622808
 20
91.951678168132474
 30
0.0
 40
1.3453398534615031
 50
225.47623448771
 51
314.5708392329534
  0
ARC
  5
832
  8
0
 10
16.009094224812969
 20
92.126175643697934
 30
0.0
 40
1.4747881203752911
 50
309.80972644479778
 51
321.80332669679422
  0
LINE
  5
833
  8
0
 10
14.64991331388052
 20
93.758383463457065
 30
0.0
 11
15.16786206563699
 21
95.010276699101098
 31
0.0
  0
LINE
  5
834
  8
0
 10
14.64991331388052
 20
93.758383463457065
 30
0.0
 11
15.20438552832667
 21
92.994595146101034
 31
0.0
  0
LINE
  5
835
  8
0
 10
15.20438552832667
 20
92.994595146101034
 30
0.0
 11
16.81308916377284
 21
92.995255994690439
 31
0.0
  0
LINE
  5
836
  8
0
 10
17.366933669223471
 20
93.759499603825958
 30
0.0
 11
16.847956547652359
 21
95.010966874745606
 31
0.0
  0
LINE
  5
837
  8
0
 10
13.717884269855229
 20
93.60960883048601
 30
0.0
 11
12.70954717897896
 21
92.099182900249986
 31
0.0
  0
LINE
  5
838
  8
0
 10
12.579891729793051
 20
94.746666789510471
 30
0.0
 11
13.717884269855229
 21
93.60960883048601
 31
0.0
  0
LINE
  5
839
  8
0
 10
12.579891729793051
 20
94.746666789510471
 30
0.0
 11
11.07029475034423
 21
93.737089086108739
 31
0.0
  0
ARC
  5
83A
  8
0
 10
12.53484138689393
 20
93.563586494281395
 30
0.0
 40
1.474788120385816
 50
173.24374702406351
 51
185.23734727537251
  0
ARC
  5
83B
  8
0
 10
12.411503726022829
 20
93.440147458608223
 30
0.0
 40
1.3453398534614831
 50
180.47623448770921
 51
269.57083923295619
  0
ARC
  5
83C
  8
0
 10
12.53484138689393
 20
93.563586494281395
 30
0.0
 40
1.47478812037528
 50
264.80972644479931
 51
276.80332669679427
  0
ARC
  5
83D
  8
0
 10
11.467746102302581
 20
98.916743011881962
 30
0.0
 40
1.4747881203752691
 50
197.30972644479999
 51
209.3033266967941
  0
LINE
  5
83E
  8
0
 10
10.18167060661005
 20
98.194932912632055
 30
0.0
 11
11.96299610784706
 21
97.8413658918153
 31
0.0
  0
LINE
  5
83F
  8
0
 10
12.726784425202791
 20
98.395838106261564
 30
0.0
 11
11.96299610784706
 21
97.8413658918153
 31
0.0
  0
LINE
  5
840
  8
0
 10
12.57800979223202
 20
99.32786715028692
 30
0.0
 11
11.06758386199601
 21
100.3362042411632
 31
0.0
  0
ARC
  5
841
  8
0
 10
11.467746102302581
 20
98.916743011881962
 30
0.0
 40
1.4747881203858191
 50
105.74374702406411
 51
117.7373472753725
  0
ARC
  5
842
  8
0
 10
11.306504024329
 20
98.983454078489544
 30
0.0
 40
1.345339853461482
 50
112.97623448770911
 51
202.0708392329563
  0
LINE
  5
843
  8
0
 10
19.2873679566849
 20
95.681512352134504
 30
0.0
 11
18.035474721041169
 21
96.199461103891181
 31
0.0
  0
LINE
  5
844
  8
0
 10
14.64721871266425
 20
100.3178508545703
 30
0.0
 11
15.16619583423571
 21
99.066383583650634
 31
0.0
  0
LINE
  5
845
  8
0
 10
13.715067751256299
 20
100.46585969034921
 30
0.0
 11
12.57800979223202
 21
99.32786715028692
 31
0.0
  0
LINE
  5
846
  8
0
 10
12.57800979223202
 20
99.32786715028692
 30
0.0
 11
12.726784425202791
 21
98.395838106261564
 31
0.0
  0
LINE
  5
847
  8
0
 10
12.726784425202791
 20
98.395838106261564
 30
0.0
 11
13.97867766084692
 21
97.877889354505072
 31
0.0
  0
LINE
  5
848
  8
0
 10
17.366933669223471
 20
93.759499603825958
 30
0.0
 11
18.29908463063143
 21
93.611490768046963
 31
0.0
  0
LINE
  5
849
  8
0
 10
16.81308916377284
 20
92.995255994690439
 30
0.0
 11
17.366933669223471
 21
93.759499603825958
 31
0.0
  0
LINE
  5
84A
  8
0
 10
16.81308916377284
 20
92.995255994690439
 30
0.0
 11
17.168119586842241
 21
91.214221582260009
 31
0.0
  0
ARC
  5
84B
  8
0
 10
17.888872814002809
 20
92.500889676811823
 30
0.0
 40
1.474788120385818
 50
240.74374702406439
 51
252.737347275373
  0
ARC
  5
84C
  8
0
 10
17.9557163331718
 20
92.339702462485789
 30
0.0
 40
1.3453398534614991
 50
247.97623448771071
 51
337.07083923295443
  0
ARC
  5
84D
  8
0
 10
17.888872814002809
 20
92.500889676811823
 30
0.0
 40
1.4747881203752651
 50
332.3097264447984
 51
344.30332669679512
  0
LINE
  5
84E
  8
0
 10
19.2873679566849
 20
95.681512352134504
 30
0.0
 11
20.051156274041031
 21
96.235984566580854
 31
0.0
  0
LINE
  5
84F
  8
0
 10
19.436142589656068
 20
94.749483308109234
 30
0.0
 11
19.2873679566849
 21
95.681512352134504
 31
0.0
  0
ARC
  5
850
  8
0
 10
20.546406279585479
 20
95.160607446514206
 30
0.0
 40
1.474788120385824
 50
285.74374702406237
 51
297.73734727537169
  0
ARC
  5
851
  8
0
 10
20.707648357559069
 20
95.093896379906624
 30
0.0
 40
1.345339853461498
 50
292.97623448770918
 51
22.07083923295415
  0
ARC
  5
852
  8
0
 10
20.546406279585479
 20
95.160607446514206
 30
0.0
 40
1.4747881203752811
 50
17.309726444798251
 51
29.303326696794102
  0
LINE
  5
853
  8
0
 10
13.715067751256299
 20
100.46585969034921
 30
0.0
 11
12.70549004785474
 21
101.97545666979769
 31
0.0
  0
LINE
  5
854
  8
0
 10
14.64721871266425
 20
100.3178508545703
 30
0.0
 11
13.715067751256299
 21
100.46585969034921
 31
0.0
  0
LINE
  5
855
  8
0
 10
15.20106321811488
 20
101.0820944637057
 30
0.0
 11
14.64721871266425
 21
100.3178508545703
 31
0.0
  0
ARC
  5
856
  8
0
 10
14.125279567885279
 20
101.5764607815842
 30
0.0
 40
1.4747881203858639
 50
60.743747024063381
 51
72.737347275372173
  0
ARC
  5
857
  8
0
 10
14.05843604871589
 20
101.73764799591039
 30
0.0
 40
1.34533985346152
 50
67.976234487710684
 51
157.07083923295579
  0
ARC
  5
858
  8
0
 10
14.125279567885279
 20
101.5764607815842
 30
0.0
 40
1.474788120375276
 50
152.30972644479829
 51
164.30332669679589
  0
LINE
  5
859
  8
0
 10
17.364239068007581
 20
100.3189669949392
 30
0.0
 11
16.80976685356103
 21
101.08275531229511
 31
0.0
  0
ARC
  5
85A
  8
0
 10
17.88514397362777
 20
101.5780053178395
 30
0.0
 40
1.4747881203858191
 50
15.74374702406295
 51
27.737347275371771
  0
ARC
  5
85B
  8
0
 10
17.951855040235529
 20
101.739247395813
 30
0.0
 40
1.3453398534614369
 50
22.976234487707728
 51
112.07083923295789
  0
ARC
  5
85C
  8
0
 10
17.88514397362777
 20
101.5780053178395
 30
0.0
 40
1.474788120375266
 50
107.3097264447988
 51
119.30332669679549
  0
LINE
  5
85D
  8
0
 10
20.051156274041031
 20
96.235984566580854
 30
0.0
 11
20.050495425451629
 21
97.844688202027015
 31
0.0
  0
LINE
  5
85E
  8
0
 10
20.051156274041031
 20
96.235984566580854
 30
0.0
 11
21.832481775278008
 21
95.882417545764199
 31
0.0
  0
ARC
  5
85F
  8
0
 10
20.919575776444329
 20
97.040693263067055
 30
0.0
 40
1.47478812038584
 50
308.24374702406323
 51
320.23734727537192
  0
ARC
  5
860
  8
0
 10
21.09407325200976
 20
97.040764945876816
 30
0.0
 40
1.3453398534614629
 50
315.47623448770912
 51
44.570839232956992
  0
ARC
  5
861
  8
0
 10
20.919575776444329
 20
97.040693263067055
 30
0.0
 40
1.474788120375268
 50
39.809726444798201
 51
51.803326696794258
  0
LINE
  5
862
  8
0
 10
15.20106321811488
 20
101.0820944637057
 30
0.0
 11
14.846032795045829
 21
102.8631288761361
 31
0.0
  0
LINE
  5
863
  8
0
 10
16.80976685356103
 20
101.08275531229511
 30
0.0
 11
15.20106321811488
 21
101.0820944637057
 31
0.0
  0
LINE
  5
864
  8
0
 10
16.80976685356103
 20
101.08275531229511
 30
0.0
 11
17.163333874377681
 21
102.864080813532
 31
0.0
  0
ARC
  5
865
  8
0
 10
16.005058157075101
 20
101.95117481469831
 30
0.0
 40
1.47478812038584
 50
38.24374702406363
 51
50.237347275372208
  0
ARC
  5
866
  8
0
 10
16.00498647426528
 20
102.12567229026379
 30
0.0
 40
1.3453398534614609
 50
45.47623448770792
 51
134.57083923295781
  0
ARC
  5
867
  8
0
 10
16.005058157075101
 20
101.95117481469831
 30
0.0
 40
1.4747881203752771
 50
129.80972644479971
 51
141.80332669679561
  0
LINE
  5
868
  8
0
 10
18.296268112032831
 20
100.4677416279102
 30
0.0
 11
19.304605202909102
 21
101.9781675581461
 31
0.0
  0
ARC
  5
869
  8
0
 10
19.479310994993789
 20
100.5137639641148
 30
0.0
 40
1.4747881203858271
 50
353.24374702406192
 51
5.2373472753717136
  0
ARC
  5
86A
  8
0
 10
19.602648655865231
 20
100.637202999788
 30
0.0
 40
1.345339853461466
 50
0.4762344877094053
 51
89.570839232957027
  0
ARC
  5
86B
  8
0
 10
19.479310994993789
 20
100.5137639641148
 30
0.0
 40
1.474788120375262
 50
84.809726444799253
 51
96.803326696795978
  0
ARC
  5
86C
  8
0
 10
16.005107727768831
 20
101.8305048811992
 30
0.0
 40
2.8886224593520899
 50
253.11693568475599
 51
286.93013803610211
  0
ARC
  5
86D
  8
0
 10
12.61734903606358
 20
100.4256185567591
 30
0.0
 40
2.8886224593520651
 50
298.11693568475459
 51
331.93013803610182
  0
ARC
  5
86E
  8
0
 10
11.21524653894312
 20
97.036706766023016
 30
0.0
 40
2.8886224593519252
 50
343.11693568475431
 51
16.930138036102669
  0
ARC
  5
86F
  8
0
 10
12.62013286338254
 20
93.648948074317403
 30
0.0
 40
2.888622459352487
 50
28.116935684757209
 51
61.9301380360994
  0
ARC
  5
870
  8
0
 10
16.009044654119229
 20
92.246845577196737
 30
0.0
 40
2.8886224593522951
 50
73.116935684755973
 51
106.9301380361012
  0
ARC
  5
871
  8
0
 10
19.39680334582448
 20
93.651731901636893
 30
0.0
 40
2.8886224593521841
 50
118.1169356847555
 51
151.93013803610091
  0
ARC
  5
872
  8
0
 10
20.798905842944968
 20
97.040643692373152
 30
0.0
 40
2.888622459352046
 50
163.11693568475519
 51
196.9301380361027
  0
ARC
  5
873
  8
0
 10
19.394019518505189
 20
100.4284023840784
 30
0.0
 40
2.8886224593520402
 50
208.11693568475479
 51
241.93013803610231
  0
LINE
  5
874
  8
0
 10
19.28625181631611
 20
98.398532707477742
 30
0.0
 11
18.034784545396629
 21
97.879555585906445
 31
0.0
  0
LINE
  5
875
  8
0
 10
19.43426065209502
 20
99.330683668885683
 30
0.0
 11
18.296268112032831
 21
100.4677416279102
 31
0.0
  0
LINE
  5
876
  8
0
 10
18.296268112032831
 20
100.4677416279102
 30
0.0
 11
17.364239068007581
 21
100.3189669949392
 31
0.0
  0
LINE
  5
877
  8
0
 10
17.364239068007581
 20
100.3189669949392
 30
0.0
 11
16.846290316251071
 21
99.067073759295155
 31
0.0
  0
LINE
  5
878
  8
0
 10
19.436142589656068
 20
94.749483308109234
 30
0.0
 11
20.946568519892079
 21
93.741146217232966
 31
0.0
  0
LINE
  5
879
  8
0
 10
18.29908463063143
 20
93.611490768046963
 30
0.0
 11
19.436142589656068
 21
94.749483308109234
 31
0.0
  0
LINE
  5
87A
  8
0
 10
18.29908463063143
 20
93.611490768046963
 30
0.0
 11
19.308662334033329
 21
92.101893788598403
 31
0.0
  0
ARC
  5
87B
  8
0
 10
19.48216492586084
 20
93.566440425148187
 30
0.0
 40
1.4747881203858391
 50
263.24374702406351
 51
275.23734727537152
  0
ARC
  5
87C
  8
0
 10
19.605603961533941
 20
93.443102764276816
 30
0.0
 40
1.345339853461522
 50
270.47623448770997
 51
359.57083923295443
  0
ARC
  5
87D
  8
0
 10
19.48216492586084
 20
93.566440425148187
 30
0.0
 40
1.4747881203752731
 50
354.80972644479891
 51
6.8033266967953194
  0
LINE
  5
87E
  8
0
 10
19.43426065209502
 20
99.330683668885683
 30
0.0
 11
20.943857631543491
 21
100.3402613722874
 31
0.0
  0
LINE
  5
87F
  8
0
 10
19.28625181631611
 20
98.398532707477742
 30
0.0
 11
19.43426065209502
 21
99.330683668885683
 31
0.0
  0
LINE
  5
880
  8
0
 10
20.050495425451629
 20
97.844688202027015
 30
0.0
 11
19.28625181631611
 21
98.398532707477742
 31
0.0
  0
LINE
  5
881
  8
0
 10
20.050495425451629
 20
97.844688202027015
 30
0.0
 11
21.831529837881881
 21
98.199718625096253
 31
0.0
  0
ARC
  5
882
  8
0
 10
20.54486174333007
 20
98.920471852256796
 30
0.0
 40
1.4747881203858499
 50
330.74374702406311
 51
342.73734727537237
  0
ARC
  5
883
  8
0
 10
20.70604895765646
 20
98.987315371426092
 30
0.0
 40
1.3453398534615251
 50
337.97623448771088
 51
67.070839232954242
  0
ARC
  5
884
  8
0
 10
20.54486174333007
 20
98.920471852256796
 30
0.0
 40
1.474788120375268
 50
62.30972644479845
 51
74.303326696794713
  0
LINE
  5
88D
  8
1
 10
16.007076190943849
 20
7.6360056112050643
 30
0.0
 11
16.007076190943881
 21
70.135998129701576
 31
0.0
  0
LINE
  5
88E
  8
1
 10
26.512629690409199
 20
97.038675229198034
 30
0.0
 11
5.5015226914788684
 21
97.038675229198034
 31
0.0
  0
LINE
  5
88F
  8
1
 10
55.671297047086092
 20
7.6360056112050643
 30
0.0
 11
55.671297047086092
 21
70.135998129701576
 31
0.0
  0
LINE
  5
89A
  8
1
 10
16.007076190943849
 20
87.538675229198034
 30
0.0
 11
16.007076190943849
 21
106.53867522919811
 31
0.0
  0
LINE
  5
8AA
  8
3
 10
19.330576190943841
 20
48.636005611204418
 30
0.0
 11
20.007076190943849
 21
49.807737611204423
 31
0.0
  0
LINE
  5
8AB
  8
3
 10
12.68357619094385
 20
48.636005611204418
 30
0.0
 11
12.007076190943851
 21
49.807737611204423
 31
0.0
  0
LINE
  5
8AC
  8
0
 10
12.007076190943851
 20
11.83600561120504
 30
0.0
 11
20.007076190943849
 21
11.83600561120504
 31
0.0
  0
LINE
  5
8AD
  8
0
 10
18.80707619094386
 20
10.636005611205031
 30
0.0
 11
20.007076190943849
 21
11.83600561120504
 31
0.0
  0
LINE
  5
8AE
  8
0
 10
13.207076190943839
 20
10.636005611205031
 30
0.0
 11
12.007076190943851
 21
11.83600561120504
 31
0.0
  0
LINE
  5
8AF
  8
0
 10
12.007076190943851
 20
48.636005611204418
 30
0.0
 11
20.007076190943849
 21
48.636005611204418
 31
0.0
  0
LINE
  5
8B0
  8
0
 10
12.007076190943851
 20
11.83600561120504
 30
0.0
 11
12.007076190943851
 21
49.874005611204588
 31
0.0
  0
LINE
  5
8B1
  8
3
 10
12.68357619094385
 20
11.159505611205031
 30
0.0
 11
12.68357619094385
 21
48.636005611204418
 31
0.0
  0
LINE
  5
8B2
  8
3
 10
19.330576190943841
 20
11.159505611205031
 30
0.0
 11
19.330576190943841
 21
48.636005611204418
 31
0.0
  0
LINE
  5
8B3
  8
0
 10
20.007076190943849
 20
11.83600561120504
 30
0.0
 11
20.007076190943849
 21
49.874005611204588
 31
0.0
  0
LINE
  5
8B4
  8
0
 10
13.207076190943839
 20
10.636005611205031
 30
0.0
 11
18.80707619094386
 21
10.636005611205031
 31
0.0
  0
LINE
  5
8B5
  8
0
 10
20.007076190943881
 20
49.874005611204588
 30
0.0
 11
12.00707619094425
 21
49.874005611204588
 31
0.0
  0
ARC
  5
8B6
  8
0
 10
11.245076190944239
 20
49.874005611204637
 30
0.0
 40
0.7619999999999455
 50
0.0
 51
89.999999999999986
  0
ARC
  5
8B7
  8
0
 10
20.769076190944158
 20
49.874005611204637
 30
0.0
 40
0.7619999999999682
 50
89.999999999999986
 51
180.0
  0
LINE
  5
8B8
  8
3
 10
58.994797047086081
 20
48.63600561120446
 30
0.0
 11
59.671297047086078
 21
49.807737611204452
 31
0.0
  0
LINE
  5
8B9
  8
3
 10
52.34779704708609
 20
48.63600561120446
 30
0.0
 11
51.671297047086078
 21
49.807737611204452
 31
0.0
  0
LINE
  5
8BA
  8
0
 10
51.671297047086078
 20
11.83600561120506
 30
0.0
 11
59.671297047086078
 21
11.83600561120506
 31
0.0
  0
LINE
  5
8BB
  8
0
 10
58.471297047086097
 20
10.636005611205061
 30
0.0
 11
59.671297047086078
 21
11.83600561120506
 31
0.0
  0
LINE
  5
8BC
  8
0
 10
52.871297047086081
 20
10.636005611205061
 30
0.0
 11
51.671297047086078
 21
11.83600561120506
 31
0.0
  0
LINE
  5
8BD
  8
0
 10
51.671297047086078
 20
48.63600561120446
 30
0.0
 11
59.671297047086078
 21
48.63600561120446
 31
0.0
  0
LINE
  5
8BE
  8
0
 10
51.671297047086078
 20
11.83600561120506
 30
0.0
 11
51.671297047086078
 21
49.87400561120463
 31
0.0
  0
LINE
  5
8BF
  8
3
 10
52.34779704708609
 20
11.159505611205059
 30
0.0
 11
52.34779704708609
 21
48.63600561120446
 31
0.0
  0
LINE
  5
8C0
  8
3
 10
58.994797047086081
 20
11.159505611205059
 30
0.0
 11
58.994797047086081
 21
48.63600561120446
 31
0.0
  0
LINE
  5
8C1
  8
0
 10
59.671297047086078
 20
11.83600561120506
 30
0.0
 11
59.671297047086078
 21
49.87400561120463
 31
0.0
  0
LINE
  5
8C2
  8
0
 10
52.871297047086081
 20
10.636005611205061
 30
0.0
 11
58.471297047086097
 21
10.636005611205061
 31
0.0
  0
LINE
  5
8C3
  8
0
 10
59.671297047086107
 20
49.87400561120463
 30
0.0
 11
51.671297047086483
 21
49.87400561120463
 31
0.0
  0
ARC
  5
8C4
  8
0
 10
50.909297047086483
 20
49.874005611204673
 30
0.0
 40
0.7619999999999455
 50
0.0
 51
89.999999999999986
  0
ARC
  5
8C5
  8
0
 10
60.433297047086391
 20
49.874005611204673
 30
0.0
 40
0.7619999999999682
 50
89.999999999999986
 51
180.0
  0
TEXT
  5
98C
  8
0
 62
     3
 10
0.0
 20
0.0
 30
0.0
 40
5.0
  1
MBUH-08040-60UR
  7
STANDARD1
  0
ENDSEC
  0
EOF
