  0
SECTION
  2
HEADER
  9
$ACADVER
  1
AC1009
  9
$INSBASE
 10
0.0
 20
0.0
 30
0.0
  9
$EXTMIN
 10
0.0
 20
-1.4802182810368341
 30
0.0
  9
$EXTMAX
 10
103.8207616387278
 20
102.1953000594625
 30
0.0
  9
$LIMMIN
 10
0.0
 20
0.0
  9
$LIMMAX
 10
187.5
 20
135.0
  9
$ORTHOMODE
 70
     1
  9
$REGENMODE
 70
     1
  9
$FILLMODE
 70
     1
  9
$QTEXTMODE
 70
     0
  9
$MIRRTEXT
 70
     0
  9
$DRAGMODE
 70
     2
  9
$LTSCALE
 40
5.0
  9
$OSMODE
 70
  3071
  9
$ATTMODE
 70
     1
  9
$TEXTSIZE
 40
0.06
  9
$TRACEWID
 40
0.05
  9
$TEXTSTYLE
  7
STANDARD
  9
$CLAYER
  8
0
  9
$CELTYPE
  6
BYLAYER
  9
$CECOLOR
 62
   256
  9
$DIMSCALE
 40
0.5
  9
$DIMASZ
 40
3.0
  9
$DIMEXO
 40
2.0
  9
$DIMDLI
 40
10.0
  9
$DIMRND
 40
0.0
  9
$DIMDLE
 40
0.0
  9
$DIMEXE
 40
2.0
  9
$DIMTP
 40
0.0
  9
$DIMTM
 40
0.0
  9
$DIMTXT
 40
3.0
  9
$DIMCEN
 40
0.0
  9
$DIMTSZ
 40
0.0
  9
$DIMTOL
 70
     0
  9
$DIMLIM
 70
     0
  9
$DIMTIH
 70
     0
  9
$DIMTOH
 70
     0
  9
$DIMSE1
 70
     0
  9
$DIMSE2
 70
     0
  9
$DIMTAD
 70
     1
  9
$DIMZIN
 70
     0
  9
$DIMBLK
  1

  9
$DIMASO
 70
     0
  9
$DIMSHO
 70
     0
  9
$DIMPOST
  1

  9
$DIMAPOST
  1

  9
$DIMALT
 70
     0
  9
$DIMALTD
 70
     2
  9
$DIMALTF
 40
25.399999999999999
  9
$DIMLFAC
 40
1.0
  9
$DIMTOFL
 70
     1
  9
$DIMTVP
 40
1.6000000000000001
  9
$DIMTIX
 70
     1
  9
$DIMSOXD
 70
     0
  9
$DIMSAH
 70
     0
  9
$DIMBLK1
  1

  9
$DIMBLK2
  1

  9
$DIMSTYLE
  2
STANDARD
  9
$DIMCLRD
 70
     0
  9
$DIMCLRE
 70
     0
  9
$DIMCLRT
 70
     0
  9
$DIMTFAC
 40
1.0
  9
$DIMGAP
 40
0.09
  9
$LUNITS
 70
     2
  9
$LUPREC
 70
     4
  9
$SKETCHINC
 40
0.1
  9
$FILLETRAD
 40
0.4
  9
$AUNITS
 70
     0
  9
$AUPREC
 70
     4
  9
$MENU
  1
E:\r13\win\SUPPORT\ACAD
  9
$ELEVATION
 40
0.0
  9
$PELEVATION
 40
0.0
  9
$THICKNESS
 40
0.0
  9
$LIMCHECK
 70
     0
  9
$BLIPMODE
 70
     0
  9
$CHAMFERA
 40
0.0
  9
$CHAMFERB
 40
0.0
  9
$SKPOLY
 70
     0
  9
$TDCREATE
 40
2449840.5905208332
  9
$TDUPDATE
 40
2456597.635599433
  9
$TDINDWG
 40
0.1018055324
  9
$TDUSRTIMER
 40
0.1018055324
  9
$USRTIMER
 70
     1
  9
$ANGBASE
 50
0.0
  9
$ANGDIR
 70
     0
  9
$PDMODE
 70
     0
  9
$PDSIZE
 40
0.0
  9
$PLINEWID
 40
0.0
  9
$COORDS
 70
     1
  9
$SPLFRAME
 70
     0
  9
$SPLINETYPE
 70
     6
  9
$SPLINESEGS
 70
     8
  9
$ATTDIA
 70
     0
  9
$ATTREQ
 70
     1
  9
$HANDLING
 70
     1
  9
$HANDSEED
  5
AED
  9
$SURFTAB1
 70
     6
  9
$SURFTAB2
 70
     6
  9
$SURFTYPE
 70
     6
  9
$SURFU
 70
     6
  9
$SURFV
 70
     6
  9
$UCSNAME
  2

  9
$UCSORG
 10
0.0
 20
0.0
 30
0.0
  9
$UCSXDIR
 10
1.0
 20
0.0
 30
0.0
  9
$UCSYDIR
 10
0.0
 20
1.0
 30
0.0
  9
$PUCSNAME
  2

  9
$PUCSORG
 10
0.0
 20
0.0
 30
0.0
  9
$PUCSXDIR
 10
1.0
 20
0.0
 30
0.0
  9
$PUCSYDIR
 10
0.0
 20
1.0
 30
0.0
  9
$USERI1
 70
     3
  9
$USERI2
 70
     1
  9
$USERI3
 70
     0
  9
$USERI4
 70
     0
  9
$USERI5
 70
     0
  9
$USERR1
 40
0.5
  9
$USERR2
 40
3.0
  9
$USERR3
 40
3.0
  9
$USERR4
 40
3.0
  9
$USERR5
 40
10.0
  9
$WORLDVIEW
 70
     1
  9
$SHADEDGE
 70
     3
  9
$SHADEDIF
 70
    70
  9
$TILEMODE
 70
     1
  9
$MAXACTVP
 70
    16
  9
$PLIMCHECK
 70
     0
  9
$PEXTMIN
 10
1.0000000000000000E+020
 20
1.0000000000000000E+020
 30
1.0000000000000000E+020
  9
$PEXTMAX
 10
-1.0000000000000000E+020
 20
-1.0000000000000000E+020
 30
-1.0000000000000000E+020
  9
$PLIMMIN
 10
0.0
 20
0.0
  9
$PLIMMAX
 10
12.0
 20
9.0
  9
$UNITMODE
 70
     0
  9
$VISRETAIN
 70
     0
  9
$PLINEGEN
 70
     0
  9
$PSLTSCALE
 70
     0
  0
ENDSEC
  0
SECTION
  2
TABLES
  0
TABLE
  2
VPORT
 70
     1
  0
VPORT
  2
*ACTIVE
 70
     0
 10
0.0
 20
0.0
 11
1.0
 21
1.0
 12
93.747139195326156
 22
67.05183146954721
 13
0.0
 23
0.0
 14
5.0
 24
5.0
 15
10.0
 25
10.0
 16
0.0
 26
0.0
 36
1.0
 17
0.0
 27
0.0
 37
0.0
 40
138.6470298934976
 41
2.304913294797688
 42
50.0
 43
0.0
 44
0.0
 50
0.0
 51
0.0
 71
     0
 72
   100
 73
     1
 74
     0
 75
     0
 76
     0
 77
     0
 78
     2
  0
ENDTAB
  0
TABLE
  2
LTYPE
 70
     3
  0
LTYPE
  2
CONTINUOUS
 70
     0
  3
Solid Line
 72
    65
 73
     0
 40
0.0
  0
LTYPE
  2
CENTER
 70
     0
  3
____ _ ____ _ ____ _ ____ _ ____ _ ____ _ ____
 72
    65
 73
     4
 40
2.0
 49
1.25
 49
-0.25
 49
0.25
 49
-0.25
  0
LTYPE
  2
PHANTOM2
 70
     0
  3
___ _ _ ___ _ _ ___ _ _ ___ _ _
 72
    65
 73
     6
 40
1.25
 49
0.625
 49
-0.125
 49
0.125
 49
-0.125
 49
0.125
 49
-0.125
  0
ENDTAB
  0
TABLE
  2
LAYER
 70
     3
  0
LAYER
  2
0
 70
     0
 62
     7
  6
CONTINUOUS
  0
LAYER
  2
1
 70
     0
 62
     1
  6
CENTER
  0
LAYER
  2
3
 70
     0
 62
     3
  6
CONTINUOUS
  0
ENDTAB
  0
TABLE
  2
STYLE
 70
     2
  0
STYLE
  2
STANDARD
 70
     0
 40
0.0
 41
1.0
 50
0.0
 71
     0
 42
0.06
  3
TXT
  4
BIGFONT
  0
STYLE
  2
STANDARD1
 70
     0
 40
0.0
 41
1.0
 50
0.0
 71
     0
 42
3.0
  3
txt
  4

  0
ENDTAB
  0
TABLE
  2
VIEW
 70
     0
  0
ENDTAB
  0
TABLE
  2
UCS
 70
     0
  0
ENDTAB
  0
TABLE
  2
APPID
 70
     3
  0
APPID
  2
ACAD
 70
     0
  0
APPID
  2
ACAD_MLEADERVER
 70
     0
  0
APPID
  2
ACAD_NAV_VCDISPLAY
 70
     0
  0
ENDTAB
  0
TABLE
  2
DIMSTYLE
 70
     1
  0
DIMSTYLE
  2
STANDARD
 70
     0
  3

  4

  5

  6

  7

 40
1.0
 41
0.18
 42
0.0625
 43
0.38
 44
0.18
 45
0.0
 46
0.0
 47
0.0
 48
0.0
140
0.18
141
0.09
142
0.0
143
25.399999999999999
144
1.0
145
0.0
146
1.0
147
0.09
 71
     0
 72
     0
 73
     1
 74
     1
 75
     0
 76
     0
 77
     0
 78
     0
170
     0
171
     2
172
     0
173
     0
174
     0
175
     0
176
     0
177
     0
178
     0
  0
ENDTAB
  0
ENDSEC
  0
SECTION
  2
BLOCKS
  0
BLOCK
  8
0
  2
$MODEL_SPACE
 70
     0
 10
0.0
 20
0.0
 30
0.0
  3
$MODEL_SPACE
  1

  0
ENDBLK
  5
FC
  8
0
  0
BLOCK
 67
     1
  8
0
  2
$PAPER_SPACE
 70
     0
 10
0.0
 20
0.0
 30
0.0
  3
$PAPER_SPACE
  1

  0
ENDBLK
  5
FA
 67
     1
  8
0
  0
ENDSEC
  0
SECTION
  2
ENTITIES
  0
LINE
  5
6D8
  8
0
 10
89.859761638727605
 20
54.044245977863881
 30
0.0
 11
100.7817616387278
 21
54.044245977863881
 31
0.0
  0
LINE
  5
6DA
  8
0
 10
100.7817616387276
 20
55.125111026805591
 30
0.0
 11
89.859761638727605
 21
55.125111026805499
 31
0.0
  0
LINE
  5
6DC
  8
0
 10
89.732761638727723
 20
55.34508147936674
 30
0.0
 11
100.9087616387276
 21
55.34508147936674
 31
0.0
  0
LINE
  5
6DE
  8
0
 10
87.320761638727745
 20
57.160300059462493
 30
0.0
 11
103.3207609637152
 21
57.160300059462493
 31
0.0
  0
LINE
  5
700
  8
0
 10
86.820761638727845
 20
53.795300065062513
 30
0.0
 11
103.8207616387275
 21
53.795300065062513
 31
0.0
  0
LINE
  5
705
  8
0
 10
86.820761638727845
 20
40.795300065062499
 30
0.0
 11
86.820761638727845
 21
53.795300065062513
 31
0.0
  0
LINE
  5
706
  8
0
 10
103.8207616387275
 20
40.795300065062499
 30
0.0
 11
86.820761638727845
 21
40.795300065062513
 31
0.0
  0
LINE
  5
707
  8
0
 10
103.8207616387276
 20
53.795300065062513
 30
0.0
 11
103.8207616387275
 21
40.795300065062499
 31
0.0
  0
ARC
  5
70A
  8
0
 10
90.972804881567697
 20
26.805429851207311
 30
0.0
 40
26.99004797489291
 50
80.729551159907217
 51
89.792052200613568
  0
ARC
  5
70B
  8
0
 10
91.215618246807423
 20
26.23971550937847
 30
0.0
 40
27.55596530049996
 50
90.301194692808167
 51
99.177201946674742
  0
ARC
  5
70D
  8
0
 10
91.168718395888192
 20
67.785170278925392
 30
0.0
 40
26.990047974900651
 50
260.72955115990811
 51
269.79205220061118
  0
ARC
  5
70E
  8
0
 10
90.925905030647755
 20
68.350884620749895
 30
0.0
 40
27.555965300503299
 50
270.30119469280743
 51
279.17720194667311
  0
ARC
  5
710
  8
0
 10
99.472804881567583
 20
26.805429851207759
 30
0.0
 40
26.990047974892459
 50
80.729551159907217
 51
89.792052200613568
  0
ARC
  5
711
  8
0
 10
99.715615948705164
 20
26.239743229493829
 30
0.0
 40
27.555937568686979
 50
90.301190217524947
 51
99.177206421957166
  0
LINE
  5
712
  8
0
 10
95.320761638727717
 20
41.147641081845208
 30
0.0
 11
95.320761638727717
 21
53.442959048279803
 31
0.0
  0
ARC
  5
713
  8
0
 10
99.668718395888419
 20
67.78517027892596
 30
0.0
 40
26.990047974901209
 50
260.72955115990811
 51
269.79205220061118
  0
ARC
  5
714
  8
0
 10
99.425905030647996
 20
68.350884620747181
 30
0.0
 40
27.555965300500599
 50
270.30119469280743
 51
279.1772019466739
  0
LINE
  5
717
  8
0
 10
90.13565403089035
 20
57.92141389069581
 30
0.0
 11
90.079207121909405
 21
57.793270855991487
 31
0.0
  0
LINE
  5
718
  8
0
 10
100.5112970658936
 20
57.91909302873384
 30
0.0
 11
100.56662434179179
 21
57.793270855991523
 31
0.0
  0
ARC
  5
719
  8
0
 10
97.599729020138454
 20
57.593173295005151
 30
0.0
 40
1.108622628035461
 50
10.398421113919809
 51
41.431189796572113
  0
ARC
  5
71A
  8
0
 10
93.047159470153332
 20
57.593772718309872
 30
0.0
 40
1.1084522106936221
 50
138.56967583329589
 51
169.6314624757253
  0
LINE
  5
71B
  8
0
 10
87.320761638727745
 20
56.195300059462497
 30
0.0
 11
103.3207609637152
 21
56.195300059462497
 31
0.0
  0
ARC
  5
71C
  8
0
 10
95.549836833398842
 20
57.812203079828251
 30
0.0
 40
1.3862704275392379
 50
153.6294330116211
 51
180.78250983600549
  0
ARC
  5
71D
  8
0
 10
95.101802901726685
 20
57.811823793985589
 30
0.0
 40
1.382166894267715
 50
359.2308910208252
 51
26.467398815079889
  0
LINE
  5
71E
  8
0
 10
103.3185430608343
 20
57.2078000594625
 30
0.0
 11
103.3185761825418
 21
57.2078000594625
 31
0.0
  0
ARC
  5
71F
  8
0
 10
102.6962901786935
 20
57.136926885835059
 30
0.0
 40
0.6263089312200578
 50
6.4975130828721728
 51
70.963725328508687
  0
ARC
  5
720
  8
0
 10
102.6070533707409
 20
57.362089422946177
 30
0.0
 40
0.379720542158513
 50
336.02591159606237
 51
16.778739915561498
  0
LINE
  5
721
  8
0
 10
102.9540151589152
 20
57.2078000594625
 30
0.0
 11
102.9022203497248
 21
57.2078000594625
 31
0.0
  0
ARC
  5
722
  8
0
 10
101.88790604496781
 20
56.614602552283898
 30
0.0
 40
1.175039059507458
 50
30.320211443879511
 51
85.793665302663626
  0
ARC
  5
723
  8
0
 10
101.405531346892
 20
57.636153903779842
 30
0.0
 40
0.611782225715916
 50
315.55905577398119
 51
6.6335754288354822
  0
LINE
  5
724
  8
0
 10
101.84232703798899
 20
57.2078000594625
 30
0.0
 11
101.74373851514341
 21
57.2078000594625
 31
0.0
  0
ARC
  5
725
  8
0
 10
100.3923933448858
 20
55.966917265684089
 30
0.0
 40
1.8346454363461939
 50
42.559936337955413
 51
84.550572516060967
  0
ARC
  5
726
  8
0
 10
99.140036848645323
 20
58.464219634208121
 30
0.0
 40
1.5764910842108539
 50
307.15806581159052
 51
334.81158667280812
  0
LINE
  5
727
  8
0
 10
100.0922626573649
 20
57.2078000594625
 30
0.0
 11
99.956530952394445
 21
57.2078000594625
 31
0.0
  0
ARC
  5
728
  8
0
 10
98.338746501160244
 20
55.370842348738861
 30
0.0
 40
2.4477827031166779
 50
48.630052644882767
 51
81.746242530611937
  0
ARC
  5
729
  8
0
 10
91.929925832880826
 20
66.343925017232181
 30
0.0
 40
10.90019439831366
 50
303.05349914052039
 51
308.3301896962314
  0
LINE
  5
72A
  8
0
 10
97.875130512034502
 20
57.2078000594625
 30
0.0
 11
97.715541989931083
 21
57.2078000594625
 31
0.0
  0
ARC
  5
72B
  8
0
 10
95.416692153414189
 20
53.959885080448963
 30
0.0
 40
3.9791534629560079
 50
54.709426562503069
 51
74.443650226126039
  0
ARC
  5
72C
  8
0
 10
97.883437943628621
 20
53.940036236890343
 30
0.0
 40
4.0995459111273416
 50
109.96230706869621
 51
127.1455765273043
  0
LINE
  5
72D
  8
0
 10
95.407958944050264
 20
57.2078000594625
 30
0.0
 11
95.240135241243678
 21
57.2078000594625
 31
0.0
  0
ARC
  5
72E
  8
0
 10
93.032400941849914
 20
54.430986173023513
 30
0.0
 40
3.547504206721714
 50
51.51318595457969
 51
71.403659420975913
  0
ARC
  5
72F
  8
0
 10
95.2330748551733
 20
53.956196001281228
 30
0.0
 40
3.9833045627146162
 50
105.5729653041674
 51
125.2830831194606
  0
LINE
  5
730
  8
0
 10
92.932251896281741
 20
57.2078000594625
 30
0.0
 11
92.772620766119886
 21
57.2078000594625
 31
0.0
  0
ARC
  5
731
  8
0
 10
83.257268590275089
 20
44.80994105804195
 30
0.0
 40
15.628462331583339
 50
52.493774674351663
 51
56.175757724626237
  0
ARC
  5
732
  8
0
 10
92.334764947978044
 20
55.313190855915401
 30
0.0
 40
2.5087144962141239
 50
98.665043301656524
 51
130.95617546055661
  0
LINE
  5
733
  8
0
 10
90.690348823829822
 20
57.2078000594625
 30
0.0
 11
90.554536073547496
 21
57.2078000594625
 31
0.0
  0
ARC
  5
734
  8
0
 10
91.632411207750394
 20
58.568588838684079
 30
0.0
 40
1.735961090164253
 50
206.52714473135259
 51
231.61740164498499
  0
ARC
  5
735
  8
0
 10
90.260617713144967
 20
55.95157699915427
 30
0.0
 40
1.8506069450096929
 50
95.625603248681287
 51
137.24874835003729
  0
LINE
  5
736
  8
0
 10
88.901702819682839
 20
57.2078000594625
 30
0.0
 11
88.803002747537619
 21
57.2078000594625
 31
0.0
  0
POLYLINE
  5
737
  8
0
 66
     1
 10
0.0
 20
0.0
 30
0.0
 70
   128
  0
VERTEX
  5
A8B
  8
0
 10
88.803002747540333
 20
57.207800059470003
 30
0.0
  0
VERTEX
  5
A8C
  8
0
 10
88.711208065149265
 20
57.336780194067948
 30
0.0
  0
VERTEX
  5
A8D
  8
0
 10
88.650186356673814
 20
57.467819185678593
 30
0.0
  0
VERTEX
  5
A8E
  8
0
 10
88.620232460390241
 20
57.589856649542071
 30
0.0
  0
VERTEX
  5
A8F
  8
0
 10
88.623730465775864
 20
57.692742751742287
 30
0.0
  0
VERTEX
  5
A90
  8
0
 10
88.631217571925106
 20
57.708350318726332
 30
0.0
  0
SEQEND
  5
A91
  8
0
  0
ARC
  5
738
  8
0
 10
88.762709150168746
 20
56.604865794731779
 30
0.0
 40
1.1860034214900961
 50
94.610536451896905
 51
149.44436279766211
  0
LINE
  5
739
  8
0
 10
87.741399016956933
 20
57.2078000594625
 30
0.0
 11
87.689473073701095
 21
57.2078000594625
 31
0.0
  0
ARC
  5
73A
  8
0
 10
88.037021012429449
 20
57.362779587809399
 30
0.0
 40
0.3805367576474749
 50
163.28576253992401
 51
204.03317899499299
  0
ARC
  5
73B
  8
0
 10
87.916740372129468
 20
57.158723296455761
 30
0.0
 40
0.5957492054316576
 50
107.2478826263156
 51
175.27472055603261
  0
LINE
  5
73C
  8
0
 10
87.323016036174607
 20
57.2078000594625
 30
0.0
 11
87.322980217472164
 21
57.2078000594625
 31
0.0
  0
LINE
  5
781
  8
0
 10
100.7817616387278
 20
54.044245977863881
 30
0.0
 11
100.7817616387278
 21
55.125111026805548
 31
0.0
  0
LINE
  5
782
  8
0
 10
89.859761638727605
 20
55.125111026805499
 30
0.0
 11
89.859761638727605
 21
54.044245977863881
 31
0.0
  0
ARC
  5
783
  8
0
 10
89.605761638727856
 20
54.044245977863838
 30
0.0
 40
0.2540000000000169
 50
327.79699696652699
 51
0.0
  0
ARC
  5
784
  8
0
 10
101.03576163872749
 20
54.044245977863838
 30
0.0
 40
0.2540000000000169
 50
180.0
 51
212.2030030334729
  0
ARC
  5
785
  8
0
 10
101.03576163872749
 20
55.125111026805499
 30
0.0
 40
0.2539999999999943
 50
120.00000000000171
 51
180.0
  0
ARC
  5
786
  8
0
 10
89.605761638727856
 20
55.125111026805449
 30
0.0
 40
0.2540000000000204
 50
0.0
 51
59.999999999998153
  0
LINE
  5
787
  8
0
 10
100.8907544430316
 20
53.79530006506247
 30
0.0
 11
100.82083566893201
 21
53.908884138679483
 31
0.0
  0
LINE
  5
788
  8
0
 10
89.820687608523414
 20
53.908884138679483
 30
0.0
 11
89.750768834423411
 21
53.79530006506247
 31
0.0
  0
LINE
  5
789
  8
0
 10
88.321726939361668
 20
56.195300059462497
 30
0.0
 11
88.320761638727845
 21
56.1603000594625
 31
0.0
  0
LINE
  5
78A
  8
0
 10
102.3207616387275
 20
56.1603000594625
 30
0.0
 11
102.3197963380933
 21
56.195300059462497
 31
0.0
  0
LINE
  5
78B
  8
0
 10
100.9087616387276
 20
55.34508147936674
 30
0.0
 11
102.3207616387275
 21
56.1603000594625
 31
0.0
  0
LINE
  5
78C
  8
0
 10
88.320761638727845
 20
56.1603000594625
 30
0.0
 11
89.732761638727723
 21
55.34508147936674
 31
0.0
  0
ARC
  5
78D
  8
0
 10
97.299827648808616
 20
57.20780005946245
 30
0.0
 40
1.587500000000003
 50
89.909582893129368
 51
118.5141780404042
  0
LINE
  5
78E
  8
0
 10
93.339190326463253
 20
58.795298082608149
 30
0.0
 11
93.171454162182783
 21
58.786677828704292
 31
0.0
  0
LINE
  5
78F
  8
0
 10
99.091089158046444
 20
58.795296658491729
 30
0.0
 11
99.028856744285534
 21
58.794205296225492
 31
0.0
  0
ARC
  5
790
  8
0
 10
100.5070343173997
 20
57.20780005946245
 30
0.0
 40
1.587499999999995
 50
89.944122884457613
 51
114.7688010669723
  0
ARC
  5
791
  8
0
 10
90.131392240002185
 20
57.20780005946245
 30
0.0
 40
1.587500000000005
 50
89.944119327549103
 51
106.6571306191301
  0
LINE
  5
792
  8
0
 10
97.653533710234214
 20
58.795299621412831
 30
0.0
 11
97.466178239688887
 21
58.786560247367539
 31
0.0
  0
ARC
  5
793
  8
0
 10
92.986670138364957
 20
56.810925059462463
 30
0.0
 40
1.984375000000006
 50
89.961935033721744
 51
111.288599294354
  0
POLYLINE
  5
794
  8
0
 66
     1
 10
0.0
 20
0.0
 30
0.0
 70
   128
  0
VERTEX
  5
A92
  8
0
 10
101.41941142914141
 20
58.79529985055779
 30
0.0
  0
VERTEX
  5
A93
  8
0
 10
101.16968188098249
 20
58.775664054402903
 30
0.0
  0
VERTEX
  5
A94
  8
0
 10
100.96281566562421
 20
58.728464260596581
 30
0.0
  0
SEQEND
  5
A95
  8
0
  0
POLYLINE
  5
795
  8
0
 66
     1
 10
0.0
 20
0.0
 30
0.0
 70
   128
  0
VERTEX
  5
A96
  8
0
 10
89.222113443553269
 20
58.795299850143799
 30
0.0
  0
VERTEX
  5
A97
  8
0
 10
89.195594584744128
 20
58.795091958596402
 30
0.0
  0
VERTEX
  5
A98
  8
0
 10
89.064780200660323
 20
58.787565345555102
 30
0.0
  0
SEQEND
  5
A99
  8
0
  0
ARC
  5
796
  8
0
 10
99.09476306485027
 20
56.810925059462463
 30
0.0
 40
1.9843750000000031
 50
90.106078475361301
 51
111.3138620169952
  0
ARC
  5
797
  8
0
 10
91.545752603716949
 20
56.810925059462463
 30
0.0
 40
1.984375000000002
 50
89.943526720695417
 51
112.1535041253365
  0
ARC
  5
798
  8
0
 10
101.733261097663
 20
57.20780005946245
 30
0.0
 40
1.5875000000000039
 50
0.0072707244732247
 51
95.687738269773334
  0
ARC
  5
799
  8
0
 10
88.908262179792416
 20
57.20780005946245
 30
0.0
 40
1.587499999999993
 50
84.341785839318305
 51
180.0
  0
ARC
  5
79A
  8
0
 10
95.320761638727717
 20
54.826550059462448
 30
0.0
 40
3.9687500000000062
 50
72.07861206462546
 51
107.9690538882399
  0
ARC
  5
79B
  8
0
 10
99.095770673738457
 20
56.810925059462463
 30
0.0
 40
1.984374999999996
 50
91.013340614560548
 51
111.3294774111219
  0
ARC
  5
79C
  8
0
 10
99.095770673738457
 20
56.810925059462463
 30
0.0
 40
1.984375
 50
67.897813836624323
 51
90.121435740204134
  0
ARC
  5
79D
  8
0
 10
91.546760212605136
 20
56.810925059462463
 30
0.0
 40
1.984375
 50
89.610549303090366
 51
112.1702063675783
  0
ARC
  5
79E
  8
0
 10
91.546760212605136
 20
56.810925059462463
 30
0.0
 40
1.9843750000000091
 50
68.727011756666101
 51
88.096706221483345
  0
ARC
  5
79F
  8
0
 10
89.222926263606908
 20
57.20780005946245
 30
0.0
 40
1.5875000000000019
 50
73.373533280955925
 51
170.28893891336801
  0
ARC
  5
7A0
  8
0
 10
101.420225055926
 20
57.20780005946245
 30
0.0
 40
1.5875000000000039
 50
9.7034560357338382
 51
106.7154703868374
  0
ARC
  5
7A1
  8
0
 10
97.654853139090477
 20
56.810925059462463
 30
0.0
 40
1.9843749999999989
 50
67.537998961232034
 51
95.419831788992738
  0
ARC
  5
7A2
  8
0
 10
92.989308092681426
 20
56.810925059462463
 30
0.0
 40
1.9843750000000031
 50
84.697299650575673
 51
112.5767029496138
  0
ARC
  5
7A3
  8
0
 10
95.322391984156354
 20
56.810925059462463
 30
0.0
 40
1.9843750000000031
 50
58.090371703664218
 51
122.0607390592584
  0
ARC
  5
7A4
  8
0
 10
90.134488960055648
 20
57.20780005946245
 30
0.0
 40
1.5874999999999919
 50
63.534458507525613
 51
161.57703370242859
  0
ARC
  5
7A5
  8
0
 10
100.51013103745321
 20
57.20780005946245
 30
0.0
 40
1.587499999999991
 50
18.370548091233609
 51
116.6139833659837
  0
ARC
  5
7A6
  8
0
 10
91.553720161179115
 20
57.20780005946245
 30
0.0
 40
1.587500000000003
 50
55.835990206232459
 51
153.28707459513501
  0
ARC
  5
7A7
  8
0
 10
99.092065385770454
 20
57.20780005946245
 30
0.0
 40
1.5875000000000139
 50
26.61919145483197
 51
124.36648968893439
  0
ARC
  5
7A8
  8
0
 10
97.304838247108705
 20
57.20780005946245
 30
0.0
 40
1.5875000000000159
 50
44.818533096775752
 51
128.73620600121151
  0
ARC
  5
7A9
  8
0
 10
93.341695628646434
 20
57.20780005946245
 30
0.0
 40
1.5875000000000019
 50
51.501203391808012
 51
135.1573393907602
  0
LINE
  5
7AA
  8
0
 10
103.3207616387276
 20
56.195300059462497
 30
0.0
 11
103.3207616387276
 21
57.160300059462493
 31
0.0
  0
LINE
  5
7AB
  8
0
 10
87.320761638727745
 20
57.160300059462493
 30
0.0
 11
87.320761638727745
 21
56.195300059462497
 31
0.0
  0
ARC
  5
7AC
  8
0
 10
95.323395866144352
 20
57.20780005946245
 30
0.0
 40
1.5875000000000219
 50
50.221970234044029
 51
129.77182339874159
  0
ARC
  5
7AD
  8
0
 10
102.6857616387275
 20
57.16030005946245
 30
0.0
 40
0.6350000000000085
 50
0.0
 51
4.2759156097361837
  0
ARC
  5
7AE
  8
0
 10
87.955761638727495
 20
57.16030005946245
 30
0.0
 40
0.6350000000000104
 50
175.73155319692239
 51
180.0
  0
LINE
  5
7B0
  8
0
 10
16.754613090521332
 20
54.044245977863881
 30
0.0
 11
27.676612629740958
 21
54.044245977863881
 31
0.0
  0
LINE
  5
7B1
  8
0
 10
27.676612168960791
 20
55.125111026805499
 30
0.0
 11
16.75461262974116
 21
55.125111026805499
 31
0.0
  0
LINE
  5
7B3
  8
0
 10
16.62761262974092
 20
55.34508147936674
 30
0.0
 11
27.803612158244992
 21
55.34508147936674
 31
0.0
  0
LINE
  5
7B4
  8
0
 10
14.21561262974126
 20
57.160300059462543
 30
0.0
 11
30.21561262974123
 21
57.160300059462543
 31
0.0
  0
LINE
  5
7B5
  8
0
 10
30.71561262974112
 20
53.795300065062499
 30
0.0
 11
13.715612629741029
 21
53.795300065062513
 31
0.0
  0
LINE
  5
7B7
  8
0
 10
30.71561262974112
 20
40.795300065062541
 30
0.0
 11
13.715612629741029
 21
40.795300065062548
 31
0.0
  0
ARC
  5
7DE
  8
0
 10
14.78795935126297
 20
44.612410498828133
 30
0.0
 40
9.1831298970797892
 50
74.071629062298854
 51
89.585477631716515
  0
ARC
  5
7DF
  8
0
 10
14.952641435716769
 20
44.390900589989087
 30
0.0
 40
9.4049126266719743
 50
90.598528817596673
 51
105.7443644883889
  0
LINE
  5
7E0
  8
0
 10
12.400658053517359
 20
41.147641081845258
 30
0.0
 11
12.400658053517359
 21
53.442959048279803
 31
0.0
  0
ARC
  5
7E1
  8
0
 10
14.920834043883501
 20
49.978189631295621
 30
0.0
 40
9.1831298970785245
 50
254.0716290622988
 51
269.58547763171822
  0
ARC
  5
7E3
  8
0
 10
14.756155757867671
 20
50.199673087429133
 30
0.0
 40
9.4048861357302567
 50
270.59850736171143
 51
285.74438594427352
  0
LINE
  5
7E4
  8
0
 10
32.030567205964793
 20
41.147641081845258
 30
0.0
 11
32.030567205964793
 21
53.442959048279803
 31
0.0
  0
ARC
  5
7E5
  8
0
 10
29.510391215598649
 20
44.612410498828133
 30
0.0
 40
9.1831298970797892
 50
74.071629062298868
 51
89.585477631716515
  0
ARC
  5
7E6
  8
0
 10
29.675073300052471
 20
44.390900589989378
 30
0.0
 40
9.4049126266717238
 50
90.598528817597483
 51
105.7443644883889
  0
ARC
  5
7E7
  8
0
 10
29.478583823765351
 20
50.19969954013537
 30
0.0
 40
9.4049126266713863
 50
270.59852881759588
 51
285.74436448838821
  0
ARC
  5
7E9
  8
0
 10
29.643265908218812
 20
49.978189631295621
 30
0.0
 40
9.1831298970785262
 50
254.0716290622988
 51
269.58547763171822
  0
LINE
  5
7EA
  8
0
 10
27.123089917853012
 20
41.147641081845258
 30
0.0
 11
27.123089917853012
 21
53.442959048279803
 31
0.0
  0
ARC
  5
7EB
  8
0
 10
22.104972406059769
 20
17.901939527403972
 30
0.0
 40
35.89353105986423
 50
81.963401286910027
 51
89.823388011351895
  0
ARC
  5
7EC
  8
0
 10
22.407981739088878
 20
16.763602998055831
 30
0.0
 40
37.032196714977381
 50
90.297632563623822
 51
97.915578138115791
  0
LINE
  5
7ED
  8
0
 10
17.308135341629111
 20
41.147641081845258
 30
0.0
 11
17.308135341629111
 21
53.442959048279803
 31
0.0
  0
ARC
  5
7EE
  8
0
 10
22.40818461372973
 20
77.829822811297859
 30
0.0
 40
37.03502341042109
 50
262.0847130104392
 51
269.7020762878247
  0
ARC
  5
7EF
  8
0
 10
22.052086092837381
 20
77.425271921382674
 30
0.0
 40
36.630336868817892
 50
270.25578283808449
 51
277.95742786365338
  0
LINE
  5
7F1
  8
0
 10
17.030505021903529
 20
57.92141389069586
 30
0.0
 11
16.974058112922592
 21
57.793270855991523
 31
0.0
  0
LINE
  5
7F2
  8
0
 10
27.406148056907199
 20
57.91909302873384
 30
0.0
 11
27.461475332805382
 21
57.793270855991523
 31
0.0
  0
ARC
  5
7F3
  8
0
 10
24.494580011152699
 20
57.593173295005407
 30
0.0
 40
1.108622628034809
 50
10.39842111390991
 51
41.431189796581542
  0
ARC
  5
7F4
  8
0
 10
19.942010461167229
 20
57.593772718309637
 30
0.0
 40
1.108452210694143
 50
138.56967583330299
 51
169.63146247571839
  0
LINE
  5
7F5
  8
0
 10
14.21561262974126
 20
56.195300059462497
 30
0.0
 11
30.21561262974123
 21
56.195300059462497
 31
0.0
  0
ARC
  5
7F6
  8
0
 10
22.444687824412402
 20
57.812203079828201
 30
0.0
 40
1.386270427539219
 50
153.62943301161769
 51
180.78250983600441
  0
ARC
  5
7F7
  8
0
 10
21.996653892740959
 20
57.811823793985717
 30
0.0
 40
1.3821668942669381
 50
359.23089102081917
 51
26.46739881508854
  0
LINE
  5
7F8
  8
0
 10
30.213394051847899
 20
57.207800059462542
 30
0.0
 11
30.21342717355498
 21
57.207800059462542
 31
0.0
  0
ARC
  5
7F9
  8
0
 10
29.591141169706731
 20
57.136926885835059
 30
0.0
 40
0.6263089312201453
 50
6.4975130828870222
 51
70.963725328499265
  0
ARC
  5
7FA
  8
0
 10
29.501904361758481
 20
57.362089422945949
 30
0.0
 40
0.3797205421547184
 50
336.02591159585222
 51
16.77873991577184
  0
LINE
  5
7FB
  8
0
 10
29.848866149928401
 20
57.207800059462542
 30
0.0
 11
29.797071340738771
 21
57.207800059462542
 31
0.0
  0
ARC
  5
7FC
  8
0
 10
28.782757035980978
 20
56.614602552283529
 30
0.0
 40
1.175039059507889
 50
30.3202114438599
 51
85.793665302651377
  0
ARC
  5
7FD
  8
0
 10
28.30038233790594
 20
57.636153903779608
 30
0.0
 40
0.6117822257153844
 50
315.55905577368031
 51
6.6335754288638604
  0
LINE
  5
7FE
  8
0
 10
28.737178029002251
 20
57.207800059462542
 30
0.0
 11
28.63858950616196
 21
57.207800059462542
 31
0.0
  0
ARC
  5
7FF
  8
0
 10
27.287244335896901
 20
55.966917265677367
 30
0.0
 40
1.834645436353155
 50
42.559936337885318
 51
84.550572516002106
  0
ARC
  5
800
  8
0
 10
26.034887839659572
 20
58.464219634207133
 30
0.0
 40
1.576491084209549
 50
307.1580658117623
 51
334.8115866728258
  0
LINE
  5
801
  8
0
 10
26.987113648378461
 20
57.207800059462542
 30
0.0
 11
26.851381943406899
 21
57.207800059462542
 31
0.0
  0
ARC
  5
802
  8
0
 10
25.23359749213191
 20
55.370842348648758
 30
0.0
 40
2.4477827032119128
 50
48.63005264556066
 51
81.746242529943885
  0
ARC
  5
803
  8
0
 10
18.824776823938379
 20
66.343925017171173
 30
0.0
 40
10.90019439823835
 50
303.05349914050203
 51
308.33018969624788
  0
LINE
  5
804
  8
0
 10
24.769981503048029
 20
57.207800059462542
 30
0.0
 11
24.610392980944621
 21
57.207800059462542
 31
0.0
  0
ARC
  5
805
  8
0
 10
22.311543144409342
 20
53.959885080411148
 30
0.0
 40
3.9791534629973011
 50
54.709426562605728
 51
74.443650226022072
  0
ARC
  5
806
  8
0
 10
24.77828893469993
 20
53.940036236777139
 30
0.0
 40
4.0995459112535118
 50
109.9623070689146
 51
127.14557652709701
  0
LINE
  5
807
  8
0
 10
22.302809935063468
 20
57.207800059462542
 30
0.0
 11
22.134986232253251
 21
57.207800059462542
 31
0.0
  0
ARC
  5
808
  8
0
 10
19.927251932880409
 20
54.430986173058614
 30
0.0
 40
3.5475042066829161
 50
51.513185954499512
 51
71.403659421059274
  0
ARC
  5
809
  8
0
 10
22.127925846160849
 20
53.956196001335101
 30
0.0
 40
3.983304562655841
 50
105.5729653040204
 51
125.2830831196071
  0
LINE
  5
80A
  8
0
 10
19.82710288729492
 20
57.207800059462542
 30
0.0
 11
19.667471757148942
 21
57.207800059462542
 31
0.0
  0
ARC
  5
80B
  8
0
 10
10.15211957147028
 20
44.809941044369978
 30
0.0
 40
15.6284623484066
 50
52.493774676324428
 51
56.17575772262385
  0
ARC
  5
80C
  8
0
 10
19.229615938990118
 20
55.313190855919238
 30
0.0
 40
2.5087144962101542
 50
98.665043301635905
 51
130.95617546056431
  0
LINE
  5
80D
  8
0
 10
17.585199814862129
 20
57.207800059462542
 30
0.0
 11
17.449387064572591
 21
57.207800059462542
 31
0.0
  0
ARC
  5
80E
  8
0
 10
18.52726219877621
 20
58.568588838692961
 30
0.0
 40
1.735961090179283
 50
206.5271447314324
 51
231.61740164452161
  0
ARC
  5
80F
  8
0
 10
17.15546870415994
 20
55.95157699915039
 30
0.0
 40
1.850606945013699
 50
95.625603248717269
 51
137.24874835005559
  0
LINE
  5
810
  8
0
 10
15.79655381070722
 20
57.207800059462542
 30
0.0
 11
15.697853738560919
 21
57.207800059462542
 31
0.0
  0
POLYLINE
  5
811
  8
0
 66
     1
 10
0.0
 20
0.0
 30
0.0
 70
   128
  0
VERTEX
  5
A9A
  8
0
 10
15.697853738554549
 20
57.207800059469598
 30
0.0
  0
VERTEX
  5
A9B
  8
0
 10
15.606059056162559
 20
57.336780194067778
 30
0.0
  0
VERTEX
  5
A9C
  8
0
 10
15.54503734768713
 20
57.467819185678707
 30
0.0
  0
VERTEX
  5
A9D
  8
0
 10
15.515083451403539
 20
57.589856649542178
 30
0.0
  0
VERTEX
  5
A9E
  8
0
 10
15.518581456789599
 20
57.692742751742337
 30
0.0
  0
VERTEX
  5
A9F
  8
0
 10
15.5260685629384
 20
57.708350318726332
 30
0.0
  0
SEQEND
  5
AA0
  8
0
  0
ARC
  5
812
  8
0
 10
15.657560141181589
 20
56.604865794732177
 30
0.0
 40
1.1860034214896411
 50
94.610536451885466
 51
149.44436279766191
  0
LINE
  5
813
  8
0
 10
14.63625000797049
 20
57.207800059462542
 30
0.0
 11
14.58432406471462
 21
57.207800059462542
 31
0.0
  0
ARC
  5
814
  8
0
 10
14.931872003441921
 20
57.362779587809399
 30
0.0
 40
0.3805367576467353
 50
163.2857625398866
 51
204.0331789950362
  0
ARC
  5
815
  8
0
 10
14.811591363143011
 20
57.158723296455811
 30
0.0
 40
0.5957492054315694
 50
107.2478826263079
 51
175.27472055604281
  0
LINE
  5
816
  8
0
 10
14.217867027188159
 20
57.207800059462542
 30
0.0
 11
14.21783120848573
 21
57.207800059462542
 31
0.0
  0
LINE
  5
827
  8
0
 10
13.715612629741029
 20
53.795300065062513
 30
0.0
 11
12.400658053517359
 21
53.442959048279803
 31
0.0
  0
LINE
  5
828
  8
0
 10
32.030567205964793
 20
53.442959048279803
 30
0.0
 11
30.71561262974112
 21
53.795300065062513
 31
0.0
  0
LINE
  5
829
  8
0
 10
12.400658053517359
 20
41.147641081845258
 30
0.0
 11
13.715612629741029
 21
40.795300065062548
 31
0.0
  0
LINE
  5
82A
  8
0
 10
30.71561262974112
 20
40.795300065062548
 30
0.0
 11
32.030567205964793
 21
41.147641081845258
 31
0.0
  0
LINE
  5
85F
  8
0
 10
27.676612629740958
 20
54.044245977863881
 30
0.0
 11
27.676612629740958
 21
55.125111026805499
 31
0.0
  0
LINE
  5
860
  8
0
 10
16.75461262974116
 20
55.125111026805499
 30
0.0
 11
16.75461262974116
 21
54.044245977863881
 31
0.0
  0
ARC
  5
861
  8
0
 10
16.500612629741031
 20
54.044245977863881
 30
0.0
 40
0.2539999999999943
 50
327.79699696652563
 51
0.0
  0
ARC
  5
862
  8
0
 10
27.930612629741091
 20
54.044245977863881
 30
0.0
 40
0.2539999999999857
 50
180.00000000000071
 51
212.20300303347489
  0
ARC
  5
863
  8
0
 10
27.930612629741091
 20
55.125111026805499
 30
0.0
 40
0.2540000000000035
 50
119.99999999999631
 51
180.00000000000071
  0
ARC
  5
864
  8
0
 10
16.500612629741031
 20
55.125111026805499
 30
0.0
 40
0.2540000000000035
 50
0.0
 51
60.000000000003872
  0
LINE
  5
865
  8
0
 10
27.785605434045181
 20
53.795300065062513
 30
0.0
 11
27.715686659945501
 21
53.908884138679483
 31
0.0
  0
LINE
  5
866
  8
0
 10
16.715538599536611
 20
53.908884138679483
 30
0.0
 11
16.64561982543697
 21
53.795300065062513
 31
0.0
  0
LINE
  5
867
  8
0
 10
15.21657793037522
 20
56.195300059462497
 30
0.0
 11
15.215612629741029
 21
56.1603000594625
 31
0.0
  0
LINE
  5
868
  8
0
 10
29.215612629741091
 20
56.1603000594625
 30
0.0
 11
29.214647329106921
 21
56.195300059462497
 31
0.0
  0
LINE
  5
869
  8
0
 10
27.803612629741231
 20
55.34508147936674
 30
0.0
 11
29.215612629741091
 21
56.1603000594625
 31
0.0
  0
LINE
  5
86A
  8
0
 10
15.215612629741029
 20
56.1603000594625
 30
0.0
 11
16.62761262974092
 21
55.34508147936674
 31
0.0
  0
ARC
  5
86B
  8
0
 10
24.194678639822151
 20
57.207800059462542
 30
0.0
 40
1.5874999999999979
 50
89.909581072885786
 51
102.9531771378813
  0
ARC
  5
86C
  8
0
 10
20.23153602135989
 20
57.207800059462542
 30
0.0
 40
1.5875000000000039
 50
89.909577192894105
 51
111.3728114714107
  0
POLYLINE
  5
86D
  8
0
 66
     1
 10
0.0
 20
0.0
 30
0.0
 70
   128
  0
VERTEX
  5
AA1
  8
0
 10
25.984785273087422
 20
58.795298628952359
 30
0.0
  0
VERTEX
  5
AA2
  8
0
 10
25.824349710980808
 20
58.78738733723776
 30
0.0
  0
VERTEX
  5
AA3
  8
0
 10
25.71966995343217
 20
58.77336563931533
 30
0.0
  0
SEQEND
  5
AA4
  8
0
  0
LINE
  5
86E
  8
0
 10
18.446440004534391
 20
58.795298629011398
 30
0.0
 11
18.351091814260261
 21
58.792560870484749
 31
0.0
  0
ARC
  5
86F
  8
0
 10
27.401885308413281
 20
57.207800059462542
 30
0.0
 40
1.587499999999991
 50
89.944130912709866
 51
111.1883733883213
  0
ARC
  5
870
  8
0
 10
17.026243231015371
 20
57.2078000594625
 30
0.0
 40
1.587500000000011
 50
89.944120770780259
 51
106.6571306191284
  0
ARC
  5
871
  8
0
 10
23.440473172042569
 20
56.810925059462491
 30
0.0
 40
1.9843750000000231
 50
89.955234654212319
 51
104.7764107351161
  0
POLYLINE
  5
872
  8
0
 66
     1
 10
0.0
 20
0.0
 30
0.0
 70
   128
  0
VERTEX
  5
AA5
  8
0
 10
20.989202187870148
 20
58.795299453169029
 30
0.0
  0
VERTEX
  5
AA6
  8
0
 10
20.786090232683989
 20
58.785036860573648
 30
0.0
  0
VERTEX
  5
AA7
  8
0
 10
20.588281296859069
 20
58.754696648898523
 30
0.0
  0
SEQEND
  5
AA8
  8
0
  0
POLYLINE
  5
873
  8
0
 66
     1
 10
0.0
 20
0.0
 30
0.0
 70
   128
  0
VERTEX
  5
AA9
  8
0
 10
28.314263954653772
 20
58.79529984976989
 30
0.0
  0
VERTEX
  5
AAA
  8
0
 10
28.059300612451981
 20
58.774824422046322
 30
0.0
  0
VERTEX
  5
AAB
  8
0
 10
27.857666656637491
 20
58.728464260596638
 30
0.0
  0
SEQEND
  5
AAC
  8
0
  0
POLYLINE
  5
874
  8
0
 66
     1
 10
0.0
 20
0.0
 30
0.0
 70
   128
  0
VERTEX
  5
AAD
  8
0
 10
16.116962557939761
 20
58.795299851106329
 30
0.0
  0
VERTEX
  5
AAE
  8
0
 10
16.095467129171709
 20
58.795165329785497
 30
0.0
  0
VERTEX
  5
AAF
  8
0
 10
15.95963119167407
 20
58.787565345555151
 30
0.0
  0
SEQEND
  5
AB0
  8
0
  0
ARC
  5
875
  8
0
 10
25.425440262252469
 20
56.810925059462491
 30
0.0
 40
1.9843750000000191
 50
89.972295766394296
 51
109.1441877282422
  0
POLYLINE
  5
876
  8
0
 66
     1
 10
0.0
 20
0.0
 30
0.0
 70
   128
  0
VERTEX
  5
AB1
  8
0
 10
19.004828392939711
 20
58.795299827257168
 30
0.0
  0
VERTEX
  5
AB2
  8
0
 10
18.95992307628984
 20
58.794813400111188
 30
0.0
  0
VERTEX
  5
AB3
  8
0
 10
18.708399283429291
 20
58.773179409729259
 30
0.0
  0
SEQEND
  5
AB4
  8
0
  0
ARC
  5
877
  8
0
 10
28.628112088676581
 20
57.207800059462542
 30
0.0
 40
1.5875000000000039
 50
0.0072707244724105
 51
95.687738269781505
  0
ARC
  5
878
  8
0
 10
15.80311317080594
 20
57.207800059462542
 30
0.0
 40
1.5874999999999979
 50
84.341785839309296
 51
180.00000000000071
  0
ARC
  5
879
  8
0
 10
26.184362294871448
 20
56.810925059462491
 30
0.0
 40
1.984375000000016
 50
71.070371720092481
 51
93.075895659566044
  0
ARC
  5
87A
  8
0
 10
18.246862964610699
 20
56.810925059462491
 30
0.0
 40
1.9843750000000071
 50
86.989166603062628
 51
108.97978992985951
  0
ARC
  5
87B
  8
0
 10
22.215612629741258
 20
54.826550059462548
 30
0.0
 40
3.968749999999988
 50
79.566019847313882
 51
100.46078905934741
  0
ARC
  5
87C
  8
0
 10
16.117777254620108
 20
57.207800059462542
 30
0.0
 40
1.5874999999999959
 50
73.373533280955954
 51
170.2889389133689
  0
ARC
  5
87D
  8
0
 10
28.31507604693951
 20
57.2078000594625
 30
0.0
 40
1.587500000000001
 50
9.7034560357330371
 51
106.7154703868357
  0
ARC
  5
87E
  8
0
 10
25.427356848250579
 20
56.810925059462491
 30
0.0
 40
1.98437500000002
 50
81.502694808122257
 51
109.1752752989277
  0
ARC
  5
87F
  8
0
 10
19.005784997229679
 20
56.810925059462491
 30
0.0
 40
1.9843749999999969
 50
70.937055310139826
 51
98.592630827527799
  0
ARC
  5
880
  8
0
 10
23.443574273329919
 20
56.810925059462491
 30
0.0
 40
1.984375
 50
78.467611958367371
 51
109.1414994947182
  0
ARC
  5
881
  8
0
 10
20.990752087439549
 20
56.810925059462491
 30
0.0
 40
1.9843750000000271
 50
70.994179636062128
 51
101.6588307129722
  0
ARC
  5
882
  8
0
 10
17.029339951068831
 20
57.207800059462542
 30
0.0
 40
1.5875000000000019
 50
63.534458507525699
 51
161.57703370242871
  0
ARC
  5
883
  8
0
 10
27.40498202846678
 20
57.207800059462542
 30
0.0
 40
1.5874999999999959
 50
18.370548091232479
 51
116.6139833659828
  0
ARC
  5
884
  8
0
 10
18.448571152192638
 20
57.207800059462542
 30
0.0
 40
1.587500000000005
 50
55.835990206232459
 51
153.28707459513481
  0
ARC
  5
885
  8
0
 10
25.98691637678397
 20
57.207800059462542
 30
0.0
 40
1.5875000000000019
 50
26.619191454831149
 51
124.3664896889334
  0
ARC
  5
886
  8
0
 10
24.199689238122261
 20
57.207800059462542
 30
0.0
 40
1.5874999999999939
 50
44.818533096775447
 51
128.7362060012135
  0
ARC
  5
887
  8
0
 10
20.23654661966
 20
57.207800059462542
 30
0.0
 40
1.5875000000000019
 50
51.501203391807941
 51
135.15733939076031
  0
LINE
  5
888
  8
0
 10
30.21561262974123
 20
56.195300059462497
 30
0.0
 11
30.21561262974123
 21
57.160300059462543
 31
0.0
  0
LINE
  5
889
  8
0
 10
14.21561262974126
 20
57.160300059462543
 30
0.0
 11
14.21561262974126
 21
56.195300059462497
 31
0.0
  0
ARC
  5
88A
  8
0
 10
22.218246857157911
 20
57.207800059462542
 30
0.0
 40
1.587499999999991
 50
50.221970234043908
 51
129.77182339874159
  0
ARC
  5
88B
  8
0
 10
29.580612629741101
 20
57.160300059462543
 30
0.0
 40
0.6350000000000085
 50
0.0
 51
4.2759156097352111
  0
ARC
  5
88C
  8
0
 10
14.85061262974105
 20
57.160300059462543
 30
0.0
 40
0.6350000000000085
 50
175.73155319692441
 51
180.00000000000071
  0
LINE
  5
88E
  8
0
 10
17.308135341629139
 20
99.195300059462497
 30
0.0
 11
27.123089917853012
 21
99.195300059462497
 31
0.0
  0
LINE
  5
890
  8
0
 10
27.123089917852639
 20
99.195300059462497
 30
0.0
 11
32.030567205964793
 21
90.695300059462483
 31
0.0
  0
LINE
  5
892
  8
0
 10
17.308135341629541
 20
82.195300059462525
 30
0.0
 11
12.400658053517359
 21
90.695300059462483
 31
0.0
  0
LINE
  5
894
  8
0
 10
12.40065805351753
 20
90.695300059462213
 30
0.0
 11
17.308135341629111
 21
99.195300059462497
 31
0.0
  0
LINE
  5
895
  8
0
 10
32.030567205964587
 20
90.695300059462795
 30
0.0
 11
27.123089917853012
 21
82.195300059462525
 31
0.0
  0
LINE
  5
89E
  8
0
 10
27.12308991785298
 20
82.195300059462525
 30
0.0
 11
17.308135341629111
 21
82.195300059462525
 31
0.0
  0
CIRCLE
  5
89F
  8
0
 10
22.215612629741258
 20
90.695300059462483
 30
0.0
 40
8.0000000000000089
  0
ARC
  5
8A0
  8
0
 10
28.439079236235902
 20
88.778479160431871
 30
0.0
 40
1.497567182107856
 50
284.91192065069453
 51
335.06664969315369
  0
LINE
  5
8A1
  8
0
 10
29.848866149928401
 20
88.306790317016421
 30
0.0
 11
29.797071340738771
 21
88.147159186854935
 31
0.0
  0
ARC
  5
8A2
  8
0
 10
28.373723864951991
 20
88.591742946349314
 30
0.0
 40
1.50241231420983
 50
349.06685867218442
 51
39.048718425272618
  0
ARC
  5
8A3
  8
0
 10
16.889074392643519
 20
94.441462011434893
 30
0.0
 40
1.4975671820621561
 50
86.911920649874745
 51
137.06664969393691
  0
LINE
  5
8A4
  8
0
 10
15.69404723046617
 20
95.325712874341505
 30
0.0
 11
15.79263575331149
 21
95.46152562463088
 31
0.0
  0
ARC
  5
8A5
  8
0
 10
17.015537761960129
 20
94.598407814561057
 30
0.0
 40
1.508413031900018
 50
151.17305543351489
 51
200.9425216647131
  0
ARC
  5
8A6
  8
0
 10
12.463831699764
 20
83.604094054656343
 30
0.0
 40
6.7892068414144529
 50
28.893174714436931
 51
43.153899006419188
  0
ARC
  5
8A7
  8
0
 10
17.006810057769599
 20
86.787088866616116
 30
0.0
 40
1.497567182062014
 50
158.91192064987479
 51
209.0666496939734
  0
LINE
  5
8A8
  8
0
 10
15.79655381070722
 20
85.923799040810309
 30
0.0
 11
15.697853738560919
 21
86.059530745782482
 31
0.0
  0
ARC
  5
8A9
  8
0
 10
16.896625059286009
 20
86.955861598438361
 30
0.0
 40
1.508413031899462
 50
223.1730554333586
 51
272.94252166470892
  0
LINE
  5
8AA
  8
0
 10
19.749147852256382
 20
89.892776742685243
 30
0.0
 11
17.505448408212629
 21
89.162735456013593
 31
0.0
  0
ARC
  5
8AB
  8
0
 10
17.430842847599109
 20
80.306596723311202
 30
0.0
 40
6.6500665000926142
 50
73.623383126775437
 51
81.550984990855824
  0
LINE
  5
8AC
  8
0
 10
18.40793227098942
 20
86.884490057377377
 30
0.0
 11
16.974058112922592
 21
85.449437356398349
 31
0.0
  0
ARC
  5
8AD
  8
0
 10
18.469450677771729
 20
85.368761822365755
 30
0.0
 40
1.4975671820654111
 50
176.9119206499075
 51
227.06664969356319
  0
LINE
  5
8AE
  8
0
 10
17.585199814862129
 20
84.173734660187634
 30
0.0
 11
17.449387064572591
 21
84.272323183032938
 31
0.0
  0
ARC
  5
8AF
  8
0
 10
18.312504874642741
 20
85.495225191683161
 30
0.0
 40
1.508413031901487
 50
241.17305543354689
 51
290.94252166468658
  0
LINE
  5
8B0
  8
0
 10
19.771898465559499
 20
85.894366434614753
 30
0.0
 11
18.851658776409408
 21
84.086458729483965
 31
0.0
  0
ARC
  5
8B1
  8
0
 10
20.298791730674001
 20
84.471833452937247
 30
0.0
 40
1.4975671820649501
 50
194.91192064991949
 51
245.06664969381711
  0
LINE
  5
8B2
  8
0
 10
19.82710288729492
 20
83.062046539275059
 30
0.0
 11
19.667471757148942
 21
83.113841348459715
 31
0.0
  0
ARC
  5
8B3
  8
0
 10
20.112055516627549
 20
84.537188824252283
 30
0.0
 40
1.5024123142105521
 50
259.06685867220011
 51
309.04871842525949
  0
ARC
  5
8B4
  8
0
 10
10.857898462200181
 20
89.345667604603193
 30
0.0
 40
6.6500665000972763
 50
350.49608873000432
 51
358.4236905940798
  0
ARC
  5
8B5
  8
0
 10
12.238325950381549
 20
85.103079624550958
 30
0.0
 40
6.6500665000974291
 50
37.623383126778073
 51
45.550984990853159
  0
ARC
  5
8B6
  8
0
 10
16.059231737206879
 20
88.586684205528087
 30
0.0
 40
1.502412314204695
 50
140.9983552956426
 51
190.98021504875041
  0
LINE
  5
8B7
  8
0
 10
14.63625000797049
 20
88.140931186155726
 30
0.0
 11
14.58432406471462
 21
88.300519708259046
 31
0.0
  0
ARC
  5
8B8
  8
0
 10
16.00140480689268
 20
88.782540295962903
 30
0.0
 40
1.5084130319021869
 50
205.1730554336512
 51
254.942521664683
  0
LINE
  5
8B9
  8
0
 10
17.416688359603079
 20
88.247642314618673
 30
0.0
 11
15.609537325600259
 21
87.325917574763238
 31
0.0
  0
ARC
  5
8BA
  8
0
 10
33.57443181030812
 20
89.354999459575609
 30
0.0
 40
6.650066500102132
 50
181.62338312678199
 51
189.5509849908515
  0
LINE
  5
8BB
  8
0
 10
23.74103719191115
 20
88.597546003889391
 30
0.0
 11
25.128688973243531
 21
86.689256191200741
 31
0.0
  0
LINE
  5
8BC
  8
0
 10
20.69191207895102
 20
88.596293436303114
 30
0.0
 11
19.305828600320549
 21
86.686864185004723
 31
0.0
  0
ARC
  5
8BD
  8
0
 10
13.8203229039313
 20
82.927527579888931
 30
0.0
 40
6.6500665000946553
 50
26.496088730002668
 51
34.423690594081187
  0
ARC
  5
8BE
  8
0
 10
18.494362442561389
 20
79.226440876733491
 30
0.0
 40
6.7892068414140887
 50
64.893174714437606
 51
79.153899006420133
  0
LINE
  5
8BF
  8
0
 10
22.216678127371011
 20
88.101559317356731
 30
0.0
 11
22.217647391745398
 21
85.742079176314334
 31
0.0
  0
ARC
  5
8C0
  8
0
 10
19.989462675515249
 20
79.476412625493722
 30
0.0
 40
6.650066500097104
 50
62.49608873000394
 51
70.423690594079829
  0
ARC
  5
8C1
  8
0
 10
24.450979173248051
 20
79.478245397437433
 30
0.0
 40
6.6500665000937831
 50
109.6233831267762
 51
117.5509849908551
  0
LINE
  5
8C2
  8
0
 10
21.37507242887764
 20
85.374191645123645
 30
0.0
 11
21.058546681104701
 21
83.370399538453114
 31
0.0
  0
ARC
  5
8C3
  8
0
 10
22.31576456845605
 20
84.184101356399538
 30
0.0
 40
1.4975671820683141
 50
212.9119206499706
 51
263.06664969365801
  0
LINE
  5
8C4
  8
0
 10
22.302809935063468
 20
82.697554456909387
 30
0.0
 11
22.134986232253251
 21
82.697485515648566
 31
0.0
  0
ARC
  5
8C5
  8
0
 10
22.11445944308818
 20
84.194161942850997
 30
0.0
 40
1.5084130319003759
 50
277.17305543334362
 51
326.94252166468851
  0
ARC
  5
8C6
  8
0
 10
25.946284276220009
 20
79.229502094423154
 30
0.0
 40
6.7892068414178404
 50
100.89317471444249
 51
115.1538990064176
  0
LINE
  5
8C7
  8
0
 10
23.060524323443989
 20
85.374884021570395
 30
0.0
 11
23.378696262604819
 21
83.371352646001483
 31
0.0
  0
ARC
  5
8C8
  8
0
 10
24.32422848367591
 20
84.538919166930242
 30
0.0
 40
1.5024123142064409
 50
230.99835529567289
 51
280.98021504871792
  0
LINE
  5
8C9
  8
0
 10
24.769981503048029
 20
83.115937437691784
 30
0.0
 11
24.610392980944621
 21
83.064011494436059
 31
0.0
  0
ARC
  5
8CA
  8
0
 10
24.128372393240539
 20
84.481092236614174
 30
0.0
 40
1.508413031902351
 50
295.17305543363858
 51
344.94252166467692
  0
LINE
  5
8CB
  8
0
 10
22.214547132111139
 20
93.289040801568277
 30
0.0
 11
22.213577867736738
 21
95.648520942610674
 31
0.0
  0
LINE
  5
8CC
  8
0
 10
24.682735920976029
 20
89.894803439613071
 30
0.0
 11
26.927034403347339
 21
89.166605803340119
 31
0.0
  0
ARC
  5
8CD
  8
0
 10
32.197490461511961
 20
85.111278764173761
 30
0.0
 40
6.6500665000915227
 50
134.4960887300017
 51
142.42369059408409
  0
ARC
  5
8CE
  8
0
 10
27.008916065561721
 20
80.310531354916634
 30
0.0
 40
6.6500665000971999
 50
98.496088730006633
 51
106.4236905940818
  0
ARC
  5
8CF
  8
0
 10
30.617281456589751
 20
82.934427698794352
 30
0.0
 40
6.6500665000909791
 50
145.6233831267736
 51
153.55098499085639
  0
LINE
  5
8D0
  8
0
 10
24.663270374585039
 20
85.896375789324296
 30
0.0
 11
25.584995114440488
 21
84.089224755321681
 31
0.0
  0
ARC
  5
8D1
  8
0
 10
26.123823822587529
 20
85.486497487491221
 30
0.0
 40
1.497567182062326
 50
248.91192064987911
 51
299.0666496939362
  0
LINE
  5
8D2
  8
0
 10
26.987113648378461
 20
84.276241240417718
 30
0.0
 11
26.851381943406899
 21
84.177541168272256
 31
0.0
  0
ARC
  5
8D3
  8
0
 10
25.955051090764471
 20
85.376312489007574
 30
0.0
 40
1.5084130319001809
 50
313.17305543348232
 51
2.9425216647061121
  0
ARC
  5
8D4
  8
0
 10
10.15814982137374
 20
90.690346905187994
 30
0.0
 40
6.7892068414160232
 50
352.89317471443883
 51
7.153899006417654
  0
ARC
  5
8D5
  8
0
 10
15.70441392667578
 20
90.5951481207494
 30
0.0
 40
1.4975671820654179
 50
122.9119206499664
 51
173.06664969397161
  0
LINE
  5
8D6
  8
0
 10
14.217867027188159
 20
90.608102754122584
 30
0.0
 11
14.2177980859268
 21
90.775926456927252
 31
0.0
  0
ARC
  5
8D7
  8
0
 10
15.714474513128041
 20
90.796453246114694
 30
0.0
 40
1.50841303189885
 50
187.17305543331179
 51
236.94252166471711
  0
LINE
  5
8D8
  8
0
 10
16.895196591848979
 20
89.850388365759585
 30
0.0
 11
14.891665216280041
 21
89.532216426598694
 31
0.0
  0
LINE
  5
8D9
  8
0
 10
20.690188067571341
 20
92.793054115035545
 30
0.0
 11
19.302536286238588
 21
94.701343927724196
 31
0.0
  0
ARC
  5
8DA
  8
0
 10
12.45800891769383
 20
97.77849169230123
 30
0.0
 40
6.7892068414148863
 50
316.8931747144386
 51
331.15389900641969
  0
LINE
  5
8DB
  8
0
 10
17.504190856134809
 20
92.223994315584932
 30
0.0
 11
19.748489338506118
 21
91.495796679311937
 31
0.0
  0
ARC
  5
8DC
  8
0
 10
17.422309193921841
 20
101.0800687640012
 30
0.0
 40
6.650066500089963
 50
278.49608873000079
 51
286.42369059408531
  0
ARC
  5
8DD
  8
0
 10
13.81394380289021
 20
98.456172420131921
 30
0.0
 40
6.6500665000934998
 50
325.62338312677468
 51
333.55098499085432
  0
ARC
  5
8DE
  8
0
 10
18.307401436896779
 20
95.904102631391467
 30
0.0
 40
1.4975671821009591
 50
68.911920650542257
 51
119.0666496929318
  0
LINE
  5
8DF
  8
0
 10
17.444111611089959
 20
97.114358878497015
 30
0.0
 11
17.579843316061162
 21
97.213058950642477
 31
0.0
  0
ARC
  5
8E0
  8
0
 10
18.476174168716561
 20
96.014287629917462
 30
0.0
 40
1.508413031899061
 50
133.17305543330829
 51
182.94252166471429
  0
LINE
  5
8E1
  8
0
 10
18.40480262765595
 20
94.502980418214136
 30
0.0
 11
16.969749926676741
 21
95.936854576280766
 31
0.0
  0
ARC
  5
8E2
  8
0
 10
34.273075438106218
 20
90.700253213737156
 30
0.0
 40
6.7892068414137272
 50
172.89317471443829
 51
187.15389900642219
  0
LINE
  5
8E3
  8
0
 10
27.536721044079862
 20
89.854759858598968
 30
0.0
 11
29.540513150750598
 21
89.538234110826025
 31
0.0
  0
ARC
  5
8E4
  8
0
 10
28.726811332805259
 20
90.795451998176574
 30
0.0
 40
1.497567182066704
 50
302.9119206499509
 51
353.06664969380461
  0
LINE
  5
8E5
  8
0
 10
30.21335823229435
 20
90.782497364785058
 30
0.0
 11
30.21342717355498
 21
90.614673661978429
 31
0.0
  0
ARC
  5
8E6
  8
0
 10
28.716750746351551
 20
90.594146872808238
 30
0.0
 40
1.5084130319019819
 50
7.1730554336372476
 51
56.942521664684911
  0
ARC
  5
8E7
  8
0
 10
27.424415201673579
 20
94.603511252306276
 30
0.0
 40
1.497567182097437
 50
338.9119206505078
 51
29.0666496933387
  0
LINE
  5
8E8
  8
0
 10
28.634671448785749
 20
95.466801078099849
 30
0.0
 11
28.733371520930611
 21
95.33106937312904
 31
0.0
  0
ARC
  5
8E9
  8
0
 10
27.534600200195769
 20
94.43473852048642
 30
0.0
 40
1.5084130318997251
 50
43.173055433268047
 51
92.942521664695093
  0
ARC
  5
8EA
  8
0
 10
32.192899309103836
 20
96.287520494376977
 30
0.0
 40
6.6500665001017456
 50
217.62338312678199
 51
225.5509849908521
  0
LINE
  5
8EB
  8
0
 10
27.536028667633161
 20
91.540211753165494
 30
0.0
 11
29.539560043202101
 21
91.858383692326356
 31
0.0
  0
ARC
  5
8EC
  8
0
 10
28.371993522274181
 20
92.803915913397347
 30
0.0
 40
1.502412314205837
 50
320.99835529566082
 51
10.980215048728031
  0
LINE
  5
8ED
  8
0
 10
29.794975251511659
 20
93.249668932769325
 30
0.0
 11
29.846901194767501
 21
93.09008041066599
 31
0.0
  0
ARC
  5
8EE
  8
0
 10
28.42982045259015
 20
92.608059822962943
 30
0.0
 40
1.508413031901205
 50
25.17305543360731
 51
74.942521664697281
  0
LINE
  5
8EF
  8
0
 10
27.014536899879431
 20
93.142957804306363
 30
0.0
 11
28.821687933881861
 21
94.064682544161798
 31
0.0
  0
ARC
  5
8F0
  8
0
 10
25.936862816921099
 20
102.1641592421925
 30
0.0
 40
6.7892068414151892
 50
244.89317471443951
 51
259.1538990064202
  0
ARC
  5
8F1
  8
0
 10
24.132433528771688
 20
96.918766665957122
 30
0.0
 40
1.497567182108001
 50
14.911920650693901
 51
65.066649693114854
  0
LINE
  5
8F2
  8
0
 10
24.60412237218722
 20
98.328553579649892
 30
0.0
 11
24.763753502349768
 21
98.276758770459637
 31
0.0
  0
ARC
  5
8F3
  8
0
 10
24.319169742853859
 20
96.853411294675112
 30
0.0
 40
1.5024123142082619
 50
79.06685867215613
 51
129.04871842529951
  0
ARC
  5
8F4
  8
0
 10
30.610902355549371
 20
98.463072539035267
 30
0.0
 40
6.6500665000928842
 50
206.49608873000309
 51
214.42369059408389
  0
LINE
  5
8F5
  8
0
 10
26.023292988492731
 20
94.506110061547673
 30
0.0
 11
27.457167146559161
 21
95.941162762526702
 31
0.0
  0
ARC
  5
8F6
  8
0
 10
25.961774581711499
 20
96.021838296559565
 30
0.0
 40
1.4975671820640091
 50
356.91192064989337
 51
47.066649693736821
  0
LINE
  5
8F7
  8
0
 10
26.846025444639139
 20
97.216865458723746
 30
0.0
 11
26.981838194927949
 21
97.118276935878256
 31
0.0
  0
ARC
  5
8F8
  8
0
 10
26.118720384839751
 20
95.895374927241534
 30
0.0
 40
1.5084130319018569
 50
61.173055433666001
 51
110.942521664691
  0
LINE
  5
8F9
  8
0
 10
24.659326793922649
 20
95.496233684310312
 30
0.0
 11
25.579566483072711
 21
97.304141389441014
 31
0.0
  0
ARC
  5
8FA
  8
0
 10
18.484940983262099
 20
102.1610980245012
 30
0.0
 40
6.7892068414172559
 50
280.89317471444173
 51
295.1538990064177
  0
ARC
  5
8FB
  8
0
 10
20.106996775806209
 20
96.85168095199468
 30
0.0
 40
1.5024123142064969
 50
50.998355295673107
 51
100.9802150487196
  0
LINE
  5
8FC
  8
0
 10
19.661243756434459
 20
98.274662681233224
 30
0.0
 11
19.820832278537519
 21
98.326588624488906
 31
0.0
  0
ARC
  5
8FD
  8
0
 10
20.302852866240499
 20
96.909507882311473
 30
0.0
 40
1.508413031901074
 50
115.1730554335136
 51
164.9425216646915
  0
LINE
  5
8FE
  8
0
 10
19.76795488489708
 20
95.494224329600655
 30
0.0
 11
18.846230145041659
 21
97.301375363603327
 31
0.0
  0
ARC
  5
8FF
  8
0
 10
24.44176258396363
 20
101.914187493424
 30
0.0
 40
6.6500665000891486
 50
242.49608873000199
 51
250.42369059408671
  0
ARC
  5
900
  8
0
 10
19.98024608623518
 20
101.9123547214849
 30
0.0
 40
6.6500665000908894
 50
289.6233831267736
 51
297.55098499085682
  0
LINE
  5
901
  8
0
 10
23.05615283060451
 20
96.016408473801377
 30
0.0
 11
23.372678578377421
 21
98.020200580471922
 31
0.0
  0
ARC
  5
902
  8
0
 10
22.115460691026811
 20
97.206498762526493
 30
0.0
 40
1.4975671820669501
 50
32.911920649955192
 51
83.066649693812934
  0
LINE
  5
903
  8
0
 10
22.128415324418679
 20
98.693045662015663
 30
0.0
 11
22.296239027224551
 21
98.69311460327647
 31
0.0
  0
ARC
  5
904
  8
0
 10
22.316765816395389
 20
97.196438176073244
 30
0.0
 40
1.508413031901759
 50
97.173055433662853
 51
146.94252166469121
  0
LINE
  5
905
  8
0
 10
21.370700936038158
 20
96.015716097354584
 30
0.0
 11
21.052528996877331
 21
98.019247472923524
 31
0.0
  0
ARC
  5
906
  8
0
 10
17.238672005129931
 20
94.308136287465473
 30
0.0
 40
3.769408059431091
 50
311.7466916445112
 51
336.3003820763463
  0
ARC
  5
907
  8
0
 10
16.065611230667852
 20
90.692773665128826
 30
0.0
 40
3.7694080594309471
 50
347.74669164450978
 51
12.30038207634575
  0
ARC
  5
908
  8
0
 10
17.24164195979159
 20
87.078376039558265
 30
0.0
 40
3.7694080594314761
 50
23.74669164451301
 51
48.300382076345372
  0
ARC
  5
909
  8
0
 10
20.317560425791129
 20
84.845520454864968
 30
0.0
 40
3.7694080594318509
 50
59.746691644513568
 51
84.300382076343723
  0
ARC
  5
90A
  8
0
 10
24.118470321278352
 20
84.847081852432623
 30
0.0
 40
3.769408059431425
 50
95.746691644513547
 51
120.30038207634659
  0
ARC
  5
90B
  8
0
 10
27.192553254352561
 20
87.082463831459123
 30
0.0
 40
3.7694080594317771
 50
131.7466916445145
 51
156.30038207634519
  0
ARC
  5
90C
  8
0
 10
28.36561402881463
 20
90.697826453796296
 30
0.0
 40
3.769408059431143
 50
167.74669164451231
 51
192.3003820763472
  0
ARC
  5
90D
  8
0
 10
24.113664833690621
 20
96.545079664059372
 30
0.0
 40
3.7694080594311781
 50
239.74669164451191
 51
264.30038207634698
  0
ARC
  5
90E
  8
0
 10
20.312754938203771
 20
96.543518266492057
 30
0.0
 40
3.7694080594310799
 50
275.74669164451188
 51
300.30038207634772
  0
ARC
  5
90F
  8
0
 10
31.97321634178866
 20
83.612108426623394
 30
0.0
 40
6.7892068414155817
 50
136.89317471443999
 51
151.15389900641989
  0
LINE
  5
910
  8
0
 10
26.026422631826161
 20
86.887619700710815
 30
0.0
 11
27.461475332805382
 21
85.453745542644256
 31
0.0
  0
ARC
  5
911
  8
0
 10
27.5421508668386
 20
86.949138107489077
 30
0.0
 40
1.4975671820612191
 50
266.91192064986649
 51
317.06664969405142
  0
LINE
  5
912
  8
0
 10
28.737178029002251
 20
86.064887244564417
 30
0.0
 11
28.63858950616196
 21
85.929074494282446
 31
0.0
  0
ARC
  5
913
  8
0
 10
27.415687497522018
 20
86.792192304363979
 30
0.0
 40
1.508413031900173
 50
331.17305543348368
 51
20.94252166470724
  0
LINE
  5
914
  8
0
 10
27.016546254588722
 20
88.251585895280996
 30
0.0
 11
28.824453959719591
 21
87.331346206130732
 31
0.0
  0
ARC
  5
915
  8
0
 10
27.189583299690181
 20
94.312224079366246
 30
0.0
 40
3.7694080594307371
 50
203.74669164451089
 51
228.30038207634831
  0
LINE
  5
916
  8
0
 10
24.6820774072261
 20
91.497823376239822
 30
0.0
 11
26.925776851269489
 21
92.227864662911443
 31
0.0
  0
ARC
  5
917
  8
0
 10
33.573326797283393
 20
92.044932514321658
 30
0.0
 40
6.650066500098923
 50
170.4960887300056
 51
178.42369059407929
  0
ARC
  5
918
  8
0
 10
31.96739355971852
 20
97.786506064269076
 30
0.0
 40
6.7892068414149547
 50
208.89317471443891
 51
223.15389900642029
  0
ARC
  5
919
  8
0
 10
27.000382411884122
 20
101.0840033956176
 30
0.0
 40
6.6500665000964538
 50
253.6233831267788
 51
261.550984990855
  0
LINE
  5
91A
  8
0
 10
23.739313180531099
 20
92.794306682621936
 30
0.0
 11
25.125396659161598
 21
94.703735933920285
 31
0.0
  0
ARC
  5
91B
  8
0
 10
10.856793449180509
 20
92.035600659349996
 30
0.0
 40
6.650066500095793
 50
1.623383126777932
 51
9.5509849908548237
  0
LINE
  5
91C
  8
0
 10
17.414679004893429
 20
93.139014223643969
 30
0.0
 11
15.606771299762549
 21
94.059253912794219
 31
0.0
  0
ARC
  5
91D
  8
0
 10
15.99214602321555
 20
92.612120958529374
 30
0.0
 40
1.497567182064901
 50
104.9119206499175
 51
155.06664969380611
  0
LINE
  5
91E
  8
0
 10
14.582359109553749
 20
93.083809801908487
 30
0.0
 11
14.63415391873832
 21
93.243440932054369
 31
0.0
  0
ARC
  5
91F
  8
0
 10
16.057501394526518
 20
92.798857172575197
 30
0.0
 40
1.502412314206464
 50
169.0668586721429
 51
219.0487184251599
  0
LINE
  5
920
  8
0
 10
14.89071210873081
 20
91.852366008099196
 30
0.0
 11
16.894504215402261
 21
91.535840260325998
 31
0.0
  0
ARC
  5
921
  8
0
 10
12.233734797969079
 20
96.279321354752099
 30
0.0
 40
6.6500665000930246
 50
314.49608873000358
 51
322.42369059408378
  0
CIRCLE
  5
92B
  8
0
 10
22.215612629741258
 20
90.695300059462483
 30
0.0
 40
8.4999999999999716
  0
LINE
  5
934
  8
1
 10
22.215612629741258
 20
7.7953000650625484
 30
0.0
 11
22.215612629741258
 21
61.795300057134163
 31
0.0
  0
LINE
  5
935
  8
1
 10
35.030567205964793
 20
90.695300059462483
 30
0.0
 11
9.4006580535173612
 21
90.695300059462483
 31
0.0
  0
LINE
  5
936
  8
1
 10
95.320761638727717
 20
7.7953000650625439
 30
0.0
 11
95.320761638727717
 21
61.795300057134163
 31
0.0
  0
LINE
  5
941
  8
1
 10
22.215612629741258
 20
79.195300059462525
 30
0.0
 11
22.215612629741258
 21
102.1953000594625
 31
0.0
  0
LINE
  5
966
  8
0
 10
27.215612629741148
 20
40.033300065063337
 30
0.0
 11
17.215612629741109
 21
40.033300065063337
 31
0.0
  0
ARC
  5
967
  8
0
 10
16.453612629741059
 20
40.033300065063329
 30
0.0
 40
0.7620000000000178
 50
0.0
 51
89.999999999999986
  0
ARC
  5
968
  8
0
 10
27.97761262974117
 20
40.033300065063329
 30
0.0
 40
0.7620000000000178
 50
89.999999999999986
 51
180.0
  0
LINE
  5
969
  8
0
 10
17.21561262974123
 20
37.795300065062548
 30
0.0
 11
27.21561262974123
 21
37.795300065062548
 31
0.0
  0
LINE
  5
96A
  8
0
 10
17.21561262974123
 20
12.295300065062539
 30
0.0
 11
27.21561262974123
 21
12.295300065062539
 31
0.0
  0
LINE
  5
96B
  8
0
 10
25.71561262974123
 20
10.795300065062539
 30
0.0
 11
27.21561262974123
 21
12.295300065062539
 31
0.0
  0
LINE
  5
96C
  8
0
 10
17.21561262974123
 20
12.295300065062539
 30
0.0
 11
18.71561262974123
 21
10.795300065062539
 31
0.0
  0
LINE
  5
96D
  8
0
 10
27.21561262974123
 20
40.033300065063337
 30
0.0
 11
27.21561262974123
 21
12.295300065062539
 31
0.0
  0
LINE
  5
96E
  8
3
 10
26.403612629741222
 20
37.795300065062563
 30
0.0
 11
26.403612629741222
 21
11.48330006506254
 31
0.0
  0
LINE
  5
96F
  8
3
 10
18.027612629741238
 20
37.795300065062492
 30
0.0
 11
18.027612629741238
 21
11.48330006506254
 31
0.0
  0
LINE
  5
970
  8
0
 10
17.21561262974123
 20
40.033300065063337
 30
0.0
 11
17.21561262974123
 21
12.295300065062539
 31
0.0
  0
LINE
  5
971
  8
0
 10
18.71561262974123
 20
10.795300065062539
 30
0.0
 11
25.71561262974123
 21
10.795300065062539
 31
0.0
  0
LINE
  5
972
  8
3
 10
27.21561262974117
 20
39.201725018106018
 30
0.0
 11
26.403612629741222
 21
37.795300065062548
 31
0.0
  0
LINE
  5
973
  8
3
 10
17.215612629741202
 20
39.201725018106089
 30
0.0
 11
18.027612629741238
 21
37.795300065062548
 31
0.0
  0
LINE
  5
974
  8
0
 10
100.3207616387276
 20
40.033300065063337
 30
0.0
 11
90.320761638727575
 21
40.033300065063337
 31
0.0
  0
ARC
  5
975
  8
0
 10
89.558761638727489
 20
40.033300065063329
 30
0.0
 40
0.7620000000000178
 50
0.0
 51
89.999999999999986
  0
ARC
  5
976
  8
0
 10
101.0827616387276
 20
40.033300065063329
 30
0.0
 40
0.7620000000000178
 50
89.999999999999986
 51
180.0
  0
LINE
  5
977
  8
0
 10
90.320761638727674
 20
37.795300065062548
 30
0.0
 11
100.3207616387276
 21
37.795300065062548
 31
0.0
  0
LINE
  5
978
  8
0
 10
90.320761638727674
 20
12.29530006506255
 30
0.0
 11
100.3207616387276
 21
12.29530006506255
 31
0.0
  0
LINE
  5
979
  8
0
 10
98.820761638727674
 20
10.79530006506255
 30
0.0
 11
100.3207616387276
 21
12.29530006506255
 31
0.0
  0
LINE
  5
97A
  8
0
 10
90.320761638727674
 20
12.29530006506255
 30
0.0
 11
91.820761638727674
 21
10.79530006506255
 31
0.0
  0
LINE
  5
97B
  8
0
 10
100.3207616387276
 20
40.033300065063337
 30
0.0
 11
100.3207616387276
 21
12.29530006506255
 31
0.0
  0
LINE
  5
97C
  8
3
 10
99.508761638727663
 20
37.795300065062563
 30
0.0
 11
99.508761638727663
 21
11.483300065062551
 31
0.0
  0
LINE
  5
97D
  8
3
 10
91.132761638727686
 20
37.795300065062492
 30
0.0
 11
91.132761638727686
 21
11.483300065062551
 31
0.0
  0
LINE
  5
97E
  8
0
 10
90.320761638727674
 20
40.033300065063337
 30
0.0
 11
90.320761638727674
 21
12.29530006506255
 31
0.0
  0
LINE
  5
97F
  8
0
 10
91.820761638727674
 20
10.79530006506255
 30
0.0
 11
98.820761638727674
 21
10.79530006506255
 31
0.0
  0
LINE
  5
980
  8
3
 10
100.3207616387276
 20
39.201725018106018
 30
0.0
 11
99.508761638727663
 21
37.795300065062548
 31
0.0
  0
LINE
  5
981
  8
3
 10
90.320761638727646
 20
39.201725018106089
 30
0.0
 11
91.132761638727686
 21
37.795300065062548
 31
0.0
  0
TEXT
  5
A34
  8
0
 62
     3
 10
0.0
 20
0.0
 30
0.0
 40
5.0
  1
MBUH-10030-60UR
  7
STANDARD1
  0
ENDSEC
  0
EOF
