  0
SECTION
  2
HEADER
  9
$ACADVER
  1
AC1009
  9
$INSBASE
 10
82.638099999999994
 20
103.82319099999999
 30
0.0
  9
$EXTMIN
 10
0.0
 20
-1.4802182810368341
 30
0.0
  9
$EXTMAX
 10
103.2369056040305
 20
163.65105819643111
 30
0.0
  9
$LIMMIN
 10
0.0
 20
0.0
  9
$LIMMAX
 10
187.5
 20
135.0
  9
$ORTHOMODE
 70
     1
  9
$REGENMODE
 70
     1
  9
$FILLMODE
 70
     1
  9
$QTEXTMODE
 70
     0
  9
$MIRRTEXT
 70
     0
  9
$DRAGMODE
 70
     2
  9
$LTSCALE
 40
5.0
  9
$OSMODE
 70
  3071
  9
$ATTMODE
 70
     1
  9
$TEXTSIZE
 40
0.06
  9
$TRACEWID
 40
0.05
  9
$TEXTSTYLE
  7
STANDARD
  9
$CLAYER
  8
0
  9
$CELTYPE
  6
BYLAYER
  9
$CECOLOR
 62
   256
  9
$DIMSCALE
 40
0.5
  9
$DIMASZ
 40
3.0
  9
$DIMEXO
 40
2.0
  9
$DIMDLI
 40
10.0
  9
$DIMRND
 40
0.0
  9
$DIMDLE
 40
0.0
  9
$DIMEXE
 40
2.0
  9
$DIMTP
 40
0.0
  9
$DIMTM
 40
0.0
  9
$DIMTXT
 40
3.0
  9
$DIMCEN
 40
0.0
  9
$DIMTSZ
 40
0.0
  9
$DIMTOL
 70
     0
  9
$DIMLIM
 70
     0
  9
$DIMTIH
 70
     0
  9
$DIMTOH
 70
     0
  9
$DIMSE1
 70
     0
  9
$DIMSE2
 70
     0
  9
$DIMTAD
 70
     1
  9
$DIMZIN
 70
     0
  9
$DIMBLK
  1

  9
$DIMASO
 70
     0
  9
$DIMSHO
 70
     0
  9
$DIMPOST
  1

  9
$DIMAPOST
  1

  9
$DIMALT
 70
     0
  9
$DIMALTD
 70
     2
  9
$DIMALTF
 40
25.399999999999999
  9
$DIMLFAC
 40
1.0
  9
$DIMTOFL
 70
     1
  9
$DIMTVP
 40
1.6000000000000001
  9
$DIMTIX
 70
     1
  9
$DIMSOXD
 70
     0
  9
$DIMSAH
 70
     0
  9
$DIMBLK1
  1

  9
$DIMBLK2
  1

  9
$DIMSTYLE
  2
STANDARD
  9
$DIMCLRD
 70
     0
  9
$DIMCLRE
 70
     0
  9
$DIMCLRT
 70
     0
  9
$DIMTFAC
 40
1.0
  9
$DIMGAP
 40
0.09
  9
$LUNITS
 70
     2
  9
$LUPREC
 70
     4
  9
$SKETCHINC
 40
0.1
  9
$FILLETRAD
 40
0.4
  9
$AUNITS
 70
     0
  9
$AUPREC
 70
     4
  9
$MENU
  1
E:\r13\win\SUPPORT\ACAD
  9
$ELEVATION
 40
0.0
  9
$PELEVATION
 40
0.0
  9
$THICKNESS
 40
0.0
  9
$LIMCHECK
 70
     0
  9
$BLIPMODE
 70
     0
  9
$CHAMFERA
 40
0.0
  9
$CHAMFERB
 40
0.0
  9
$SKPOLY
 70
     0
  9
$TDCREATE
 40
2449840.5905787041
  9
$TDUPDATE
 40
2456597.6356990738
  9
$TDINDWG
 40
0.059124537
  9
$TDUSRTIMER
 40
0.059124537
  9
$USRTIMER
 70
     1
  9
$ANGBASE
 50
0.0
  9
$ANGDIR
 70
     0
  9
$PDMODE
 70
     0
  9
$PDSIZE
 40
0.0
  9
$PLINEWID
 40
0.0
  9
$COORDS
 70
     1
  9
$SPLFRAME
 70
     0
  9
$SPLINETYPE
 70
     6
  9
$SPLINESEGS
 70
     8
  9
$ATTDIA
 70
     0
  9
$ATTREQ
 70
     1
  9
$HANDLING
 70
     1
  9
$HANDSEED
  5
F21
  9
$SURFTAB1
 70
     6
  9
$SURFTAB2
 70
     6
  9
$SURFTYPE
 70
     6
  9
$SURFU
 70
     6
  9
$SURFV
 70
     6
  9
$UCSNAME
  2

  9
$UCSORG
 10
0.0
 20
0.0
 30
0.0
  9
$UCSXDIR
 10
1.0
 20
0.0
 30
0.0
  9
$UCSYDIR
 10
0.0
 20
1.0
 30
0.0
  9
$PUCSNAME
  2

  9
$PUCSORG
 10
0.0
 20
0.0
 30
0.0
  9
$PUCSXDIR
 10
1.0
 20
0.0
 30
0.0
  9
$PUCSYDIR
 10
0.0
 20
1.0
 30
0.0
  9
$USERI1
 70
     3
  9
$USERI2
 70
     1
  9
$USERI3
 70
     0
  9
$USERI4
 70
     0
  9
$USERI5
 70
     0
  9
$USERR1
 40
0.5
  9
$USERR2
 40
3.0
  9
$USERR3
 40
3.0
  9
$USERR4
 40
3.0
  9
$USERR5
 40
10.0
  9
$WORLDVIEW
 70
     1
  9
$SHADEDGE
 70
     3
  9
$SHADEDIF
 70
    70
  9
$TILEMODE
 70
     1
  9
$MAXACTVP
 70
    16
  9
$PLIMCHECK
 70
     0
  9
$PEXTMIN
 10
1.0000000000000000E+020
 20
1.0000000000000000E+020
 30
1.0000000000000000E+020
  9
$PEXTMAX
 10
-1.0000000000000000E+020
 20
-1.0000000000000000E+020
 30
-1.0000000000000000E+020
  9
$PLIMMIN
 10
0.0
 20
0.0
  9
$PLIMMAX
 10
12.0
 20
9.0
  9
$UNITMODE
 70
     0
  9
$VISRETAIN
 70
     0
  9
$PLINEGEN
 70
     0
  9
$PSLTSCALE
 70
     0
  0
ENDSEC
  0
SECTION
  2
TABLES
  0
TABLE
  2
VPORT
 70
     1
  0
VPORT
  2
*ACTIVE
 70
     0
 10
0.0
 20
0.0
 11
1.0
 21
1.0
 12
93.747139195326184
 22
81.440147942870553
 13
0.0
 23
0.0
 14
5.0
 24
5.0
 15
10.0
 25
10.0
 16
0.0
 26
0.0
 36
1.0
 17
0.0
 27
0.0
 37
0.0
 40
167.76009223739459
 41
2.304913294797688
 42
50.0
 43
0.0
 44
0.0
 50
0.0
 51
0.0
 71
     0
 72
   100
 73
     1
 74
     0
 75
     0
 76
     0
 77
     0
 78
     2
  0
ENDTAB
  0
TABLE
  2
LTYPE
 70
     3
  0
LTYPE
  2
CONTINUOUS
 70
     0
  3
Solid Line
 72
    65
 73
     0
 40
0.0
  0
LTYPE
  2
CENTER
 70
     0
  3
____ _ ____ _ ____ _ ____ _ ____ _ ____ _ ____
 72
    65
 73
     4
 40
2.0
 49
1.25
 49
-0.25
 49
0.25
 49
-0.25
  0
LTYPE
  2
PHANTOM2
 70
     0
  3
___ _ _ ___ _ _ ___ _ _ ___ _ _
 72
    65
 73
     6
 40
1.25
 49
0.625
 49
-0.125
 49
0.125
 49
-0.125
 49
0.125
 49
-0.125
  0
ENDTAB
  0
TABLE
  2
LAYER
 70
     3
  0
LAYER
  2
0
 70
     0
 62
     7
  6
CONTINUOUS
  0
LAYER
  2
1
 70
     0
 62
     1
  6
CENTER
  0
LAYER
  2
3
 70
     0
 62
     3
  6
CONTINUOUS
  0
ENDTAB
  0
TABLE
  2
STYLE
 70
     2
  0
STYLE
  2
STANDARD
 70
     0
 40
0.0
 41
1.0
 50
0.0
 71
     0
 42
0.06
  3
TXT
  4
BIGFONT
  0
STYLE
  2
STANDARD1
 70
     0
 40
0.0
 41
1.0
 50
0.0
 71
     0
 42
3.0
  3
txt
  4

  0
ENDTAB
  0
TABLE
  2
VIEW
 70
     0
  0
ENDTAB
  0
TABLE
  2
UCS
 70
     0
  0
ENDTAB
  0
TABLE
  2
APPID
 70
     3
  0
APPID
  2
ACAD
 70
     0
  0
APPID
  2
ACAD_MLEADERVER
 70
     0
  0
APPID
  2
ACAD_NAV_VCDISPLAY
 70
     0
  0
ENDTAB
  0
TABLE
  2
DIMSTYLE
 70
     1
  0
DIMSTYLE
  2
STANDARD
 70
     0
  3

  4

  5

  6

  7

 40
1.0
 41
0.18
 42
0.0625
 43
0.38
 44
0.18
 45
0.0
 46
0.0
 47
0.0
 48
0.0
140
0.18
141
0.09
142
0.0
143
25.399999999999999
144
1.0
145
0.0
146
1.0
147
0.09
 71
     0
 72
     0
 73
     1
 74
     1
 75
     0
 76
     0
 77
     0
 78
     0
170
     0
171
     2
172
     0
173
     0
174
     0
175
     0
176
     0
177
     0
178
     0
  0
ENDTAB
  0
ENDSEC
  0
SECTION
  2
BLOCKS
  0
BLOCK
  8
0
  2
$MODEL_SPACE
 70
     0
 10
0.0
 20
0.0
 30
0.0
  3
$MODEL_SPACE
  1

  0
ENDBLK
  5
11B
  8
0
  0
BLOCK
 67
     1
  8
0
  2
$PAPER_SPACE
 70
     0
 10
0.0
 20
0.0
 30
0.0
  3
$PAPER_SPACE
  1

  0
ENDBLK
  5
119
 67
     1
  8
0
  0
ENDSEC
  0
SECTION
  2
ENTITIES
  0
LINE
  5
9DC
  8
0
 10
36.50083445244892
 20
156.1343041613836
 30
0.0
 11
36.500242939443503
 21
157.57422419381331
 31
0.0
  0
ARC
  5
9DD
  8
0
 10
38.001911046222041
 20
156.7293911351064
 30
0.0
 40
1.723006094011279
 50
150.08052502000399
 51
150.63805123126889
  0
ARC
  5
9DE
  8
0
 10
33.798467109817238
 20
163.24382890354229
 30
0.0
 40
6.270874036013792
 50
295.6051902094834
 51
305.0134715021436
  0
ARC
  5
9DF
  8
0
 10
39.731480146831387
 20
164.32150337161531
 30
0.0
 40
6.6378688211148953
 50
249.4046006844508
 51
264.9281873221251
  0
ARC
  5
9E0
  8
0
 10
44.612265808529337
 20
160.78032316141829
 30
0.0
 40
6.2708740360160959
 50
209.31931650443229
 51
218.72759779708881
  0
ARC
  5
9E1
  8
0
 10
38.001911046222041
 20
156.7293911351064
 30
0.0
 40
1.7230060940112839
 50
3.6947367753034559
 51
4.2522629865684598
  0
LINE
  5
9E2
  8
0
 10
39.097110991601262
 20
155.5428429791896
 30
0.0
 11
39.721335944499259
 21
156.8404227485523
 31
0.0
  0
ARC
  5
9E3
  8
0
 10
38.903922435497947
 20
160.6888580934251
 30
0.0
 40
5.1496401208384741
 50
242.18283448704261
 51
272.14995351953161
  0
LINE
  5
9E4
  8
0
 10
44.059685416626301
 20
152.79863919744159
 30
0.0
 11
45.888968422707563
 21
153.4395765978727
 31
0.0
  0
ARC
  5
9E5
  8
0
 10
45.336768545661982
 20
152.0813637453621
 30
0.0
 40
1.466174224617953
 50
19.49903783352547
 51
67.875131801612483
  0
LINE
  5
9E6
  8
0
 10
46.718853421565342
 20
152.57075954911511
 30
0.0
 11
46.755209990680612
 21
152.4117720950378
 31
0.0
  0
ARC
  5
9E7
  8
0
 10
45.311551721060987
 20
152.24738736656511
 30
0.0
 40
1.45298710881987
 50
317.65244191272848
 51
6.4961073228810164
  0
LINE
  5
9E8
  8
0
 10
44.459373062999703
 20
151.05080317029731
 30
0.0
 11
46.385414113859639
 21
151.2686171689551
 31
0.0
  0
ARC
  5
9E9
  8
0
 10
48.665919717145186
 20
155.70148338098809
 30
0.0
 40
6.2708740360187258
 50
218.462333066631
 51
227.87061435928391
  0
ARC
  5
9EA
  8
0
 10
45.191521931179409
 20
152.13784527529691
 30
0.0
 40
1.47478812037528
 50
192.55830940424721
 51
193.20305003089771
  0
ARC
  5
9EB
  8
0
 10
49.869448587931707
 20
150.4384457585719
 30
0.0
 40
6.270874036012887
 50
157.89074507585701
 51
167.29902636851909
  0
LINE
  5
9EC
  8
0
 10
43.281088668860001
 20
154.4137144578599
 30
0.0
 11
44.921885741817022
 21
155.4456359824849
 31
0.0
  0
ARC
  5
9ED
  8
0
 10
44.685761461034218
 20
153.9986003295179
 30
0.0
 40
1.4661742246176199
 50
32.356180690648422
 51
80.732274658760247
  0
LINE
  5
9EE
  8
0
 10
45.924293772231152
 20
154.78326877609391
 30
0.0
 11
45.9951168430214
 21
154.6363575671422
 31
0.0
  0
ARC
  5
9EF
  8
0
 10
44.624233143625268
 20
154.15485012054819
 30
0.0
 40
1.4529871088196269
 50
330.50958476986813
 51
19.353250180028049
  0
ARC
  5
9F0
  8
0
 10
49.59493467623264
 20
156.46228739566669
 30
0.0
 40
6.637868821114945
 50
197.9760292558781
 51
213.4996158935534
  0
LINE
  5
9F1
  8
0
 10
42.162624911770592
 20
155.81504233402759
 30
0.0
 11
43.53265963499345
 21
157.1862031286731
 31
0.0
  0
ARC
  5
9F2
  8
0
 10
43.624451207880583
 20
155.7229050851831
 30
0.0
 40
1.4661742246180951
 50
45.213323547804897
 51
93.589417515896486
  0
LINE
  5
9F3
  8
0
 10
44.65732577262753
 20
156.7634996221816
 30
0.0
 11
44.759063980592003
 21
156.6360313998201
 31
0.0
  0
ARC
  5
9F4
  8
0
 10
43.498560924632187
 20
155.85728729355699
 30
0.0
 40
1.481657969007502
 50
343.86917338980822
 51
31.70794727461503
  0
ARC
  5
9F5
  8
0
 10
45.053201726367739
 20
160.42898473333059
 30
0.0
 40
6.2708740360136721
 50
244.17661878091349
 51
253.58490007357261
  0
ARC
  5
9F6
  8
0
 10
43.469082112664381
 20
155.71077304108019
 30
0.0
 40
1.4747881203752731
 50
218.2725951185331
 51
218.917335745184
  0
ARC
  5
9F7
  8
0
 10
48.421090213304211
 20
156.20934329153241
 30
0.0
 40
6.2708740360167718
 50
183.60503079014629
 51
193.01331208280089
  0
LINE
  5
9F8
  8
0
 10
40.760378588436502
 20
156.93235439479821
 30
0.0
 11
41.790951700135977
 21
158.57399873175149
 31
0.0
  0
ARC
  5
9F9
  8
0
 10
42.206056313940643
 20
157.16781417184109
 30
0.0
 40
1.466174224617371
 50
58.070466404909787
 51
106.44656037304981
  0
LINE
  5
9FA
  8
0
 10
42.981480488652288
 20
158.41215504403129
 30
0.0
 11
43.109032255221813
 21
158.31052159719019
 31
0.0
  0
ARC
  5
9FB
  8
0
 10
42.053419508406137
 20
157.270813914277
 30
0.0
 40
1.4816579690159459
 50
356.72631624709572
 51
44.565090131613289
  0
ARC
  5
9FC
  8
0
 10
45.560114791698908
 20
161.51752994928131
 30
0.0
 40
6.6378688211154229
 50
223.69031497016451
 51
239.21390160783849
  0
LINE
  5
9FD
  8
0
 10
39.144664184780453
 20
157.70962394795581
 30
0.0
 11
39.784098445837429
 21
159.5394329252525
 31
0.0
  0
ARC
  5
9FE
  8
0
 10
40.492409232216517
 20
158.3646659527476
 30
0.0
 40
1.3717804524738171
 50
69.143971493855133
 51
121.0873409979659
  0
LINE
  5
9FF
  8
0
 10
40.98079180056439
 20
159.64656457460609
 30
0.0
 11
41.1277611475534
 21
159.57586222869421
 31
0.0
  0
ARC
  5
A00
  8
0
 10
40.329971540874958
 20
158.32732625379711
 30
0.0
 40
1.4816579690119049
 50
9.583459104169453
 51
57.422232988824852
  0
ARC
  5
A01
  8
0
 10
39.747069324730319
 20
163.12081668454809
 30
0.0
 40
6.2708740360151651
 50
269.89090449519961
 51
279.29918578785703
  0
ARC
  5
A02
  8
0
 10
40.366982200731883
 20
158.18253109645281
 30
0.0
 40
1.4747881203752651
 50
243.98688083281891
 51
244.6316214594693
  0
LINE
  5
A03
  8
0
 10
37.396500367637543
 20
158.10787545250989
 30
0.0
 11
37.612731874157618
 21
160.03409480741141
 31
0.0
  0
ARC
  5
A04
  8
0
 10
38.564694074200503
 20
159.0463956733247
 30
0.0
 40
1.3717804524726269
 50
82.001114350976025
 51
133.94448385513289
  0
LINE
  5
A05
  8
0
 10
38.755582593333003
 20
160.4048297655975
 30
0.0
 11
38.914599863992947
 21
160.3686038314662
 31
0.0
  0
ARC
  5
A06
  8
0
 10
38.414637899609012
 20
158.97384637180059
 30
0.0
 40
1.48165796900754
 50
22.440601961236609
 51
70.279375846041376
  0
LINE
  5
A07
  8
0
 10
35.603547370495683
 20
158.1071389150689
 30
0.0
 11
35.38573337183783
 21
160.03317996592881
 31
0.0
  0
ARC
  5
A08
  8
0
 10
36.58701696006338
 20
159.1925941002421
 30
0.0
 40
1.466174224617375
 50
96.641894976328473
 51
145.01798894447839
  0
LINE
  5
A09
  8
0
 10
36.417434148273173
 20
160.64892803408961
 30
0.0
 11
36.580525552654848
 21
160.64899503134259
 31
0.0
  0
ARC
  5
A0A
  8
0
 10
36.403461411111287
 20
159.17795504992711
 30
0.0
 40
1.481657969014246
 50
35.297744818494699
 51
83.136518703070223
  0
ARC
  5
A0B
  8
0
 10
36.499631127698848
 20
159.06355744442499
 30
0.0
 40
1.4747881203752611
 50
269.70116654710461
 51
270.34590717375471
  0
ARC
  5
A0C
  8
0
 10
39.19735975914444
 20
163.2460467456097
 30
0.0
 40
6.2708740360174673
 50
235.0336022187185
 51
244.44188351137339
  0
LINE
  5
A0D
  8
0
 10
33.855711343351317
 20
157.70745126869559
 30
0.0
 11
33.214773942920289
 21
159.53673427477679
 31
0.0
  0
ARC
  5
A0E
  8
0
 10
34.572986795431063
 20
158.9845343977311
 30
0.0
 40
1.4661742246181999
 50
109.49903783356299
 51
157.8751318016125
  0
LINE
  5
A0F
  8
0
 10
34.083590991677823
 20
160.3666192736346
 30
0.0
 11
34.242578445755129
 21
160.40297584274981
 31
0.0
  0
ARC
  5
A10
  8
0
 10
34.406963174227862
 20
158.95931757313031
 30
0.0
 40
1.452987108819745
 50
47.652441912724939
 51
96.496107322882636
  0
ARC
  5
A11
  8
0
 10
33.26346331656007
 20
164.31884633789889
 30
0.0
 40
6.6378688211145258
 50
275.11888639873422
 51
290.64247303641002
  0
LINE
  5
A12
  8
0
 10
32.240636082933058
 20
156.92885452092921
 30
0.0
 11
31.208714558307999
 21
158.56965159388619
 31
0.0
  0
ARC
  5
A13
  8
0
 10
32.655750211274892
 20
158.3335273131035
 30
0.0
 40
1.4661742246174181
 50
122.3561806906294
 51
170.73227465876499
  0
LINE
  5
A14
  8
0
 10
31.871081764698971
 20
159.57205962430041
 30
0.0
 11
32.017992973650742
 21
159.64288269509069
 31
0.0
  0
ARC
  5
A15
  8
0
 10
32.499500420244694
 20
158.2719989956943
 30
0.0
 40
1.452987108819833
 50
60.509584769871687
 51
109.3532501800244
  0
ARC
  5
A16
  8
0
 10
28.3855887051092
 20
160.77365731169979
 30
0.0
 40
6.2708740360148116
 50
321.31947592377009
 51
330.7277572164283
  0
ARC
  5
A17
  8
0
 10
32.633005203527802
 20
158.17935401170189
 30
0.0
 40
1.474788120375264
 50
295.41545226139039
 51
296.0601928880393
  0
ARC
  5
A18
  8
0
 10
33.248860617692117
 20
163.11814724814019
 30
0.0
 40
6.2708740360174211
 50
260.74788793300331
 51
270.15616922565732
  0
LINE
  5
A19
  8
0
 10
41.179649936569753
 20
153.8834726948694
 30
0.0
 11
42.30505594783309
 21
154.78171061407139
 31
0.0
  0
ARC
  5
A1A
  8
0
 10
42.580813615459213
 20
153.08091441559679
 30
0.0
 40
1.7230060940112879
 50
98.651953591432843
 51
99.209479802697331
  0
ARC
  5
A1B
  8
0
 10
42.580813615459213
 20
153.08091441559679
 30
0.0
 40
1.7230060940112779
 50
312.26616534673138
 51
312.82369155799671
  0
LINE
  5
A1C
  8
0
 10
42.335978908639298
 20
151.48485194407371
 30
0.0
 11
43.739665515538292
 21
151.80584097705179
 31
0.0
  0
ARC
  5
A1D
  8
0
 10
46.238844439638846
 20
154.84438078322461
 30
0.0
 40
5.1496401208386509
 50
190.7542630584708
 51
220.72138209095971
  0
ARC
  5
A1E
  8
0
 10
40.707732832186842
 20
155.42770509099989
 30
0.0
 40
1.7230060940112799
 50
124.36623930571849
 51
124.92376551698371
  0
ARC
  5
A1F
  8
0
 10
40.707732832186842
 20
155.42770509099989
 30
0.0
 40
1.723006094011277
 50
337.98045106101853
 51
338.53797727228277
  0
ARC
  5
A20
  8
0
 10
41.100342058996887
 20
160.22761768189289
 30
0.0
 40
6.3446406798037014
 50
257.07769053737252
 51
270.71621471377671
  0
ARC
  5
A21
  8
0
 10
40.707732832186842
 20
155.42770509099989
 30
0.0
 40
1.723006094011273
 50
229.4603819592393
 51
233.44383461876211
  0
ARC
  5
A22
  8
0
 10
45.298744268266177
 20
156.8823242435557
 30
0.0
 40
6.3446406798041286
 50
192.18800186422479
 51
205.82652604062929
  0
LINE
  5
A23
  8
0
 10
28.94472659283716
 20
152.79243003684959
 30
0.0
 11
27.11491761554052
 21
153.4318642979066
 31
0.0
  0
ARC
  5
A24
  8
0
 10
28.289684588044938
 20
154.1401750842856
 30
0.0
 40
1.371780452473413
 50
159.1439714938484
 51
211.0873409979726
  0
LINE
  5
A25
  8
0
 10
27.007785966186901
 20
154.62855765263359
 30
0.0
 11
27.078488312098699
 21
154.7755269996226
 31
0.0
  0
ARC
  5
A26
  8
0
 10
28.32702428699568
 20
153.97773739294439
 30
0.0
 40
1.4816579690116529
 50
99.583459104164632
 51
147.4222329888307
  0
LINE
  5
A27
  8
0
 10
29.721996145994702
 20
154.40814444050571
 30
0.0
 11
28.080351809041389
 21
155.43871755220519
 31
0.0
  0
ARC
  5
A28
  8
0
 10
23.406469179823691
 20
156.45152928578261
 30
0.0
 40
6.6378688211157311
 50
326.54745782730743
 51
342.0710444649805
  0
ARC
  5
A29
  8
0
 10
27.813433362841781
 20
152.13070643066229
 30
0.0
 40
1.4747881203752631
 50
346.8440236899649
 51
347.48876431661029
  0
ARC
  5
A2A
  8
0
 10
24.336108895346769
 20
155.6914887985107
 30
0.0
 40
6.2708740360148614
 50
312.17645936157447
 51
321.58474065423331
  0
LINE
  5
A2B
  8
0
 10
26.620255733381502
 20
151.2604977262269
 30
0.0
 11
28.546475088283021
 21
151.0442662197068
 31
0.0
  0
ARC
  5
A2C
  8
0
 10
27.607954867468639
 20
152.21245992626979
 30
0.0
 40
1.3717804524729791
 50
172.00111435098401
 51
223.9444838551214
  0
LINE
  5
A2D
  8
0
 10
26.249520775195471
 20
152.4033484454022
 30
0.0
 11
26.285746709326698
 21
152.5623657160622
 31
0.0
  0
ARC
  5
A2E
  8
0
 10
27.680504168992488
 20
152.06240375167809
 30
0.0
 40
1.481657969007717
 50
112.4406019612417
 51
160.27937584603981
  0
ARC
  5
A2F
  8
0
 10
23.13690449682224
 20
150.42746414352169
 30
0.0
 40
6.2708740360147361
 50
12.74804735234015
 51
22.15632864500034
  0
LINE
  5
A30
  8
0
 10
30.670605780084401
 20
148.81726444878851
 30
0.0
 11
29.266919173185411
 21
148.49627541581049
 31
0.0
  0
ARC
  5
A31
  8
0
 10
29.756417913639918
 20
150.14828660920281
 30
0.0
 40
1.723006094011283
 50
252.93766787714671
 51
253.49519408841189
  0
ARC
  5
A32
  8
0
 10
24.340664971580711
 20
144.60063301187651
 30
0.0
 40
6.2708740360155293
 50
38.4623330666264
 51
47.870614359282811
  0
ARC
  5
A33
  8
0
 10
21.96979045023912
 20
150.145087895865
 30
0.0
 40
6.6378688211164594
 50
352.26174354159269
 51
7.7853301792642293
  0
ARC
  5
A34
  8
0
 10
29.756417913639918
 20
150.14828660920281
 30
0.0
 40
1.7230060940112719
 50
106.5518796324495
 51
107.109405843712
  0
LINE
  5
A35
  8
0
 10
29.265562060324442
 20
151.7998950771109
 30
0.0
 11
30.669511915276392
 21
151.48005940921161
 31
0.0
  0
ARC
  5
A36
  8
0
 10
25.695506641832111
 20
150.14661840417949
 30
0.0
 40
5.149640120838777
 50
345.03997734418482
 51
15.0070963766731
  0
LINE
  5
A37
  8
0
 10
31.82693475215396
 20
146.41864369799279
 30
0.0
 11
30.701528740890609
 21
145.52040577879089
 31
0.0
  0
ARC
  5
A38
  8
0
 10
30.425771073264489
 20
147.22120197726539
 30
0.0
 40
1.7230060940112859
 50
278.65195359143121
 51
279.20947980269727
  0
ARC
  5
A39
  8
0
 10
27.95338296235613
 20
139.8731316595325
 30
0.0
 40
6.2708740360128781
 50
64.176618780910573
 51
73.584900073572143
  0
ARC
  5
A3A
  8
0
 10
23.411650012490071
 20
143.8398289971951
 30
0.0
 40
6.6378688211160508
 50
17.976029255878199
 51
33.499615893551173
  0
ARC
  5
A3B
  8
0
 10
23.137136100789661
 20
149.8636706342912
 30
0.0
 40
6.2708740360153348
 50
337.8907450758586
 51
347.29902636851563
  0
ARC
  5
A3C
  8
0
 10
30.425771073264489
 20
147.22120197726539
 30
0.0
 40
1.7230060940112779
 50
132.26616534673241
 51
132.82369155799771
  0
ARC
  5
A3D
  8
0
 10
27.989438360284371
 20
143.06697692356011
 30
0.0
 40
6.3446406798017101
 50
51.363404823083371
 51
65.001928999492364
  0
ARC
  5
A3E
  8
0
 10
30.425771073264489
 20
147.22120197726539
 30
0.0
 40
1.7230060940112759
 50
23.746096244953261
 51
27.72954890447566
  0
ARC
  5
A3F
  8
0
 10
25.658277100272411
 20
147.90260061437539
 30
0.0
 40
6.3446406798018398
 50
346.47371614993602
 51
0.1122403263440957
  0
LINE
  5
A40
  8
0
 10
33.909473697122422
 20
144.75927341367259
 30
0.0
 11
33.285248744224418
 21
143.46169364430989
 31
0.0
  0
ARC
  5
A41
  8
0
 10
32.298851856536857
 20
144.8744113018623
 30
0.0
 40
1.723006094011293
 50
304.36623930571631
 51
304.92376551698152
  0
ARC
  5
A42
  8
0
 10
33.259515363993188
 20
137.18129970831501
 30
0.0
 40
6.270874036014197
 50
89.890904495198001
 51
99.299185787857283
  0
ARC
  5
A43
  8
0
 10
27.446469897024599
 20
138.78458644358079
 30
0.0
 40
6.637868821115652
 50
43.690314970162213
 51
59.213901607837073
  0
ARC
  5
A44
  8
0
 10
24.585494475417651
 20
144.0927731013297
 30
0.0
 40
6.2708740360186113
 50
3.6050307901463712
 51
13.0133120827978
  0
ARC
  5
A45
  8
0
 10
32.298851856536857
 20
144.8744113018623
 30
0.0
 40
1.723006094011277
 50
157.9804510610185
 51
158.5379772722828
  0
ARC
  5
A46
  8
0
 10
29.7682193475178
 20
141.6984229132342
 30
0.0
 40
5.1496401208388569
 50
36.468548772755462
 51
66.435667805243227
  0
LINE
  5
A47
  8
0
 10
36.505750236274793
 20
144.16781223147859
 30
0.0
 11
36.50634174928021
 21
142.72789219904899
 31
0.0
  0
ARC
  5
A48
  8
0
 10
35.004673642501622
 20
143.57272525775579
 30
0.0
 40
1.723006094011279
 50
330.08052502000402
 51
330.63805123126889
  0
ARC
  5
A49
  8
0
 10
39.208117578905792
 20
137.05828748932109
 30
0.0
 40
6.270874036012474
 50
115.6051902094819
 51
125.0134715021449
  0
ARC
  5
A4A
  8
0
 10
33.275104541892318
 20
135.98061302124771
 30
0.0
 40
6.6378688211142061
 50
69.404600684447132
 51
84.928187322123421
  0
ARC
  5
A4B
  8
0
 10
28.39431888019471
 20
139.52179323144429
 30
0.0
 40
6.2708740360155808
 50
29.31931650442948
 51
38.72759779708781
  0
ARC
  5
A4C
  8
0
 10
35.004673642501622
 20
143.57272525775579
 30
0.0
 40
1.723006094011283
 50
183.6947367753034
 51
184.25226298656841
  0
ARC
  5
A4D
  8
0
 10
36.7335489742687
 20
139.0778066853679
 30
0.0
 40
6.3446406798039447
 50
102.7919762516577
 51
116.4305004280627
  0
ARC
  5
A4E
  8
0
 10
35.004673642501622
 20
143.57272525775579
 30
0.0
 40
1.7230060940112839
 50
75.174667673524013
 51
79.158120333047165
  0
ARC
  5
A4F
  8
0
 10
31.49945086331385
 20
140.27019347843171
 30
0.0
 40
6.3446406798030823
 50
37.902287578509387
 51
51.540811754915701
  0
LINE
  5
A50
  8
0
 10
39.101539959789712
 20
144.76140629233959
 30
0.0
 11
39.726830782293412
 21
143.46433981872599
 31
0.0
  0
ARC
  5
A51
  8
0
 10
38.007315241722068
 20
143.57395873011299
 30
0.0
 40
1.723006094011281
 50
355.79481073428838
 51
356.35233694555461
  0
ARC
  5
A52
  8
0
 10
44.620995983614563
 20
139.52845908116231
 30
0.0
 40
6.2708740360149244
 50
141.31947592377
 51
150.72775721642819
  0
ARC
  5
A53
  8
0
 10
39.743121372163422
 20
135.9832700549635
 30
0.0
 40
6.6378688211142389
 50
95.11888639873419
 51
110.64247303641
  0
ARC
  5
A54
  8
0
 10
33.809224929579273
 20
137.0560696472528
 30
0.0
 40
6.270874036017223
 50
55.033602218717107
 51
64.441883511371927
  0
ARC
  5
A55
  8
0
 10
38.007315241722068
 20
143.57395873011299
 30
0.0
 40
1.723006094011273
 50
209.4090224895892
 51
209.96654870085439
  0
ARC
  5
A56
  8
0
 10
38.912579390278921
 20
139.6152341928734
 30
0.0
 40
5.1496401208389768
 50
87.897120201326956
 51
117.86423923381579
  0
LINE
  5
A57
  8
0
 10
41.182714877653289
 20
146.4224870125488
 30
0.0
 11
42.308858493569772
 21
145.5251740203268
 31
0.0
  0
ARC
  5
A58
  8
0
 10
40.71206666048996
 20
144.87786741460599
 30
0.0
 40
1.723006094011289
 50
21.509096448574908
 51
22.066622659839609
  0
ARC
  5
A59
  8
0
 10
48.426063625463428
 20
144.10256670541369
 30
0.0
 40
6.2708740360119073
 50
167.03376163805339
 51
176.44204293071621
  0
ARC
  5
A5A
  8
0
 10
45.569450329583503
 20
138.79203128661521
 30
0.0
 40
6.6378688211151369
 50
120.8331721130198
 51
136.35675875069421
  0
ARC
  5
A5B
  8
0
 10
39.757724071031497
 20
137.18396914472169
 30
0.0
 40
6.2708740360176636
 50
80.747887933003327
 51
90.156169225658928
  0
ARC
  5
A5C
  8
0
 10
40.71206666048996
 20
144.87786741460599
 30
0.0
 40
1.7230060940112839
 50
235.12330820387589
 51
235.68083441513991
  0
ARC
  5
A5D
  8
0
 10
45.304271649554522
 20
143.42702068817479
 30
0.0
 40
6.3446406798033088
 50
154.22054768022929
 51
167.85907185663609
  0
ARC
  5
A5E
  8
0
 10
40.71206666048996
 20
144.87786741460599
 30
0.0
 40
1.7230060940112799
 50
126.6032391020975
 51
130.5866917616203
  0
ARC
  5
A5F
  8
0
 10
41.108619321350169
 20
140.07827900805071
 30
0.0
 40
6.3446406798022981
 50
89.330859007078558
 51
102.96938318348791
  0
LINE
  5
A60
  8
0
 10
42.337072773447368
 20
148.82205698365061
 30
0.0
 11
43.741022628399179
 21
148.50222131575131
 31
0.0
  0
ARC
  5
A61
  8
0
 10
42.583218708719102
 20
147.2261962048803
 30
0.0
 40
1.7230060940112719
 50
47.223382162860688
 51
47.780908374125538
  0
ARC
  5
A62
  8
0
 10
49.869680191900642
 20
149.87465224934019
 30
0.0
 40
6.2708740360138657
 50
192.7480473523417
 51
202.15632864500029
  0
ARC
  5
A63
  8
0
 10
49.600115508898938
 20
143.85058710708
 30
0.0
 40
6.6378688211145978
 50
146.547457827306
 51
162.07104446498201
  0
ARC
  5
A64
  8
0
 10
45.061643096030167
 20
139.88015965979531
 30
0.0
 40
6.2708740360149857
 50
106.4621736472876
 51
115.8704549399454
  0
ARC
  5
A65
  8
0
 10
42.583218708719102
 20
147.2261962048803
 30
0.0
 40
1.723006094011275
 50
260.83759391816119
 51
261.39512012942657
  0
ARC
  5
A66
  8
0
 10
46.242697146964872
 20
145.465735838835
 30
0.0
 40
5.1496401208385638
 50
139.32569162989881
 51
169.29281066238821
  0
ARC
  5
A67
  8
0
 10
43.250166775083777
 20
150.15382978365949
 30
0.0
 40
1.723006094011275
 50
72.937667877145216
 51
73.495194088410287
  0
ARC
  5
A68
  8
0
 10
51.036794238482877
 20
150.1570284969973
 30
0.0
 40
6.6378688211147088
 50
172.26174354159269
 51
187.7853301792677
  0
ARC
  5
A69
  8
0
 10
48.670475793375878
 20
144.6106275943522
 30
0.0
 40
6.2708740360135966
 50
132.1764593615722
 51
141.5847406542332
  0
ARC
  5
A6A
  8
0
 10
43.250166775083777
 20
150.15382978365949
 30
0.0
 40
1.723006094011289
 50
286.551879632446
 51
287.1094058437119
  0
ARC
  5
A6B
  8
0
 10
47.247677400769582
 20
152.83957208006669
 30
0.0
 40
6.3446406798029438
 50
205.64911910880119
 51
219.28764328520779
  0
ARC
  5
A6C
  8
0
 10
43.250166775083777
 20
150.15382978365949
 30
0.0
 40
1.7230060940112759
 50
178.03181053066911
 51
182.01526319019109
  0
ARC
  5
A6D
  8
0
 10
47.249882634165289
 20
147.47137271376869
 30
0.0
 40
6.3446406798043506
 50
140.75943043565411
 51
154.3979546120564
  0
LINE
  5
A6E
  8
0
 10
30.83930820676531
 20
155.81039076383979
 30
0.0
 11
29.468147412119919
 21
157.18042548706271
 31
0.0
  0
ARC
  5
A6F
  8
0
 10
30.93144545560946
 20
157.27221705995001
 30
0.0
 40
1.4661742246177349
 50
135.2133235478164
 51
183.5894175159047
  0
LINE
  5
A70
  8
0
 10
29.890850918598769
 20
158.30509162468661
 30
0.0
 11
30.01831914097281
 21
158.4068298326612
 31
0.0
  0
ARC
  5
A71
  8
0
 10
30.797063247235911
 20
157.1463267767013
 30
0.0
 40
1.481657969007574
 50
73.869173389808239
 51
121.70794727461281
  0
ARC
  5
A72
  8
0
 10
27.43713435913978
 20
161.51008510624729
 30
0.0
 40
6.6378688211156751
 50
300.83317211302062
 51
316.35675875069421
  0
ARC
  5
A73
  8
0
 10
29.486536368952301
 20
155.85382216600979
 30
0.0
 40
1.4661742246178671
 50
148.07046640494781
 51
196.4465603730431
  0
LINE
  5
A74
  8
0
 10
28.242195496751862
 20
156.6292463407091
 30
0.0
 11
28.343828943602741
 21
156.75679810729099
 31
0.0
  0
ARC
  5
A75
  8
0
 10
29.383536626515909
 20
155.70118536047539
 30
0.0
 40
1.4816579690158671
 50
86.726316247095724
 51
134.56509013161789
  0
ARC
  5
A76
  8
0
 10
24.580521063256761
 20
156.19954968744881
 30
0.0
 40
6.2708740360154218
 50
347.03376163805689
 51
356.44204293071459
  0
ARC
  5
A77
  8
0
 10
29.532937113555761
 20
155.70504813217769
 30
0.0
 40
1.4747881203752651
 50
321.12973797567543
 51
321.77447860232593
  0
ARC
  5
A78
  8
0
 10
27.94494159269394
 20
160.42195673306571
 30
0.0
 40
6.2708740360138426
 50
286.46217364728562
 51
295.87045493994549
  0
ARC
  5
A79
  8
0
 10
45.544828248172649
 20
150.06733358072941
 30
0.0
 40
1.466174224617605
 50
6.6418949763367534
 51
55.017988944472542
  0
LINE
  5
A7A
  8
0
 10
47.001162182020352
 20
150.23691639251979
 30
0.0
 11
47.001229179273373
 21
150.07382498813811
 31
0.0
  0
ARC
  5
A7B
  8
0
 10
45.530189197857993
 20
150.25088912968161
 30
0.0
 40
1.4816579690141229
 50
305.29774481849239
 51
353.13651870307177
  0
LINE
  5
A7C
  8
0
 10
44.460109600440717
 20
149.25785017315539
 30
0.0
 11
46.386328955342151
 21
149.04161866663529
 31
0.0
  0
LINE
  5
A7D
  8
0
 10
33.905044728933973
 20
155.54071010052249
 30
0.0
 11
33.27975390643028
 21
156.83777657413609
 31
0.0
  0
ARC
  5
A7E
  8
0
 10
34.999269447001609
 20
156.72815766274911
 30
0.0
 40
1.7230060940112879
 50
175.79481073429
 51
176.3523369455562
  0
ARC
  5
A7F
  8
0
 10
34.999269447001609
 20
156.72815766274911
 30
0.0
 40
1.7230060940112799
 50
29.40902248958923
 51
29.966548700854389
  0
ARC
  5
A80
  8
0
 10
31.49133451937919
 20
160.02780846681091
 30
0.0
 40
6.3446406798026489
 50
308.50626196594283
 51
322.1447861423506
  0
ARC
  5
A81
  8
0
 10
34.999269447001609
 20
156.72815766274911
 30
0.0
 40
1.723006094011287
 50
280.88895338781077
 51
284.87240604733239
  0
ARC
  5
A82
  8
0
 10
36.724451209144434
 20
161.22449514705249
 30
0.0
 40
6.3446406798029358
 50
243.61657329279481
 51
257.25509746920233
  0
LINE
  5
A83
  8
0
 10
31.823869811070381
 20
153.8796293803133
 30
0.0
 11
30.69772619515394
 21
154.77694237253539
 31
0.0
  0
ARC
  5
A84
  8
0
 10
32.294518028233682
 20
155.4242489782562
 30
0.0
 40
1.723006094011281
 50
201.5090964485764
 51
202.0666226598411
  0
ARC
  5
A85
  8
0
 10
32.294518028233682
 20
155.4242489782562
 30
0.0
 40
1.723006094011269
 50
55.123308203874501
 51
55.68083441513987
  0
ARC
  5
A86
  8
0
 10
29.761277008801901
 20
158.5981571492454
 30
0.0
 40
5.1496401208388223
 50
293.61140591561451
 51
323.57852494810118
  0
ARC
  5
A87
  8
0
 10
30.423365980004601
 20
153.07592018798189
 30
0.0
 40
1.723006094011277
 50
332.3175248163858
 51
336.30097747590543
  0
ARC
  5
A88
  8
0
 10
27.983621014025029
 20
157.22814216978099
 30
0.0
 40
6.3446406798005439
 50
295.04514472136322
 51
308.68366889777582
  0
ARC
  5
A89
  8
0
 10
30.423365980004601
 20
153.07592018798189
 30
0.0
 40
1.723006094011279
 50
227.2233821628619
 51
227.7809083741233
  0
ARC
  5
A8A
  8
0
 10
30.423365980004601
 20
153.07592018798189
 30
0.0
 40
1.723006094011273
 50
80.837593918161204
 51
81.395120129426516
  0
ARC
  5
A8B
  8
0
 10
25.65643344728133
 20
152.39060484914489
 30
0.0
 40
6.344640679802847
 50
359.93483339451501
 51
13.57335757092231
  0
ARC
  5
A8C
  8
0
 10
32.13766771271824
 20
150.14926481645981
 30
0.0
 40
2.13453742061367
 50
323.19035612675822
 51
333.51237036607762
  0
LINE
  5
A8D
  8
0
 10
33.846643546661113
 20
148.8703388612148
 30
0.0
 11
32.07379619476751
 21
148.01568321989629
 31
0.0
  0
ARC
  5
A8E
  8
0
 10
32.13766771271824
 20
150.14926481645981
 30
0.0
 40
2.1345374206136571
 50
264.9802197226835
 51
268.28528902267141
  0
ARC
  5
A8F
  8
0
 10
32.13766771271824
 20
150.14926481645981
 30
0.0
 40
2.1345374206136669
 50
91.761784698188634
 51
95.066853998175617
  0
LINE
  5
A90
  8
0
 10
32.072043284187799
 20
152.2827932166411
 30
0.0
 11
33.845592215397602
 21
151.42959441978371
 31
0.0
  0
ARC
  5
A91
  8
0
 10
32.13766771271824
 20
150.14926481645981
 30
0.0
 40
2.1345374206136638
 50
26.534703354779719
 51
36.856717594096722
  0
ARC
  5
A92
  8
0
 10
25.329602166972759
 20
150.14646809218249
 30
0.0
 40
8.7700619918996612
 50
353.78649067373442
 51
6.260583047122652
  0
ARC
  5
A93
  8
0
 10
33.782772028710383
 20
146.73675726465129
 30
0.0
 40
2.1345374206136452
 50
14.61892755532905
 51
24.94094179464749
  0
LINE
  5
A94
  8
0
 10
35.848205608352799
 20
147.27549108397719
 30
0.0
 11
35.411050051246633
 21
145.35655413419349
 31
0.0
  0
ARC
  5
A95
  8
0
 10
33.782772028710383
 20
146.73675726465129
 30
0.0
 40
2.1345374206136469
 50
316.4087911512529
 51
319.71386045124262
  0
ARC
  5
A96
  8
0
 10
33.782772028710383
 20
146.73675726465129
 30
0.0
 40
2.1345374206136678
 50
143.19035612675819
 51
146.49542542674729
  0
ARC
  5
A97
  8
0
 10
33.782772028710383
 20
146.73675726465129
 30
0.0
 40
2.134537420613658
 50
77.963274783351494
 51
88.285289022671435
  0
ARC
  5
A98
  8
0
 10
29.540199157641268
 20
141.4122535572177
 30
0.0
 40
8.7700619918975953
 50
45.215062102303627
 51
57.689154475695659
  0
ARC
  5
A99
  8
0
 10
37.476483630889078
 20
145.89528795351939
 30
0.0
 40
2.1345374206136492
 50
66.047498983901306
 51
76.369513223220011
  0
LINE
  5
A9A
  8
0
 10
38.343061343593462
 20
147.84600399329659
 30
0.0
 11
39.570784632123917
 21
146.30778439741511
 31
0.0
  0
ARC
  5
A9B
  8
0
 10
37.476483630889078
 20
145.89528795351939
 30
0.0
 40
2.1345374206136518
 50
7.8373625798244451
 51
11.142431879812831
  0
ARC
  5
A9C
  8
0
 10
37.476483630889078
 20
145.89528795351939
 30
0.0
 40
2.1345374206136731
 50
194.6189275553306
 51
197.92399685531939
  0
ARC
  5
A9D
  8
0
 10
37.476483630889078
 20
145.89528795351939
 30
0.0
 40
2.1345374206136598
 50
129.39184621192339
 51
139.7138604512426
  0
ARC
  5
A9E
  8
0
 10
38.99414733912463
 20
139.25853715470771
 30
0.0
 40
8.7700619918988956
 50
96.643633530876528
 51
109.1177259042675
  0
ARC
  5
A9F
  8
0
 10
40.437362344828301
 20
148.25850043719231
 30
0.0
 40
2.1345374206136518
 50
117.4760704124744
 51
127.79808465179281
  0
LINE
  5
AA0
  8
0
 10
39.452533497964403
 20
150.1522697321131
 30
0.0
 11
41.420634954877009
 21
150.15307821979411
 31
0.0
  0
ARC
  5
AA1
  8
0
 10
40.437362344828301
 20
148.25850043719231
 30
0.0
 40
2.1345374206136589
 50
59.265934008396322
 51
62.571003308384419
  0
ARC
  5
AA2
  8
0
 10
40.437362344828301
 20
148.25850043719231
 30
0.0
 40
2.1345374206136731
 50
246.04749898390281
 51
249.35256828388961
  0
ARC
  5
AA3
  8
0
 10
40.437362344828301
 20
148.25850043719231
 30
0.0
 40
2.1345374206136549
 50
180.82041764049649
 51
191.14243187981441
  0
ARC
  5
AA4
  8
0
 10
46.572430905370169
 20
145.3071112635532
 30
0.0
 40
8.7700619918989098
 50
148.0722049594479
 51
160.54629733283929
  0
ARC
  5
AA5
  8
0
 10
40.435806108013111
 20
152.04684751471481
 30
0.0
 40
2.1345374206136549
 50
168.90464184104439
 51
179.22665608036289
  0
LINE
  5
AA6
  8
0
 10
38.341166910116812
 20
152.45762315985019
 30
0.0
 11
39.567625996402988
 21
153.9968509233797
 31
0.0
  0
ARC
  5
AA7
  8
0
 10
40.435806108013111
 20
152.04684751471481
 30
0.0
 40
2.1345374206136598
 50
110.694505436969
 51
113.9995747369572
  0
ARC
  5
AA8
  8
0
 10
40.435806108013111
 20
152.04684751471481
 30
0.0
 40
2.1345374206136549
 50
297.47607041247232
 51
300.7811397124608
  0
ARC
  5
AA9
  8
0
 10
40.435806108013111
 20
152.04684751471481
 30
0.0
 40
2.1345374206136611
 50
232.2489890690666
 51
242.57100330838591
  0
ARC
  5
AAA
  8
0
 10
46.568447762181243
 20
155.0032762113658
 30
0.0
 40
8.7700619918986362
 50
199.5007763880208
 51
211.97486876141099
  0
ARC
  5
AAB
  8
0
 10
37.472986798506703
 20
154.4076265685151
 30
0.0
 40
2.134537420613654
 50
220.33321326961709
 51
230.65522750893501
  0
LINE
  5
AAC
  8
0
 10
35.845843288446837
 20
153.02608612478201
 30
0.0
 11
35.407111296927013
 21
154.944663263698
 31
0.0
  0
ARC
  5
AAD
  8
0
 10
37.472986798506703
 20
154.4076265685151
 30
0.0
 40
2.1345374206136509
 50
162.1230768655399
 51
165.42814616552911
  0
ARC
  5
AAE
  8
0
 10
37.472986798506703
 20
154.4076265685151
 30
0.0
 40
2.134537420613666
 50
348.90464184104451
 51
352.2097111410331
  0
ARC
  5
AAF
  8
0
 10
37.472986798506703
 20
154.4076265685151
 30
0.0
 40
2.134537420613658
 50
283.6775604976383
 51
293.9995747369573
  0
ARC
  5
AB0
  8
0
 10
38.985197297621141
 20
161.0456220267242
 30
0.0
 40
8.7700619918998637
 50
250.92934781659281
 51
263.40344018998138
  0
LINE
  5
AB1
  8
0
 10
28.547211625724032
 20
149.25131322256499
 30
0.0
 11
26.621170574864099
 21
149.0334992239072
 31
0.0
  0
ARC
  5
AB2
  8
0
 10
27.461756440550801
 20
150.23478281213269
 30
0.0
 40
1.4661742246173139
 50
186.64189497632361
 51
235.01798894447839
  0
LINE
  5
AB3
  8
0
 10
26.0054225067035
 20
150.06520000032819
 30
0.0
 11
26.005355509450339
 21
150.22829140472419
 31
0.0
  0
ARC
  5
AB4
  8
0
 10
27.476395490868239
 20
150.05122726317819
 30
0.0
 40
1.4816579690169269
 50
125.297744818407
 51
173.1365187029914
  0
LINE
  5
AB5
  8
0
 10
28.946899272097401
 20
147.5034771954206
 30
0.0
 11
27.117616266016139
 21
146.8625397949896
 31
0.0
  0
ARC
  5
AB6
  8
0
 10
27.669816143061301
 20
148.22075264749969
 30
0.0
 40
1.4661742246173211
 50
199.49903783346471
 51
247.87513180161969
  0
LINE
  5
AB7
  8
0
 10
26.287731267158371
 20
147.73135684374719
 30
0.0
 11
26.251374698043101
 21
147.8903442978245
 31
0.0
  0
ARC
  5
AB8
  8
0
 10
27.69503296766246
 20
148.05472902629731
 30
0.0
 40
1.452987108819598
 50
137.6524419127249
 51
186.4961073228875
  0
ARC
  5
AB9
  8
0
 10
27.815062757544329
 20
148.16427111756531
 30
0.0
 40
1.474788120375248
 50
12.55830940424562
 51
13.20305003089617
  0
LINE
  5
ABA
  8
0
 10
29.725496019863701
 20
145.88840193500241
 30
0.0
 11
28.084698946906691
 21
144.85648041037729
 31
0.0
  0
ARC
  5
ABB
  8
0
 10
28.320823227689662
 20
146.30351606334469
 30
0.0
 40
1.466174224618032
 50
212.35618069067189
 51
260.73227465875522
  0
LINE
  5
ABC
  8
0
 10
27.08229091649255
 20
145.51884761676831
 30
0.0
 11
27.011467845702299
 21
145.66575882571999
 31
0.0
  0
ARC
  5
ABD
  8
0
 10
28.382351545098722
 20
146.147266272314
 30
0.0
 40
1.452987108819936
 50
150.50958476987171
 51
199.35325018002439
  0
LINE
  5
ABE
  8
0
 10
30.843959776953081
 20
144.48707405883459
 30
0.0
 11
29.473925053730259
 21
143.1159132641892
 31
0.0
  0
ARC
  5
ABF
  8
0
 10
29.382133480842271
 20
144.57921130767431
 30
0.0
 40
1.4661742246133489
 50
225.21332354723381
 51
273.58941751593892
  0
LINE
  5
AC0
  8
0
 10
28.349258916096002
 20
143.53861677068079
 30
0.0
 11
28.247520708131649
 21
143.6660849930422
 31
0.0
  0
ARC
  5
AC1
  8
0
 10
29.508023764091689
 20
144.4448290993052
 30
0.0
 40
1.481657969007675
 50
163.86917338981129
 51
211.70794727461049
  0
ARC
  5
AC2
  8
0
 10
29.5375025760593
 20
144.591343351782
 30
0.0
 40
1.4747881203752731
 50
38.272595118532081
 51
38.917335745182683
  0
LINE
  5
AC3
  8
0
 10
32.246206100287139
 20
143.36976199806401
 30
0.0
 11
31.215632988587661
 21
141.7281176611107
 31
0.0
  0
ARC
  5
AC4
  8
0
 10
30.80052837478306
 20
143.1343022210215
 30
0.0
 40
1.466174224617754
 50
238.07046640492871
 51
286.4465603730431
  0
LINE
  5
AC5
  8
0
 10
30.025104200083351
 20
141.88996134882149
 30
0.0
 11
29.897552433501829
 21
141.99159479567211
 31
0.0
  0
ARC
  5
AC6
  8
0
 10
30.953165180309021
 20
143.03130247858201
 30
0.0
 40
1.4816579690076239
 50
176.72631624695211
 51
224.56509013175491
  0
LINE
  5
AC7
  8
0
 10
33.861920503943203
 20
142.59249244490641
 30
0.0
 11
33.222486242886248
 21
140.7626834676098
 31
0.0
  0
ARC
  5
AC8
  8
0
 10
32.514175456507218
 20
141.93745044011371
 30
0.0
 40
1.3717804524729651
 50
249.14397149384331
 51
301.08734099798352
  0
LINE
  5
AC9
  8
0
 10
32.025792888159323
 20
140.6555518182561
 30
0.0
 11
31.878823541170171
 21
140.72625416416801
 31
0.0
  0
ARC
  5
ACA
  8
0
 10
32.676613147848883
 20
141.97479013906519
 30
0.0
 40
1.4816579690121039
 50
189.5834591041729
 51
237.42223298881899
  0
ARC
  5
ACB
  8
0
 10
32.639602487991773
 20
142.11958529640941
 30
0.0
 40
1.4747881203752711
 50
63.986880832817498
 51
64.631621459467823
  0
LINE
  5
ACC
  8
0
 10
35.610084321086127
 20
142.19424094035219
 30
0.0
 11
35.393852814566031
 21
140.26802158545081
 31
0.0
  0
ARC
  5
ACD
  8
0
 10
34.441890614523061
 20
141.255720719538
 30
0.0
 40
1.371780452473065
 50
262.0011143509841
 51
313.9444838551214
  0
LINE
  5
ACE
  8
0
 10
34.251002095390618
 20
139.89728662726469
 30
0.0
 11
34.091984824730702
 21
139.93351256139599
 31
0.0
  0
ARC
  5
ACF
  8
0
 10
34.591946789114701
 20
141.3282700210616
 30
0.0
 40
1.481657969007617
 50
202.44060196123959
 51
250.27937584604291
  0
LINE
  5
AD0
  8
0
 10
37.403037318227973
 20
142.1949774777932
 30
0.0
 11
37.620851316885819
 21
140.26893642693329
 31
0.0
  0
ARC
  5
AD1
  8
0
 10
36.419567728660127
 20
141.1095222926204
 30
0.0
 40
1.4661742246176841
 50
276.64189497633839
 51
325.01798894447029
  0
LINE
  5
AD2
  8
0
 10
36.589150540450483
 20
139.65318835877261
 30
0.0
 11
36.426059136068801
 21
139.6531213615196
 31
0.0
  0
ARC
  5
AD3
  8
0
 10
36.603123277617762
 20
141.12416134294421
 30
0.0
 40
1.4816579690239149
 50
215.29774481866281
 51
263.13651870290789
  0
ARC
  5
AD4
  8
0
 10
36.506953561024801
 20
141.23855894843709
 30
0.0
 40
1.4747881203752611
 50
89.701166547102943
 51
90.345907173754682
  0
LINE
  5
AD5
  8
0
 10
39.150873345372361
 20
142.5946651241666
 30
0.0
 11
39.791810745803389
 21
140.7653821180854
 31
0.0
  0
ARC
  5
AD6
  8
0
 10
38.433597893293303
 20
141.31758199513061
 30
0.0
 40
1.4661742246174001
 50
289.4990378334528
 51
337.87513180161761
  0
LINE
  5
AD7
  8
0
 10
38.922993697045833
 20
139.93549711922759
 30
0.0
 11
38.76400624296852
 21
139.89914055011229
 31
0.0
  0
ARC
  5
AD8
  8
0
 10
38.599621514495851
 20
141.34279881973211
 30
0.0
 40
1.452987108819995
 50
227.652441912733
 51
276.49610732287942
  0
LINE
  5
AD9
  8
0
 10
40.765948605790612
 20
143.3732618719329
 30
0.0
 11
41.797870130415667
 21
141.73246479897591
 31
0.0
  0
ARC
  5
ADA
  8
0
 10
40.350834477448409
 20
141.9685890797588
 30
0.0
 40
1.4661742246178071
 50
302.35618069065788
 51
350.7322746587584
  0
LINE
  5
ADB
  8
0
 10
41.135502924024671
 20
140.73005676856181
 30
0.0
 11
40.988591715072943
 21
140.6592336977715
 31
0.0
  0
ARC
  5
ADC
  8
0
 10
40.507084268478962
 20
142.0301173971678
 30
0.0
 40
1.452987108819717
 50
240.50958476986949
 51
289.35325018002652
  0
ARC
  5
ADD
  8
0
 10
40.373579485195869
 20
142.1227623811603
 30
0.0
 40
1.47478812037526
 50
115.4154522613903
 51
116.0601928880407
  0
LINE
  5
ADE
  8
0
 10
42.167276481958389
 20
144.49172562902231
 30
0.0
 11
43.538437276603752
 21
143.12169090579951
 31
0.0
  0
ARC
  5
ADF
  8
0
 10
42.075139233114349
 20
143.02989933291221
 30
0.0
 40
1.4661742246175891
 50
315.21332354777041
 51
3.5894175159013639
  0
LINE
  5
AE0
  8
0
 10
43.115733770112307
 20
141.9970247681654
 30
0.0
 11
42.988265547750842
 21
141.89528656020099
 31
0.0
  0
ARC
  5
AE1
  8
0
 10
42.209521441487738
 20
143.1557896161608
 30
0.0
 40
1.4816579690075971
 50
253.86917338980979
 51
301.70794727461362
  0
LINE
  5
AE2
  8
0
 10
43.284588542728983
 20
145.8939719523564
 30
0.0
 11
44.92623287968231
 21
144.86339884065691
 31
0.0
  0
ARC
  5
AE3
  8
0
 10
43.520048319771398
 20
144.44829422685231
 30
0.0
 40
1.4661742246178231
 50
328.0704664049419
 51
16.446560373043109
  0
LINE
  5
AE4
  8
0
 10
44.764389191962067
 20
143.67287005214061
 30
0.0
 11
44.662755745120933
 21
143.54531828557111
 31
0.0
  0
ARC
  5
AE5
  8
0
 10
43.62304806221087
 20
144.6009310323785
 30
0.0
 40
1.4816579690078391
 50
266.72631624695703
 51
314.5650901317527
  0
ARC
  5
AE6
  8
0
 10
43.473647575167917
 20
144.59706826068449
 30
0.0
 40
1.4747881203752651
 50
141.1297379756754
 51
141.77447860232709
  0
LINE
  5
AE7
  8
0
 10
44.061858095886549
 20
147.50968635601251
 30
0.0
 11
45.891667073183193
 21
146.8702520949555
 31
0.0
  0
ARC
  5
AE8
  8
0
 10
44.716900100679588
 20
146.16194130857659
 30
0.0
 40
1.371780452472636
 50
339.14397149383251
 51
31.08734099798717
  0
LINE
  5
AE9
  8
0
 10
45.998798722536797
 20
145.67355874022849
 30
0.0
 11
45.928096376624971
 21
145.5265893932395
 31
0.0
  0
ARC
  5
AEA
  8
0
 10
44.679560401727883
 20
146.32437899991791
 30
0.0
 40
1.4816579690118581
 50
279.5834591041679
 51
327.42223298882482
  0
ARC
  5
AEB
  8
0
 10
45.398629821255611
 20
148.08965646659249
 30
0.0
 40
1.3717804524724839
 50
352.00111435097261
 51
43.944483855132908
  0
LINE
  5
AEC
  8
0
 10
46.757063913528242
 20
147.8987679474599
 30
0.0
 11
46.720837979396997
 21
147.73975067680001
 31
0.0
  0
ARC
  5
AED
  8
0
 10
45.326080519731299
 20
148.23971264118401
 30
0.0
 40
1.481657969007631
 50
292.44060196123809
 51
340.27937584603978
  0
ARC
  5
AEE
  8
0
 10
45.193151325881921
 20
148.17140996219979
 30
0.0
 40
1.4747881203752631
 50
166.84402368996169
 51
167.48876431661191
  0
ARC
  5
AEF
  8
0
 10
33.779967786867161
 20
153.56312281996489
 30
0.0
 40
2.134537420613662
 50
271.76178469818859
 51
282.08379893750481
  0
ARC
  5
AF0
  8
0
 10
33.779967786867161
 20
153.56312281996489
 30
0.0
 40
2.134537420613662
 50
213.5516482941114
 51
216.856717594098
  0
ARC
  5
AF1
  8
0
 10
33.779967786867161
 20
153.56312281996489
 30
0.0
 40
2.134537420613654
 50
40.333213269615861
 51
43.638282569605153
  0
ARC
  5
AF2
  8
0
 10
33.779967786867161
 20
153.56312281996489
 30
0.0
 40
2.1345374206136518
 50
335.10613192620968
 51
345.42814616552761
  0
ARC
  5
AF3
  8
0
 10
29.533021781621791
 20
158.8841390692684
 30
0.0
 40
8.7700619918987091
 50
302.35791924516218
 51
314.83201161855322
  0
ARC
  5
AF4
  8
0
 10
36.503292344361853
 20
150.15105819643111
 30
0.0
 40
2.633913438213193
 50
252.6593505948268
 51
261.67343741174739
  0
ARC
  5
AF5
  8
0
 10
36.503292344361853
 20
150.15105819643111
 30
0.0
 40
2.633913438213173
 50
201.23077916625411
 51
210.2448659831758
  0
ARC
  5
AF6
  8
0
 10
36.503292344361853
 20
150.15105819643111
 30
0.0
 40
2.633913438213181
 50
149.8022077376842
 51
158.8162945546045
  0
ARC
  5
AF7
  8
0
 10
36.503292344361853
 20
150.15105819643111
 30
0.0
 40
2.6339134382131881
 50
98.373636309112115
 51
107.38772312603329
  0
ARC
  5
AF8
  8
0
 10
36.503292344361853
 20
150.15105819643111
 30
0.0
 40
2.6339134382131948
 50
46.945064880539562
 51
55.959151697459887
  0
ARC
  5
AF9
  8
0
 10
36.503292344361853
 20
150.15105819643111
 30
0.0
 40
2.6339134382131881
 50
355.51649345196893
 51
4.5305802688889232
  0
ARC
  5
AFA
  8
0
 10
36.503292344361853
 20
150.15105819643111
 30
0.0
 40
2.6339134382131899
 50
304.08792202339657
 51
313.10200884031877
  0
LINE
  5
AFD
  8
0
 10
30.495168192935839
 20
158.74468190797961
 30
0.0
 11
31.01846478706042
 21
159.65105819643111
 31
0.0
  0
LINE
  5
AFE
  8
0
 10
31.01846478706042
 20
159.65105819643111
 30
0.0
 11
32.057941165251549
 21
159.65105819643111
 31
0.0
  0
LINE
  5
AFF
  8
0
 10
41.98811990166331
 20
159.65105819643111
 30
0.0
 11
42.509079924369729
 21
158.7487289683913
 31
0.0
  0
LINE
  5
B00
  8
0
 10
40.943024053400357
 20
159.65105819643111
 30
0.0
 11
41.98811990166331
 21
159.65105819643111
 31
0.0
  0
LINE
  5
B01
  8
0
 10
26.059385149139558
 20
149.24043608809029
 30
0.0
 11
25.53363722975897
 21
150.15105819643111
 31
0.0
  0
LINE
  5
B02
  8
0
 10
25.53363722975897
 20
150.15105819643111
 30
0.0
 11
26.047979782038311
 21
151.04192562947361
 31
0.0
  0
LINE
  5
B03
  8
0
 10
46.947811864225088
 20
151.06061972738311
 30
0.0
 11
47.47294745896474
 21
150.15105819643111
 31
0.0
  0
LINE
  5
B04
  8
0
 10
47.47294745896474
 20
150.15105819643111
 30
0.0
 11
46.956130814263012
 21
149.25590550961039
 31
0.0
  0
LINE
  5
B05
  8
0
 10
41.988119901663282
 20
140.65105819643111
 30
0.0
 11
40.964742775027922
 21
140.65105819643111
 31
0.0
  0
LINE
  5
B06
  8
0
 10
42.514701959620339
 20
141.56312507516679
 30
0.0
 11
41.988119901663282
 21
140.65105819643111
 31
0.0
  0
LINE
  5
B07
  8
0
 10
32.072091316484347
 20
140.65105819643111
 30
0.0
 11
31.01846478706042
 21
140.65105819643111
 31
0.0
  0
LINE
  5
B08
  8
0
 10
31.01846478706042
 20
140.65105819643111
 30
0.0
 11
30.511221672867411
 21
141.5296290420028
 31
0.0
  0
ARC
  5
B09
  8
0
 10
26.63829234436184
 20
96.02831613878088
 30
0.0
 40
0.6350000000000052
 50
175.7334368294367
 51
180.0
  0
ARC
  5
B0A
  8
0
 10
46.368292344361862
 20
96.02831613878088
 30
0.0
 40
0.6349999999999909
 50
0.0
 51
4.273330023550292
  0
ARC
  5
B0B
  8
0
 10
36.506953561024801
 20
96.050420498078651
 30
0.0
 40
1.5875000000000159
 50
50.758182038451132
 51
129.23748606218609
  0
LINE
  5
B0C
  8
0
 10
26.003292344361832
 20
96.02831613878088
 30
0.0
 11
26.003292344361832
 21
94.901316138780885
 31
0.0
  0
LINE
  5
B0D
  8
0
 10
47.003292344361853
 20
94.901316138780885
 30
0.0
 11
47.003292344361853
 21
96.02831613878088
 31
0.0
  0
ARC
  5
B0E
  8
0
 10
34.523644110130562
 20
96.050420498078651
 30
0.0
 40
1.5874999999999979
 50
50.762513937813878
 51
131.74862254413509
  0
ARC
  5
B0F
  8
0
 10
38.490079423227691
 20
96.050420498078651
 30
0.0
 40
1.587500000000007
 50
48.236672718622643
 51
129.2418179615488
  0
ARC
  5
B10
  8
0
 10
32.639602487991773
 20
96.050420498078651
 30
0.0
 40
1.5875000000000079
 50
53.76130759937179
 51
137.9178588003526
  0
ARC
  5
B11
  8
0
 10
40.37357948519584
 20
96.050420498078651
 30
0.0
 40
1.587500000000003
 50
42.049366798570787
 51
126.54663105331009
  0
ARC
  5
B12
  8
0
 10
42.063007189010932
 20
96.050420498078651
 30
0.0
 40
1.5875000000000119
 50
27.21169804787797
 51
122.2883925727388
  0
ARC
  5
B13
  8
0
 10
30.94930240861521
 20
96.050420498078651
 30
0.0
 40
1.587499999999993
 50
57.974266863387342
 51
152.6969316162818
  0
ARC
  5
B14
  8
0
 10
35.004673642501622
 20
95.653545498078614
 30
0.0
 40
1.984375
 50
66.503413271873157
 51
97.463258912310593
  0
ARC
  5
B15
  8
0
 10
38.007315241722068
 20
95.653545498078614
 30
0.0
 40
1.984375000000006
 50
82.729646496202079
 51
113.7100241804866
  0
ARC
  5
B16
  8
0
 10
43.473647575167917
 20
96.050420498078637
 30
0.0
 40
1.587500000000005
 50
19.398803298445461
 51
116.4936934886761
  0
ARC
  5
B17
  8
0
 10
29.537502576059271
 20
96.050420498078637
 30
0.0
 40
1.587500000000009
 50
63.71360897028358
 51
160.498992648376
  0
ARC
  5
B18
  8
0
 10
32.298851856536828
 20
95.653545498078614
 30
0.0
 40
1.9843750000000091
 50
84.899751544947705
 51
111.1778180633159
  0
ARC
  5
B19
  8
0
 10
40.71206666048996
 20
95.653545498078614
 30
0.0
 40
1.9843750000000011
 50
68.987569609712125
 51
95.267597630456095
  0
ARC
  5
B1A
  8
0
 10
37.476483630889049
 20
94.859795498078611
 30
0.0
 40
2.7781250000000188
 50
84.115360739917733
 51
101.57099652030401
  0
ARC
  5
B1B
  8
0
 10
33.782772028710362
 20
94.859795498078611
 30
0.0
 40
2.7781250000000282
 50
81.341175195460139
 51
103.6649864434673
  0
ARC
  5
B1C
  8
0
 10
44.534765244383571
 20
96.050420498078637
 30
0.0
 40
1.587500000000011
 50
14.39579851879726
 51
109.6119613169015
  0
ARC
  5
B1D
  8
0
 10
28.474996529091019
 20
96.050420498078637
 30
0.0
 40
1.5875000000000059
 50
70.536296633535201
 51
165.56013874850001
  0
ARC
  5
B1E
  8
0
 10
30.425771073264489
 20
95.653545498078614
 30
0.0
 40
1.9843750000000071
 50
82.080550264791128
 51
103.7512525995355
  0
ARC
  5
B1F
  8
0
 10
42.583218708719102
 20
95.653545498078614
 30
0.0
 40
1.984375000000002
 50
76.358382837459033
 51
98.044682207797962
  0
LINE
  5
B20
  8
0
 10
40.583901714687812
 20
97.634053007522596
 30
0.0
 11
40.397280577510713
 21
97.637631340520286
 31
0.0
  0
ARC
  5
B21
  8
0
 10
40.437362344828301
 20
94.859795498078611
 30
0.0
 40
2.7781250000000091
 50
95.38373627103384
 51
113.8010997082506
  0
ARC
  5
B22
  8
0
 10
27.815062757544268
 20
96.050420498078637
 30
0.0
 40
1.5874999999999999
 50
78.062035837499664
 51
173.26345237621101
  0
ARC
  5
B23
  8
0
 10
45.193151325881921
 20
96.050420498078637
 30
0.0
 40
1.5875000000000039
 50
6.6989740427064248
 51
102.02663343487561
  0
ARC
  5
B24
  8
0
 10
36.503292344361832
 20
93.669170498078628
 30
0.0
 40
3.9687499999999871
 50
82.351873546382535
 51
102.8606608241829
  0
ARC
  5
B25
  8
0
 10
32.13766771271824
 20
94.859795498078611
 30
0.0
 40
2.778125000000006
 50
88.246520549477879
 51
104.2053731312938
  0
POLYLINE
  5
B26
  8
0
 66
     1
 10
0.0
 20
0.0
 30
0.0
 70
   128
  0
VERTEX
  5
E7D
  8
0
 10
30.089891946822348
 20
97.609699686740143
 30
0.0
  0
VERTEX
  5
E7E
  8
0
 10
29.847812685092119
 20
97.635814686755126
 30
0.0
  0
VERTEX
  5
E7F
  8
0
 10
29.63844427117235
 20
97.634410551611538
 30
0.0
  0
SEQEND
  5
E80
  8
0
  0
POLYLINE
  5
B27
  8
0
 66
     1
 10
0.0
 20
0.0
 30
0.0
 70
   128
  0
VERTEX
  5
E81
  8
0
 10
43.365730103516853
 20
97.634552630258199
 30
0.0
  0
VERTEX
  5
E82
  8
0
 10
43.09634774741474
 20
97.631949867097248
 30
0.0
  0
VERTEX
  5
E83
  8
0
 10
42.915490195271467
 20
97.60949430301963
 30
0.0
  0
SEQEND
  5
E84
  8
0
  0
ARC
  5
B28
  8
0
 10
27.590793096367889
 20
96.050420498078637
 30
0.0
 40
1.587500000000005
 50
85.978952717519846
 51
180.0
  0
ARC
  5
B29
  8
0
 10
45.415791592355781
 20
96.050420498078637
 30
0.0
 40
1.5875000000000079
 50
0.0035006968220127
 51
94.050524295332465
  0
LINE
  5
B2A
  8
0
 10
40.436589478529491
 20
97.637920387631922
 30
0.0
 11
40.396610638052863
 21
97.637643987604221
 31
0.0
  0
ARC
  5
B2B
  8
0
 10
40.435806108013082
 20
94.859795498078583
 30
0.0
 40
2.7781250000000139
 50
95.252655071377717
 51
113.7806503906272
  0
POLYLINE
  5
B2C
  8
0
 66
     1
 10
0.0
 20
0.0
 30
0.0
 70
   128
  0
VERTEX
  5
E85
  8
0
 10
27.814246556690851
 20
97.637920289800107
 30
0.0
  0
VERTEX
  5
E86
  8
0
 10
27.721852150461778
 20
97.635276684468707
 30
0.0
  0
VERTEX
  5
E87
  8
0
 10
27.702113229605381
 20
97.634012641888447
 30
0.0
  0
SEQEND
  5
E88
  8
0
  0
POLYLINE
  5
B2D
  8
0
 66
     1
 10
0.0
 20
0.0
 30
0.0
 70
   128
  0
VERTEX
  5
E89
  8
0
 10
45.192336184129402
 20
97.637920289257195
 30
0.0
  0
VERTEX
  5
E8A
  8
0
 10
45.037292698212269
 20
97.630410875801957
 30
0.0
  0
VERTEX
  5
E8B
  8
0
 10
44.861555045405993
 20
97.603249562815932
 30
0.0
  0
SEQEND
  5
E8C
  8
0
  0
ARC
  5
B2E
  8
0
 10
33.779967786867161
 20
94.859795498078583
 30
0.0
 40
2.7781250000000242
 50
89.971061866512599
 51
103.63085034734139
  0
POLYLINE
  5
B2F
  8
0
 66
     1
 10
0.0
 20
0.0
 30
0.0
 70
   128
  0
VERTEX
  5
E8D
  8
0
 10
30.424566957023298
 20
97.637920134652845
 30
0.0
  0
VERTEX
  5
E8E
  8
0
 10
30.331003344503792
 20
97.635769825491693
 30
0.0
  0
VERTEX
  5
E8F
  8
0
 10
30.089891946822348
 20
97.609699686740143
 30
0.0
  0
SEQEND
  5
E90
  8
0
  0
POLYLINE
  5
B30
  8
0
 66
     1
 10
0.0
 20
0.0
 30
0.0
 70
   128
  0
VERTEX
  5
E91
  8
0
 10
42.582018033137693
 20
97.637920132567515
 30
0.0
  0
VERTEX
  5
E92
  8
0
 10
42.391656404072947
 20
97.628884377867465
 30
0.0
  0
VERTEX
  5
E93
  8
0
 10
42.304380297047452
 20
97.618571900215969
 30
0.0
  0
SEQEND
  5
E94
  8
0
  0
POLYLINE
  5
B31
  8
0
 66
     1
 10
0.0
 20
0.0
 30
0.0
 70
   128
  0
VERTEX
  5
E95
  8
0
 10
37.474733517647991
 20
97.637919948962193
 30
0.0
  0
VERTEX
  5
E96
  8
0
 10
37.1898301178434
 20
97.623452642121777
 30
0.0
  0
VERTEX
  5
E97
  8
0
 10
37.031489035047713
 20
97.602614894335986
 30
0.0
  0
SEQEND
  5
E98
  8
0
  0
POLYLINE
  5
B32
  8
0
 66
     1
 10
0.0
 20
0.0
 30
0.0
 70
   128
  0
VERTEX
  5
E99
  8
0
 10
28.47340821423845
 20
97.637919703058031
 30
0.0
  0
VERTEX
  5
E9A
  8
0
 10
28.276894686683821
 20
97.625907911183717
 30
0.0
  0
VERTEX
  5
E9B
  8
0
 10
28.142626403590931
 20
97.603413798747454
 30
0.0
  0
SEQEND
  5
E9C
  8
0
  0
ARC
  5
B33
  8
0
 10
44.531588159632662
 20
96.050420498078594
 30
0.0
 40
1.5875000000000259
 50
89.942658403843268
 51
109.55110852329381
  0
LINE
  5
B34
  8
0
 10
32.296684786931387
 20
97.637919315125615
 30
0.0
 11
32.222676150492731
 21
97.636619597860957
 31
0.0
  0
LINE
  5
B35
  8
0
 10
40.709900092870861
 20
97.637919314577417
 30
0.0
 11
40.583189058733943
 21
97.634008320026837
 31
0.0
  0
ARC
  5
B36
  8
0
 10
29.532937113555729
 20
96.050420498078594
 30
0.0
 40
1.587500000000005
 50
89.917613452560119
 51
109.52452322046091
  0
POLYLINE
  5
B37
  8
0
 66
     1
 10
0.0
 20
0.0
 30
0.0
 70
   128
  0
VERTEX
  5
E9D
  8
0
 10
43.47136495336926
 20
97.637918856704005
 30
0.0
  0
VERTEX
  5
E9E
  8
0
 10
43.437332134708718
 20
97.637602966763197
 30
0.0
  0
VERTEX
  5
E9F
  8
0
 10
43.365730103516228
 20
97.634552630258568
 30
0.0
  0
SEQEND
  5
EA0
  8
0
  0
LINE
  5
B38
  8
0
 10
35.001971537522913
 20
97.637918658381821
 30
0.0
 11
34.744373007092612
 21
97.621481458811743
 31
0.0
  0
POLYLINE
  5
B39
  8
0
 66
     1
 10
0.0
 20
0.0
 30
0.0
 70
   128
  0
VERTEX
  5
EA1
  8
0
 10
38.004613137014729
 20
97.637918658381452
 30
0.0
  0
VERTEX
  5
EA2
  8
0
 10
37.99771525751774
 20
97.637916062258128
 30
0.0
  0
VERTEX
  5
EA3
  8
0
 10
37.759712982473793
 20
97.623084590998985
 30
0.0
  0
SEQEND
  5
EA4
  8
0
  0
POLYLINE
  5
B3A
  8
0
 66
     1
 10
0.0
 20
0.0
 30
0.0
 70
   128
  0
VERTEX
  5
EA5
  8
0
 10
30.946439995768319
 20
97.637917917325737
 30
0.0
  0
VERTEX
  5
EA6
  8
0
 10
30.856077271231609
 20
97.635507233880688
 30
0.0
  0
VERTEX
  5
EA7
  8
0
 10
30.698045364845431
 20
97.618817839554083
 30
0.0
  0
SEQEND
  5
EA8
  8
0
  0
ARC
  5
B3B
  8
0
 10
42.05728228010841
 20
96.050420498078594
 30
0.0
 40
1.587500000000003
 50
89.896687224128584
 51
113.6060889053913
  0
POLYLINE
  5
B3C
  8
0
 66
     1
 10
0.0
 20
0.0
 30
0.0
 70
   128
  0
VERTEX
  5
EA9
  8
0
 10
32.636303804311808
 20
97.637917071061608
 30
0.0
  0
VERTEX
  5
EAA
  8
0
 10
32.547330689185657
 20
97.635606962691568
 30
0.0
  0
VERTEX
  5
EAB
  8
0
 10
32.473214708189573
 20
97.629858134580786
 30
0.0
  0
SEQEND
  5
EAC
  8
0
  0
POLYLINE
  5
B3D
  8
0
 66
     1
 10
0.0
 20
0.0
 30
0.0
 70
   128
  0
VERTEX
  5
EAD
  8
0
 10
40.370280889891383
 20
97.637917070877975
 30
0.0
  0
VERTEX
  5
EAE
  8
0
 10
40.204294315596449
 20
97.629562322624466
 30
0.0
  0
VERTEX
  5
EAF
  8
0
 10
40.154663752959863
 20
97.62365828262854
 30
0.0
  0
SEQEND
  5
EB0
  8
0
  0
POLYLINE
  5
B3E
  8
0
 66
     1
 10
0.0
 20
0.0
 30
0.0
 70
   128
  0
VERTEX
  5
EB1
  8
0
 10
34.520074726197521
 20
97.637916485144459
 30
0.0
  0
VERTEX
  5
EB2
  8
0
 10
34.357152359328872
 20
97.629902343905286
 30
0.0
  0
VERTEX
  5
EB3
  8
0
 10
34.199817155795103
 20
97.606011990461511
 30
0.0
  0
SEQEND
  5
EB4
  8
0
  0
POLYLINE
  5
B3F
  8
0
 66
     1
 10
0.0
 20
0.0
 30
0.0
 70
   128
  0
VERTEX
  5
EB5
  8
0
 10
38.486510024707712
 20
97.637916485177257
 30
0.0
  0
VERTEX
  5
EB6
  8
0
 10
38.393116158975687
 20
97.635377224188304
 30
0.0
  0
VERTEX
  5
EB7
  8
0
 10
38.255891150837641
 20
97.621599930020054
 30
0.0
  0
SEQEND
  5
EB8
  8
0
  0
LINE
  5
B40
  8
0
 10
27.003292344361849
 20
94.901316138780885
 30
0.0
 11
29.518292344361871
 21
93.449280211768965
 31
0.0
  0
LINE
  5
B41
  8
0
 10
43.488292344361831
 20
93.449280211768965
 30
0.0
 11
46.003292344361817
 21
94.901316138780885
 31
0.0
  0
LINE
  5
B42
  8
0
 10
29.624262166389169
 20
91.875850098888947
 30
0.0
 11
29.525728306870288
 21
91.637916276180874
 31
0.0
  0
LINE
  5
B43
  8
0
 10
43.480856381853378
 20
91.637916276180874
 30
0.0
 11
43.382322522334498
 21
91.875850098888947
 31
0.0
  0
ARC
  5
B44
  8
0
 10
29.391292344361862
 20
93.229309759207723
 30
0.0
 40
0.2539999999999765
 50
0.0
 51
60.000000000001691
  0
ARC
  5
B45
  8
0
 10
43.615292344361848
 20
93.229309759207723
 30
0.0
 40
0.2540000000000049
 50
120.0000000000019
 51
180.0
  0
ARC
  5
B46
  8
0
 10
43.615292344361848
 20
91.977048231404069
 30
0.0
 40
0.2540000000000049
 50
180.0
 51
203.4793074958877
  0
ARC
  5
B47
  8
0
 10
29.391292344361862
 20
91.977048231404069
 30
0.0
 40
0.2539999999999872
 50
336.52069250411228
 51
0.0
  0
LINE
  5
B48
  8
0
 10
29.64529234436182
 20
93.229309759207723
 30
0.0
 11
29.64529234436182
 21
91.977048231404069
 31
0.0
  0
LINE
  5
B49
  8
0
 10
43.361292344361829
 20
91.977048231404069
 30
0.0
 11
43.361292344361829
 21
93.229309759207723
 31
0.0
  0
LINE
  5
B96
  8
0
 10
46.003292344361817
 20
76.637916276180874
 30
0.0
 11
47.47294745896474
 21
77.031709177290963
 31
0.0
  0
LINE
  5
B97
  8
0
 10
25.53363722975897
 20
77.031709177290963
 30
0.0
 11
27.003292344361881
 21
76.637916276180874
 31
0.0
  0
LINE
  5
B98
  8
0
 10
47.47294745896474
 20
91.244123375070757
 30
0.0
 11
46.003292344361817
 21
91.637916276180874
 31
0.0
  0
LINE
  5
B99
  8
0
 10
27.003292344361881
 20
91.637916276180874
 30
0.0
 11
25.53363722975897
 21
91.244123375070757
 31
0.0
  0
LINE
  5
B9C
  8
0
 10
26.005422506703471
 20
96.050420498078637
 30
0.0
 11
26.005387238121621
 21
96.050420498078637
 31
0.0
  0
ARC
  5
B9D
  8
0
 10
26.554616192830402
 20
96.042654667586973
 30
0.0
 40
0.5501939549407763
 50
116.82347244545529
 51
176.54455562578019
  0
ARC
  5
B9E
  8
0
 10
26.632219306301721
 20
96.166558273817301
 30
0.0
 40
0.3981590116945792
 50
169.86539026940011
 51
196.95897647561389
  0
LINE
  5
B9F
  8
0
 10
26.287731267158371
 20
96.050420498078637
 30
0.0
 11
26.251374698043069
 21
96.050420498078637
 31
0.0
  0
ARC
  5
BA0
  8
0
 10
27.154982700399671
 20
95.680367892985288
 30
0.0
 40
0.9429018925609842
 50
100.01237118031651
 51
156.8922576036309
  0
ARC
  5
BA1
  8
0
 10
27.448140379386668
 20
96.334228190602019
 30
0.0
 40
0.5207971851024704
 50
167.64472241172069
 51
213.0211506309646
  0
LINE
  5
BA2
  8
0
 10
27.08229091649255
 20
96.050420498078637
 30
0.0
 11
27.011467845702239
 21
96.050420498078637
 31
0.0
  0
ARC
  5
BA3
  8
0
 10
28.230206471562781
 20
95.228584547188973
 30
0.0
 40
1.411780596178223
 50
95.915790538756482
 51
144.39969867452811
  0
ARC
  5
BA4
  8
0
 10
28.627546625348909
 20
96.500478017063656
 30
0.0
 40
0.589042840676053
 50
172.27330784828609
 51
229.82244967495399
  0
LINE
  5
BA5
  8
0
 10
28.34925891609598
 20
96.050420498078651
 30
0.0
 11
28.247520708131649
 21
96.050420498078651
 31
0.0
  0
ARC
  5
BA6
  8
0
 10
29.719295369672661
 20
94.781956574021876
 30
0.0
 40
1.867083450401315
 50
97.551600942195236
 51
137.20458750144499
  0
ARC
  5
BA7
  8
0
 10
30.77447757113865
 20
97.133527246078373
 30
0.0
 40
1.393598910943088
 50
201.05547364978139
 51
231.00502954165441
  0
LINE
  5
BA8
  8
0
 10
30.025104200083351
 20
96.050420498078651
 30
0.0
 11
29.897552433501829
 21
96.050420498078651
 31
0.0
  0
ARC
  5
BA9
  8
0
 10
31.592225945234109
 20
94.35507410324449
 30
0.0
 40
2.3086944281634318
 50
99.388006664744807
 51
132.74926480301511
  0
ARC
  5
BAA
  8
0
 10
30.043306642614681
 20
94.629164726374654
 30
0.0
 40
2.3214414171986091
 50
37.750912145631261
 51
59.66869252305532
  0
LINE
  5
BAB
  8
0
 10
32.025792888159323
 20
96.050420498078651
 30
0.0
 11
31.878823541170139
 21
96.050420498078651
 31
0.0
  0
ARC
  5
BAC
  8
0
 10
34.201534645486959
 20
93.100607641771731
 30
0.0
 40
3.665412402691528
 50
105.49204426029451
 51
126.41197971143259
  0
ARC
  5
BAD
  8
0
 10
30.600165975868212
 20
91.777762758849576
 30
0.0
 40
5.5180071610923811
 50
50.742674370348297
 51
61.625700501404893
  0
LINE
  5
BAE
  8
0
 10
34.251002095390589
 20
96.050420498078651
 30
0.0
 11
34.09198482473068
 21
96.050420498078651
 31
0.0
  0
ARC
  5
BAF
  8
0
 10
37.043210762549251
 20
91.983958596185019
 30
0.0
 40
4.9328026151972493
 50
109.5339458304941
 51
124.4751770671924
  0
ARC
  5
BB0
  8
0
 10
34.212674336935862
 20
93.333621520778166
 30
0.0
 40
3.5042929318329841
 50
50.83018587249007
 51
70.301772320791628
  0
LINE
  5
BB1
  8
0
 10
36.589150540450447
 20
96.050420498078651
 30
0.0
 11
36.426059136068801
 21
96.050420498078651
 31
0.0
  0
ARC
  5
BB2
  8
0
 10
38.801604087312882
 20
93.336296607519216
 30
0.0
 40
3.5016309329106101
 50
109.7064234741997
 51
129.185647591899
  0
ARC
  5
BB3
  8
0
 10
36.68139902214083
 20
93.375865032648832
 30
0.0
 40
3.3897639702339371
 50
52.093029818442801
 51
73.910184532427991
  0
LINE
  5
BB4
  8
0
 10
38.922993697045833
 20
96.050420498078651
 30
0.0
 11
38.76400624296852
 21
96.050420498078651
 31
0.0
  0
ARC
  5
BB5
  8
0
 10
42.181174085799732
 20
92.129354994483037
 30
0.0
 40
5.0980873010503931
 50
117.94854201433731
 51
129.72463617167659
  0
ARC
  5
BB6
  8
0
 10
39.161534087015838
 20
93.816943548623058
 30
0.0
 40
2.8855777341780899
 50
50.715704461724748
 51
77.383572623614384
  0
LINE
  5
BB7
  8
0
 10
41.135502924024671
 20
96.050420498078651
 30
0.0
 11
40.988591715072907
 21
96.050420498078651
 31
0.0
  0
ARC
  5
BB8
  8
0
 10
-85.140187541417845
 20
240.32597103347661
 30
0.0
 40
191.7315427487533
 50
311.1937028780635
 51
311.45727861938042
  0
ARC
  5
BB9
  8
0
 10
41.426046118320102
 20
94.365179985080616
 30
0.0
 40
2.2979480264664711
 50
47.169455567594262
 51
80.688205075863038
  0
LINE
  5
BBA
  8
0
 10
43.115733770112307
 20
96.050420498078651
 30
0.0
 11
42.988265547750842
 21
96.050420498078651
 31
0.0
  0
ARC
  5
BBB
  8
0
 10
42.209894423585602
 20
97.152449849015795
 30
0.0
 40
1.426539032779474
 50
309.41931173568651
 51
338.63915405858069
  0
ARC
  5
BBC
  8
0
 10
43.294502388804602
 20
94.785545247616739
 30
0.0
 40
1.863337501984605
 50
42.75169026363627
 51
82.477652388982477
  0
LINE
  5
BBD
  8
0
 10
44.764389191962067
 20
96.050420498078651
 30
0.0
 11
44.662755745120933
 21
96.050420498078651
 31
0.0
  0
ARC
  5
BBE
  8
0
 10
44.341858297726077
 20
96.511951705127117
 30
0.0
 40
0.6257342979755003
 50
312.47404007357261
 51
5.8315252866192271
  0
ARC
  5
BBF
  8
0
 10
44.779678340768577
 20
95.22785649747577
 30
0.0
 40
1.412613011467811
 50
35.612447780289813
 51
84.045012112903208
  0
LINE
  5
BC0
  8
0
 10
45.998798722536797
 20
96.050420498078637
 30
0.0
 11
45.92809637662495
 21
96.050420498078637
 31
0.0
  0
ARC
  5
BC1
  8
0
 10
45.559106333713913
 20
96.33409105967992
 30
0.0
 40
0.5232574742025093
 50
327.17163738315031
 51
12.20253307190797
  0
ARC
  5
BC2
  8
0
 10
45.849636142678797
 20
95.676258566344487
 30
0.0
 40
0.9481507219109493
 50
23.242453709789899
 51
80.331728999058114
  0
LINE
  5
BC3
  8
0
 10
46.757063913528206
 20
96.050420498078637
 30
0.0
 11
46.720837979396983
 21
96.050420498078637
 31
0.0
  0
ARC
  5
BC4
  8
0
 10
46.377486256218383
 20
96.166005032411832
 30
0.0
 40
0.3967858143964132
 50
343.06407406653881
 51
10.10324384100076
  0
ARC
  5
BC5
  8
0
 10
46.388644319444069
 20
96.015569907696715
 30
0.0
 40
0.6155402658250179
 50
5.6168378955794029
 51
60.631963384291758
  0
LINE
  5
BC6
  8
0
 10
47.001197451453969
 20
96.050420498078637
 30
0.0
 11
47.001229179273373
 21
96.050420498078637
 31
0.0
  0
ARC
  5
BC7
  8
0
 10
36.123739954442698
 20
96.711965720025674
 30
0.0
 40
1.499200540664682
 50
356.97485666779278
 51
22.26140993132222
  0
ARC
  5
BC8
  8
0
 10
36.898330712933387
 20
96.712302013421265
 30
0.0
 40
1.5065745596529561
 50
157.8640287054526
 51
183.0231300677037
  0
LINE
  5
BC9
  8
0
 10
26.003292344361832
 20
94.901316138780885
 30
0.0
 11
47.003292344361853
 21
94.901316138780885
 31
0.0
  0
ARC
  5
BCA
  8
0
 10
34.312191815605729
 20
96.541441211082315
 30
0.0
 40
1.093532435177994
 50
140.64931882690081
 51
175.20520596465971
  0
ARC
  5
BCB
  8
0
 10
38.702501705609649
 20
96.540910930373187
 30
0.0
 40
1.0931817593072539
 50
4.8242270139628234
 51
39.38331092373285
  0
ARC
  5
BCC
  8
0
 10
32.396139653988122
 20
96.33381032458469
 30
0.0
 40
1.2177925530079321
 50
140.13723735910179
 51
165.78530396412521
  0
ARC
  5
BCD
  8
0
 10
40.617294907319341
 20
96.333239975614902
 30
0.0
 40
1.2179991822234131
 50
14.23991238229789
 51
39.84828691415899
  0
LINE
  5
BCE
  8
0
 10
43.474807498058247
 20
96.776351718907378
 30
0.0
 11
43.53843727660373
 21
96.6328466352672
 31
0.0
  0
LINE
  5
BCF
  8
0
 10
29.53866154635822
 20
96.778602211479054
 30
0.0
 11
29.47392505373023
 21
96.6328466352672
 31
0.0
  0
ARC
  5
BD0
  8
0
 10
36.320527391352471
 20
117.5772965861766
 30
0.0
 40
40.93978826514018
 50
270.25578283808369
 51
277.95742786365508
  0
ARC
  5
BD1
  8
0
 10
36.71790141694845
 20
118.02082795533759
 30
0.0
 40
41.383468149720372
 50
262.0839187987329
 51
269.70287049953049
  0
LINE
  5
BD2
  8
0
 10
31.018464787060399
 20
77.03170917729102
 30
0.0
 11
31.018464787060399
 21
91.244123375070785
 31
0.0
  0
ARC
  5
BD3
  8
0
 10
36.717676148037839
 20
50.258142188192409
 30
0.0
 40
41.380329433056019
 50
90.296840123424118
 51
97.916370578315679
  0
ARC
  5
BD4
  8
0
 10
36.319757060843607
 20
50.687806646303272
 30
0.0
 40
40.950520923417969
 50
82.043582914218163
 51
89.743206384044385
  0
LINE
  5
BD5
  8
0
 10
41.988119901663282
 20
77.03170917729102
 30
0.0
 11
41.988119901663282
 21
91.244123375070785
 31
0.0
  0
ARC
  5
BD6
  8
0
 10
28.166304136318448
 20
87.148325208560806
 30
0.0
 40
10.51098189046987
 50
270.59824542636039
 51
285.74464787962597
  0
ARC
  5
BD8
  8
0
 10
28.38626044929433
 20
87.151546584642844
 30
0.0
 40
10.514207929457671
 50
254.25768940118451
 51
269.39941729283231
  0
LINE
  5
BD9
  8
0
 10
25.53363722975897
 20
77.031709177290992
 30
0.0
 11
25.53363722975897
 21
91.244123375070757
 31
0.0
  0
ARC
  5
BDA
  8
0
 10
28.385797880501091
 20
81.127507343799664
 30
0.0
 40
10.51098189047118
 50
90.598245426362013
 51
105.744647879626
  0
ARC
  5
BDB
  8
0
 10
28.165841567524641
 20
81.124285967716347
 30
0.0
 40
10.514207929460261
 50
74.257689401186042
 51
89.399417292828986
  0
ARC
  5
BDC
  8
0
 10
44.620786808222789
 20
87.148325208562184
 30
0.0
 40
10.510981890471241
 50
270.59824542635869
 51
285.74464787962438
  0
ARC
  5
BDD
  8
0
 10
44.84074312119872
 20
87.151546584642603
 30
0.0
 40
10.51420792945741
 50
254.257689401184
 51
269.39941729283231
  0
ARC
  5
BDE
  8
0
 10
44.840280552405233
 20
81.127507343800275
 30
0.0
 40
10.51098189047058
 50
90.598245426360393
 51
105.744647879626
  0
ARC
  5
BDF
  8
0
 10
44.620324239428932
 20
81.124285967716759
 30
0.0
 40
10.514207929459831
 50
74.257689401184479
 51
89.399417292828986
  0
LINE
  5
BE0
  8
0
 10
47.47294745896474
 20
77.031709177290963
 30
0.0
 11
47.47294745896474
 21
91.244123375070757
 31
0.0
  0
LINE
  5
C0F
  8
0
 10
27.003292344361881
 20
76.637916276180874
 30
0.0
 11
46.003292344361853
 21
76.637916276180874
 31
0.0
  0
LINE
  5
C11
  8
0
 10
27.003292344361881
 20
91.637916276180874
 30
0.0
 11
46.003292344360261
 21
91.637916276181286
 31
0.0
  0
LINE
  5
C12
  8
0
 10
26.003292344361832
 20
96.02831613878088
 30
0.0
 11
47.003292344361853
 21
96.02831613878088
 31
0.0
  0
LINE
  5
C13
  8
0
 10
29.518292344361871
 20
93.449280211768965
 30
0.0
 11
43.488291754991593
 21
93.449280211768965
 31
0.0
  0
LINE
  5
C15
  8
0
 10
43.361291765707421
 20
93.229309759207723
 30
0.0
 11
29.64529234436182
 21
93.229309759207723
 31
0.0
  0
LINE
  5
C16
  8
0
 10
29.645292923016289
 20
91.977048231404069
 30
0.0
 11
43.361292344361829
 21
91.977048231404069
 31
0.0
  0
ARC
  5
C19
  8
0
 10
82.871905604030445
 20
96.028316138780895
 30
0.0
 40
0.6350000000000194
 50
175.7334368294367
 51
180.0
  0
ARC
  5
C1A
  8
0
 10
102.60190560403041
 20
96.028316138780838
 30
0.0
 40
0.6350000000000131
 50
0.0
 51
4.2733300235486666
  0
ARC
  5
C1B
  8
0
 10
92.740566820693431
 20
96.050420498078637
 30
0.0
 40
1.5875000000000119
 50
50.758182038453427
 51
129.23748606218609
  0
LINE
  5
C1C
  8
0
 10
82.236905604030454
 20
96.028316138780895
 30
0.0
 11
82.236905604030397
 21
94.901316138780913
 31
0.0
  0
LINE
  5
C1D
  8
0
 10
103.2369056040304
 20
94.901316138780814
 30
0.0
 11
103.2369056040304
 21
96.028316138780838
 31
0.0
  0
ARC
  5
C1E
  8
0
 10
90.757257369799078
 20
96.050420498078637
 30
0.0
 40
1.5875000000000119
 50
50.762513937813878
 51
131.74862254413389
  0
ARC
  5
C1F
  8
0
 10
94.723692682896257
 20
96.050420498078594
 30
0.0
 40
1.5875000000000199
 50
48.236672718621563
 51
129.24181796154659
  0
ARC
  5
C20
  8
0
 10
88.873215747660325
 20
96.050420498078637
 30
0.0
 40
1.587500000000025
 50
53.761307599370816
 51
137.91785880035141
  0
ARC
  5
C21
  8
0
 10
96.60719274486442
 20
96.050420498078594
 30
0.0
 40
1.5875000000000119
 50
42.049366798572002
 51
126.54663105330781
  0
ARC
  5
C22
  8
0
 10
98.296620448679533
 20
96.050420498078594
 30
0.0
 40
1.5875000000000019
 50
27.21169804787797
 51
122.28839257273739
  0
ARC
  5
C23
  8
0
 10
87.182915668283755
 20
96.050420498078651
 30
0.0
 40
1.5875000000000159
 50
57.974266863386482
 51
152.6969316162818
  0
ARC
  5
C24
  8
0
 10
92.739677191258835
 20
95.6535454980786
 30
0.0
 40
1.9843750000000051
 50
58.100574590991819
 51
122.1312020769746
  0
ARC
  5
C25
  8
0
 10
89.812043612479584
 20
95.653545498078614
 30
0.0
 40
1.9843750000000031
 50
75.535793572702929
 51
104.5802722111215
  0
ARC
  5
C26
  8
0
 10
95.66676182319614
 20
95.6535454980786
 30
0.0
 40
1.984375000000004
 50
75.60273632979073
 51
104.6558326784392
  0
ARC
  5
C27
  8
0
 10
99.707260834836489
 20
96.050420498078594
 30
0.0
 40
1.587499999999995
 50
19.398803298445461
 51
116.49369348867459
  0
ARC
  5
C28
  8
0
 10
85.771115835727898
 20
96.050420498078651
 30
0.0
 40
1.587499999999999
 50
63.713608970282117
 51
160.49899264837751
  0
ARC
  5
C29
  8
0
 10
90.844347844791656
 20
94.859795498078611
 30
0.0
 40
2.778125000000002
 50
68.2897775303488
 51
91.10683662363644
  0
POLYLINE
  5
C2A
  8
0
 66
     1
 10
0.0
 20
0.0
 30
0.0
 70
   128
  0
VERTEX
  5
EB9
  8
0
 10
90.489223695205141
 20
97.615129480376496
 30
0.0
  0
VERTEX
  5
EBA
  8
0
 10
90.384261866645076
 20
97.599558153554071
 30
0.0
  0
VERTEX
  5
EBB
  8
0
 10
90.281633028788548
 20
97.580334149058515
 30
0.0
  0
SEQEND
  5
EBC
  8
0
  0
POLYLINE
  5
C2B
  8
0
 66
     1
 10
0.0
 20
0.0
 30
0.0
 70
   128
  0
VERTEX
  5
EBD
  8
0
 10
95.190938724652852
 20
97.581255101448704
 30
0.0
  0
VERTEX
  5
EBE
  8
0
 10
95.092650999850747
 20
97.599579964485045
 30
0.0
  0
VERTEX
  5
EBF
  8
0
 10
95.003589576273583
 20
97.613050965936495
 30
0.0
  0
SEQEND
  5
EC0
  8
0
  0
ARC
  5
C2C
  8
0
 10
94.63269492231413
 20
94.859795498078611
 30
0.0
 40
2.7781250000000242
 50
89.014992064452997
 51
111.8169748620352
  0
ARC
  5
C2D
  8
0
 10
87.463714822205276
 20
95.653545498078614
 30
0.0
 40
1.9843750000000071
 50
68.036251174659952
 51
94.371604545120164
  0
ARC
  5
C2E
  8
0
 10
98.013552498599225
 20
95.6535454980786
 30
0.0
 40
1.9843749999999929
 50
85.768756240992971
 51
112.1302460687465
  0
ARC
  5
C2F
  8
0
 10
100.76837850405209
 20
96.050420498078594
 30
0.0
 40
1.587500000000009
 50
14.395798518795679
 51
109.6119613169015
  0
ARC
  5
C30
  8
0
 10
84.70860978875956
 20
96.050420498078651
 30
0.0
 40
1.587499999999977
 50
70.536296633535201
 51
165.56013874850149
  0
ARC
  5
C31
  8
0
 10
84.048676017212898
 20
96.050420498078651
 30
0.0
 40
1.5875000000000039
 50
78.062035837498073
 51
173.26345237620939
  0
ARC
  5
C32
  8
0
 10
101.4267645855505
 20
96.050420498078594
 30
0.0
 40
1.5874999999999899
 50
6.6989740427064248
 51
102.026633434874
  0
ARC
  5
C33
  8
0
 10
86.159806137712366
 20
95.653545498078614
 30
0.0
 40
1.9843750000000131
 50
74.279800656026467
 51
96.005679743157671
  0
ARC
  5
C34
  8
0
 10
99.315238542705643
 20
95.6535454980786
 30
0.0
 40
1.9843749999999949
 50
84.083226741083067
 51
105.83079126090129
  0
ARC
  5
C35
  8
0
 10
88.48113536111876
 20
94.859795498078611
 30
0.0
 40
2.7781250000000219
 50
85.466512638370077
 51
101.4983191800259
  0
ARC
  5
C36
  8
0
 10
96.993473976114416
 20
94.859795498078583
 30
0.0
 40
2.7781250000000259
 50
78.550338617530969
 51
94.620694214533188
  0
ARC
  5
C37
  8
0
 10
92.736905604030454
 20
93.669170498078628
 30
0.0
 40
3.9687499999999809
 50
74.898603746110865
 51
105.07494872626469
  0
ARC
  5
C38
  8
0
 10
83.824406356036462
 20
96.050420498078651
 30
0.0
 40
1.587500000000005
 50
85.978952717532934
 51
180.0
  0
ARC
  5
C39
  8
0
 10
101.6494048520243
 20
96.050420498078594
 30
0.0
 40
1.5875000000000079
 50
0.0035006968220127
 51
94.050524295347174
  0
POLYLINE
  5
C3A
  8
0
 66
     1
 10
0.0
 20
0.0
 30
0.0
 70
   128
  0
VERTEX
  5
EC1
  8
0
 10
86.15920347429838
 20
97.637920397815336
 30
0.0
  0
VERTEX
  5
EC2
  8
0
 10
86.034582326156979
 20
97.634043045769758
 30
0.0
  0
VERTEX
  5
EC3
  8
0
 10
85.951604786494869
 20
97.627097736491649
 30
0.0
  0
SEQEND
  5
EC4
  8
0
  0
ARC
  5
C3B
  8
0
 10
99.314005070348486
 20
95.6535454980786
 30
0.0
 40
1.9843749999999929
 50
89.982527152190144
 51
105.8111824510158
  0
POLYLINE
  5
C3C
  8
0
 66
     1
 10
0.0
 20
0.0
 30
0.0
 70
   128
  0
VERTEX
  5
EC5
  8
0
 10
89.585208371631623
 20
97.625481274282478
 30
0.0
  0
VERTEX
  5
EC6
  8
0
 10
89.364051423273196
 20
97.637611309548973
 30
0.0
  0
VERTEX
  5
EC7
  8
0
 10
89.062828811530977
 20
97.625748320852793
 30
0.0
  0
SEQEND
  5
EC8
  8
0
  0
POLYLINE
  5
C3D
  8
0
 66
     1
 10
0.0
 20
0.0
 30
0.0
 70
   128
  0
VERTEX
  5
EC9
  8
0
 10
96.406259888438314
 20
97.625980695427543
 30
0.0
  0
VERTEX
  5
ECA
  8
0
 10
96.109434610403952
 20
97.637639167294125
 30
0.0
  0
VERTEX
  5
ECB
  8
0
 10
95.884870915197794
 20
97.625338856775514
 30
0.0
  0
SEQEND
  5
ECC
  8
0
  0
POLYLINE
  5
C3E
  8
0
 66
     1
 10
0.0
 20
0.0
 30
0.0
 70
   128
  0
VERTEX
  5
ECD
  8
0
 10
84.047862538730115
 20
97.637920288403294
 30
0.0
  0
VERTEX
  5
ECE
  8
0
 10
83.950135208162536
 20
97.634959682753205
 30
0.0
  0
VERTEX
  5
ECF
  8
0
 10
83.935726489273605
 20
97.634012641888475
 30
0.0
  0
SEQEND
  5
ED0
  8
0
  0
POLYLINE
  5
C3F
  8
0
 66
     1
 10
0.0
 20
0.0
 30
0.0
 70
   128
  0
VERTEX
  5
ED1
  8
0
 10
101.42595134829121
 20
97.637920288279204
 30
0.0
  0
VERTEX
  5
ED2
  8
0
 10
101.276324924425
 20
97.630930464705543
 30
0.0
  0
VERTEX
  5
ED3
  8
0
 10
101.09516830507459
 20
97.603249562815932
 30
0.0
  0
SEQEND
  5
ED4
  8
0
  0
LINE
  5
C40
  8
0
 10
87.461986895143426
 20
97.637919745542845
 30
0.0
 11
87.310824776544095
 21
97.632285915697324
 31
0.0
  0
ARC
  5
C41
  8
0
 10
98.010096385855519
 20
95.6535454980786
 30
0.0
 40
1.984375000000006
 50
89.950119093998836
 51
103.5564912506095
  0
POLYLINE
  5
C42
  8
0
 66
     1
 10
0.0
 20
0.0
 30
0.0
 70
   128
  0
VERTEX
  5
ED5
  8
0
 10
84.707021300106675
 20
97.637919703231987
 30
0.0
  0
VERTEX
  5
ED6
  8
0
 10
84.541599370906312
 20
97.629443895297484
 30
0.0
  0
VERTEX
  5
ED7
  8
0
 10
84.376239663259554
 20
97.603413798747468
 30
0.0
  0
SEQEND
  5
ED8
  8
0
  0
ARC
  5
C43
  8
0
 10
100.76520141930121
 20
96.050420498078594
 30
0.0
 40
1.587500000000011
 50
89.942664524610379
 51
109.55110852329381
  0
ARC
  5
C44
  8
0
 10
85.766550373224419
 20
96.050420498078651
 30
0.0
 40
1.587499999999997
 50
89.917611925613826
 51
109.52452322046091
  0
LINE
  5
C45
  8
0
 10
99.704978051209793
 20
97.637918856936679
 30
0.0
 11
99.519213263445593
 21
97.627281482984415
 31
0.0
  0
POLYLINE
  5
C46
  8
0
 66
     1
 10
0.0
 20
0.0
 30
0.0
 70
   128
  0
VERTEX
  5
ED9
  8
0
 10
89.809546372504911
 20
97.637918927067645
 30
0.0
  0
VERTEX
  5
EDA
  8
0
 10
89.633263906048484
 20
97.630296050874165
 30
0.0
  0
VERTEX
  5
EDB
  8
0
 10
89.585208371631694
 20
97.625481274282478
 30
0.0
  0
SEQEND
  5
EDC
  8
0
  0
ARC
  5
C47
  8
0
 10
95.66176759558121
 20
95.6535454980786
 30
0.0
 40
1.9843750000000191
 50
89.927903868517987
 51
103.725356867348
  0
ARC
  5
C48
  8
0
 10
87.177190759381375
 20
96.050420498078637
 30
0.0
 40
1.5875000000000079
 50
89.896686329367185
 51
107.6115985440501
  0
LINE
  5
C49
  8
0
 10
98.293757936267951
 20
97.637917917505249
 30
0.0
 11
98.158332403123126
 21
97.632376017301695
 31
0.0
  0
POLYLINE
  5
C4A
  8
0
 66
     1
 10
0.0
 20
0.0
 30
0.0
 70
   128
  0
VERTEX
  5
EDD
  8
0
 10
88.869917061476514
 20
97.637917071066866
 30
0.0
  0
VERTEX
  5
EDE
  8
0
 10
88.780943948854343
 20
97.635606962691625
 30
0.0
  0
VERTEX
  5
EDF
  8
0
 10
88.700723209787185
 20
97.629228597530954
 30
0.0
  0
SEQEND
  5
EE0
  8
0
  0
POLYLINE
  5
C4B
  8
0
 66
     1
 10
0.0
 20
0.0
 30
0.0
 70
   128
  0
VERTEX
  5
EE1
  8
0
 10
96.603894133694297
 20
97.637917070910945
 30
0.0
  0
VERTEX
  5
EE2
  8
0
 10
96.4379075752651
 20
97.629562322624494
 30
0.0
  0
VERTEX
  5
EE3
  8
0
 10
96.406259888438314
 20
97.625980695427515
 30
0.0
  0
SEQEND
  5
EE4
  8
0
  0
POLYLINE
  5
C4C
  8
0
 66
     1
 10
0.0
 20
0.0
 30
0.0
 70
   128
  0
VERTEX
  5
EE5
  8
0
 10
90.753687968855417
 20
97.637916485182785
 30
0.0
  0
VERTEX
  5
EE6
  8
0
 10
90.590765618997565
 20
97.6299023439053
 30
0.0
  0
VERTEX
  5
EE7
  8
0
 10
90.460425984011664
 20
97.611264654809318
 30
0.0
  0
SEQEND
  5
EE8
  8
0
  0
LINE
  5
C4D
  8
0
 10
94.720123288864073
 20
97.637916485167196
 30
0.0
 11
94.680453071360745
 21
97.637509967714536
 31
0.0
  0
LINE
  5
C4E
  8
0
 10
83.236905604030454
 20
94.901316138780913
 30
0.0
 11
85.751905604030441
 21
93.449280211768965
 31
0.0
  0
LINE
  5
C4F
  8
0
 10
99.721905604030425
 20
93.449280211768965
 30
0.0
 11
102.2369056040304
 21
94.901316138780814
 31
0.0
  0
LINE
  5
C50
  8
0
 10
85.857875426057745
 20
91.875850098888975
 30
0.0
 11
85.759341566538893
 21
91.637916276180903
 31
0.0
  0
LINE
  5
C51
  8
0
 10
99.714469641521958
 20
91.637916276180846
 30
0.0
 11
99.615935782003049
 21
91.875850098888904
 31
0.0
  0
ARC
  5
C52
  8
0
 10
85.624905604030374
 20
93.229309759207723
 30
0.0
 40
0.2540000000000191
 50
0.0
 51
59.99999999999946
  0
ARC
  5
C53
  8
0
 10
99.848905604030435
 20
93.229309759207695
 30
0.0
 40
0.2540000000000122
 50
120.0000000000019
 51
180.0
  0
ARC
  5
C54
  8
0
 10
99.848905604030435
 20
91.977048231404069
 30
0.0
 40
0.2540000000000376
 50
180.0
 51
203.47930749589071
  0
ARC
  5
C55
  8
0
 10
85.624905604030374
 20
91.977048231404098
 30
0.0
 40
0.2540000000000191
 50
336.52069250411228
 51
0.0
  0
LINE
  5
C56
  8
0
 10
85.878905604030393
 20
93.229309759207723
 30
0.0
 11
85.878905604030393
 21
91.977048231404098
 31
0.0
  0
LINE
  5
C57
  8
0
 10
99.594905604030401
 20
91.977048231404069
 30
0.0
 11
99.594905604030401
 21
93.229309759207695
 31
0.0
  0
LINE
  5
CA6
  8
0
 10
82.239035766371927
 20
96.050420498078651
 30
0.0
 11
82.239000497790158
 21
96.050420498078651
 31
0.0
  0
ARC
  5
CA7
  8
0
 10
82.788229452498996
 20
96.042654667586973
 30
0.0
 40
0.550193954940815
 50
116.82347244545529
 51
176.54455562576209
  0
ARC
  5
CA8
  8
0
 10
82.865832565970351
 20
96.166558273817301
 30
0.0
 40
0.39815901169462
 50
169.8653902693969
 51
196.95897647561179
  0
LINE
  5
CA9
  8
0
 10
82.521344526826937
 20
96.050420498078651
 30
0.0
 11
82.484987957711638
 21
96.050420498078651
 31
0.0
  0
ARC
  5
CAA
  8
0
 10
83.388595960068315
 20
95.680367892985188
 30
0.0
 40
0.9429018925611313
 50
100.0123711803197
 51
156.89225760363749
  0
ARC
  5
CAB
  8
0
 10
83.681753639054634
 20
96.334228190601934
 30
0.0
 40
0.5207971851018641
 50
167.64472241169571
 51
213.02115063099669
  0
LINE
  5
CAC
  8
0
 10
83.315904176161126
 20
96.050420498078651
 30
0.0
 11
83.245081105370815
 21
96.050420498078651
 31
0.0
  0
ARC
  5
CAD
  8
0
 10
84.463819731231325
 20
95.228584547189072
 30
0.0
 40
1.41178059617813
 50
95.915790538753242
 51
144.3996986745349
  0
ARC
  5
CAE
  8
0
 10
84.861159885017884
 20
96.500478017063855
 30
0.0
 40
0.589042840676394
 50
172.27330784830761
 51
229.82244967494131
  0
LINE
  5
CAF
  8
0
 10
84.58287217576472
 20
96.050420498078651
 30
0.0
 11
84.481133967800275
 21
96.050420498078651
 31
0.0
  0
ARC
  5
CB0
  8
0
 10
85.95290862933669
 20
94.781956574033913
 30
0.0
 40
1.867083450388769
 50
97.551600942106575
 51
137.20458750131709
  0
ARC
  5
CB1
  8
0
 10
87.008090830806992
 20
97.133527246078216
 30
0.0
 40
1.3935989109427891
 50
201.05547364977781
 51
231.00502954165771
  0
LINE
  5
CB2
  8
0
 10
86.258717459739984
 20
96.050420498078651
 30
0.0
 11
86.131165693170416
 21
96.050420498078651
 31
0.0
  0
ARC
  5
CB3
  8
0
 10
87.825839204902664
 20
94.355074103244604
 30
0.0
 40
2.308694428163323
 50
99.388006664744807
 51
132.74926480300931
  0
ARC
  5
CB4
  8
0
 10
86.276919902275509
 20
94.629164726365545
 30
0.0
 40
2.3214414172103841
 50
37.750912145690542
 51
59.668692523002818
  0
LINE
  5
CB5
  8
0
 10
88.259406147827832
 20
96.050420498078637
 30
0.0
 11
88.112436800838765
 21
96.050420498078637
 31
0.0
  0
ARC
  5
CB6
  8
0
 10
90.435147905153215
 20
93.100607641776563
 30
0.0
 40
3.6654124026862571
 50
105.49204426028111
 51
126.41197971144889
  0
ARC
  5
CB7
  8
0
 10
86.833779235540447
 20
91.777762758855104
 30
0.0
 40
5.518007161085726
 50
50.742674370342449
 51
61.625700501410741
  0
LINE
  5
CB8
  8
0
 10
90.484615355059205
 20
96.050420498078637
 30
0.0
 11
90.325598084399218
 21
96.050420498078637
 31
0.0
  0
ARC
  5
CB9
  8
0
 10
93.276824022226521
 20
91.983958596168165
 30
0.0
 40
4.9328026152160271
 50
109.53394583052339
 51
124.4751770671644
  0
ARC
  5
CBA
  8
0
 10
90.446287596548316
 20
93.333621520678889
 30
0.0
 40
3.5042929319453129
 50
50.830185872803682
 51
70.301772320474825
  0
LINE
  5
CBB
  8
0
 10
92.82276380011902
 20
96.050420498078637
 30
0.0
 11
92.659672395737303
 21
96.050420498078637
 31
0.0
  0
ARC
  5
CBC
  8
0
 10
95.035217346982762
 20
93.336296607517014
 30
0.0
 40
3.5016309329131219
 50
109.7064234742079
 51
129.1856475918932
  0
ARC
  5
CBD
  8
0
 10
92.915012281808771
 20
93.375865032647752
 30
0.0
 40
3.3897639702351481
 50
52.093029818445082
 51
73.910184532423301
  0
LINE
  5
CBE
  8
0
 10
95.156606956714398
 20
96.050420498078594
 30
0.0
 11
94.997619502637079
 21
96.050420498078594
 31
0.0
  0
ARC
  5
CBF
  8
0
 10
98.414787345454357
 20
92.129354994506386
 30
0.0
 40
5.0980873010232326
 50
117.94854201432049
 51
129.7246361717043
  0
ARC
  5
CC0
  8
0
 10
95.395147346683217
 20
93.816943548620586
 30
0.0
 40
2.8855777341807638
 50
50.715704461737459
 51
77.383572623602561
  0
LINE
  5
CC1
  8
0
 10
97.369116183693265
 20
96.050420498078594
 30
0.0
 11
97.222204974741516
 21
96.050420498078594
 31
0.0
  0
ARC
  5
CC2
  8
0
 10
-28.906574269948582
 20
240.32597102005261
 30
0.0
 40
191.73154273087999
 50
311.19370287805202
 51
311.45727861939321
  0
ARC
  5
CC3
  8
0
 10
97.659659377988675
 20
94.365179985080488
 30
0.0
 40
2.29794802646654
 50
47.169455567594262
 51
80.688205075861177
  0
LINE
  5
CC4
  8
0
 10
99.349347029780944
 20
96.050420498078594
 30
0.0
 11
99.221878807419372
 21
96.050420498078594
 31
0.0
  0
ARC
  5
CC5
  8
0
 10
98.443507683253785
 20
97.15244984901598
 30
0.0
 40
1.426539032779985
 50
309.41931173571783
 51
338.63915405857921
  0
ARC
  5
CC6
  8
0
 10
99.52811564847687
 20
94.785545247623745
 30
0.0
 40
1.863337501977123
 50
42.751690263555552
 51
82.477652389066094
  0
LINE
  5
CC7
  8
0
 10
100.9980024516305
 20
96.050420498078594
 30
0.0
 11
100.89636900478951
 21
96.050420498078594
 31
0.0
  0
ARC
  5
CC8
  8
0
 10
100.57547155739449
 20
96.511951705127174
 30
0.0
 40
0.6257342979757109
 50
312.474040073531
 51
5.8315252866061007
  0
ARC
  5
CC9
  8
0
 10
101.0132916004371
 20
95.227856497475685
 30
0.0
 40
1.412613011467881
 50
35.612447780287532
 51
84.045012112901617
  0
LINE
  5
CCA
  8
0
 10
102.23241198220541
 20
96.050420498078594
 30
0.0
 11
102.16170963629349
 21
96.050420498078594
 31
0.0
  0
ARC
  5
CCB
  8
0
 10
101.7927195933823
 20
96.334091059679864
 30
0.0
 40
0.5232574742026525
 50
327.17163738316788
 51
12.202533071904449
  0
ARC
  5
CCC
  8
0
 10
102.0832494023476
 20
95.676258566344714
 30
0.0
 40
0.9481507219106262
 50
23.242453709782641
 51
80.331728999069625
  0
LINE
  5
CCD
  8
0
 10
102.9906771731968
 20
96.050420498078594
 30
0.0
 11
102.95445123906551
 21
96.050420498078594
 31
0.0
  0
ARC
  5
CCE
  8
0
 10
102.6110995158859
 20
96.166005032411888
 30
0.0
 40
0.3967858143974713
 50
343.06407406657593
 51
10.103243840960859
  0
ARC
  5
CCF
  8
0
 10
102.6222575791123
 20
96.015569907696516
 30
0.0
 40
0.6155402658253373
 50
5.6168378955925267
 51
60.631963384278642
  0
LINE
  5
CD0
  8
0
 10
103.23481071112251
 20
96.050420498078566
 30
0.0
 11
103.2348424389419
 21
96.050420498078566
 31
0.0
  0
ARC
  5
CD1
  8
0
 10
92.357353214110702
 20
96.711965720025503
 30
0.0
 40
1.499200540665254
 50
356.97485666779932
 51
22.261409931319211
  0
ARC
  5
CD2
  8
0
 10
93.131943972604489
 20
96.712302013420796
 30
0.0
 40
1.5065745596554441
 50
157.86402870547229
 51
183.0231300676825
  0
LINE
  5
CD3
  8
0
 10
82.236905604030397
 20
94.901316138780913
 30
0.0
 11
103.2369047180765
 21
94.901316138780814
 31
0.0
  0
ARC
  5
CD4
  8
0
 10
90.545805075273705
 20
96.541441211082514
 30
0.0
 40
1.0935324351773821
 50
140.64931882688899
 51
175.2052059646679
  0
ARC
  5
CD5
  8
0
 10
94.936114965278094
 20
96.540910930372988
 30
0.0
 40
1.093181759307454
 50
4.8242270139725578
 51
39.38331092373285
  0
ARC
  5
CD6
  8
0
 10
88.629752913657313
 20
96.333810324584405
 30
0.0
 40
1.217792553008584
 50
140.1372373591087
 51
165.78530396412009
  0
ARC
  5
CD7
  8
0
 10
96.850908166988148
 20
96.333239975614902
 30
0.0
 40
1.2179991822232199
 50
14.239912382299471
 51
39.848286914165861
  0
LINE
  5
CD8
  8
0
 10
99.708420757726827
 20
96.776351718907335
 30
0.0
 11
99.772050536272374
 21
96.632846635267171
 31
0.0
  0
LINE
  5
CD9
  8
0
 10
85.772274806026786
 20
96.778602211479054
 30
0.0
 11
85.707538313398757
 21
96.6328466352672
 31
0.0
  0
ARC
  5
CDA
  8
0
 10
97.325051184273633
 20
107.43480185776311
 30
0.0
 40
30.79731089524315
 50
270.3011177784004
 51
279.17727886107929
  0
ARC
  5
CDB
  8
0
 10
97.64940094794477
 20
107.4425327989242
 30
0.0
 40
30.80504510384737
 50
260.8238376387938
 51
269.69776572172691
  0
LINE
  5
CDC
  8
0
 10
92.736905604030341
 20
77.031709177290963
 30
0.0
 11
92.736905604030341
 21
91.244123375070757
 31
0.0
  0
ARC
  5
CDD
  8
0
 10
97.648718925836334
 20
60.841526425389141
 30
0.0
 40
30.79681495533363
 50
90.301046165997334
 51
99.177350473484964
  0
ARC
  5
CDE
  8
0
 10
97.324444813704616
 20
60.833716544968638
 30
0.0
 40
30.804628135863091
 50
80.823777460201185
 51
89.697825900317895
  0
ARC
  5
CE1
  8
0
 10
87.825051184273633
 20
107.43480185776291
 30
0.0
 40
30.797310895242951
 50
270.3011177784004
 51
279.17727886108088
  0
ARC
  5
CE2
  8
0
 10
87.824410260115627
 20
60.833299753435853
 30
0.0
 40
30.805045103849
 50
80.82383763879379
 51
89.697765721725247
  0
ARC
  5
CE4
  8
0
 10
88.149400947944414
 20
107.44253279891841
 30
0.0
 40
30.805045103841511
 50
260.82383763879221
 51
269.69776572172691
  0
ARC
  5
CE6
  8
0
 10
88.148760023787105
 20
60.841030694600839
 30
0.0
 40
30.797310895240969
 50
90.301117778400354
 51
99.177278861080922
  0
LINE
  5
CE9
  8
0
 10
102.2369056040303
 20
91.637916276180903
 30
0.0
 11
102.2369056040303
 21
76.637916276180803
 31
0.0
  0
LINE
  5
CEC
  8
0
 10
83.236905604030454
 20
91.637916276180903
 30
0.0
 11
102.2369056040304
 21
91.637916276180903
 31
0.0
  0
LINE
  5
CED
  8
0
 10
83.236905604030355
 20
76.637916276180903
 30
0.0
 11
83.236905604030355
 21
91.637916276180903
 31
0.0
  0
LINE
  5
CEE
  8
0
 10
83.236905604030355
 20
76.637916276180903
 30
0.0
 11
102.2369056040304
 21
76.637916276180789
 31
0.0
  0
LINE
  5
D15
  8
0
 10
82.236905604030397
 20
96.028316138780895
 30
0.0
 11
103.2369047180765
 21
96.028316138780838
 31
0.0
  0
LINE
  5
D17
  8
0
 10
85.751905604030441
 20
93.449280211768965
 30
0.0
 11
99.721905604030354
 21
93.449280211768922
 31
0.0
  0
LINE
  5
D19
  8
0
 10
99.594905604030401
 20
93.229309759207723
 30
0.0
 11
85.878905604030393
 21
93.229309759207723
 31
0.0
  0
LINE
  5
D1B
  8
0
 10
85.878905604030393
 20
91.977048231404098
 30
0.0
 11
99.594905604030401
 21
91.977048231404069
 31
0.0
  0
CIRCLE
  5
D1D
  8
0
 10
36.503292344361853
 20
150.15105819643111
 30
0.0
 40
10.500000000000011
  0
LINE
  5
D1E
  8
1
 10
92.736905604030341
 20
13.63791627618089
 30
0.0
 11
92.736905604030341
 21
100.6633161387808
 31
0.0
  0
LINE
  5
D1F
  8
1
 10
36.503292344361853
 20
13.63791627618086
 30
0.0
 11
36.503292344361853
 21
100.66331467779889
 31
0.0
  0
LINE
  5
D20
  8
1
 10
50.003292344361853
 20
150.15105819643111
 30
0.0
 11
23.003292344361849
 21
150.15105819643111
 31
0.0
  0
LINE
  5
D26
  8
1
 10
36.503292344361853
 20
136.65105819643111
 30
0.0
 11
36.503292344361853
 21
163.65105819643111
 31
0.0
  0
LINE
  5
D3C
  8
0
 10
41.202292344361872
 20
75.113916276180873
 30
0.0
 11
31.804292344361841
 21
75.113916276180817
 31
0.0
  0
LINE
  5
D3D
  8
0
 10
31.804292344361841
 20
74.021716276180825
 30
0.0
 11
41.202292344361872
 21
74.021716276180882
 31
0.0
  0
LINE
  5
D3E
  8
0
 10
41.202292344361872
 20
74.021716276180825
 30
0.0
 11
41.202292344361872
 21
75.113916276180817
 31
0.0
  0
LINE
  5
D3F
  8
0
 10
31.804292344361841
 20
75.113916276180817
 30
0.0
 11
31.804292344361841
 21
74.021716276180825
 31
0.0
  0
LINE
  5
D40
  8
0
 10
31.804292344361841
 20
74.021716276180825
 30
0.0
 11
30.50329234436186
 21
71.768318175533693
 31
0.0
  0
LINE
  5
D41
  8
0
 10
42.503292344361853
 20
71.768318175533693
 30
0.0
 11
41.202292344361872
 21
74.021716276180825
 31
0.0
  0
ARC
  5
D42
  8
0
 10
42.726292344361831
 20
75.113916276180774
 30
0.0
 40
1.524
 50
89.999999999999986
 51
180.0
  0
ARC
  5
D43
  8
0
 10
30.28029234436184
 20
75.113916276180774
 30
0.0
 40
1.524
 50
0.0
 51
89.999999999999986
  0
LINE
  5
D44
  8
0
 10
32.503292344361853
 20
16.637916276180871
 30
0.0
 11
40.503292344361853
 21
16.637916276180871
 31
0.0
  0
LINE
  5
D45
  8
0
 10
42.503292344361853
 20
18.637916276180871
 30
0.0
 11
42.503292344361853
 21
71.768318175533693
 31
0.0
  0
LINE
  5
D46
  8
3
 10
41.55629234436185
 20
17.690916276180879
 30
0.0
 11
41.556292344361879
 21
73.408570290301512
 31
0.0
  0
LINE
  5
D47
  8
3
 10
31.450292344361859
 20
17.690916276180879
 30
0.0
 11
31.450292344361859
 21
73.408570290301455
 31
0.0
  0
LINE
  5
D48
  8
0
 10
30.50329234436186
 20
18.637916276180871
 30
0.0
 11
30.50329234436186
 21
71.768318175533693
 31
0.0
  0
LINE
  5
D49
  8
0
 10
30.50329234436186
 20
18.637916276180871
 30
0.0
 11
32.503292344361853
 21
16.637916276180871
 31
0.0
  0
LINE
  5
D4A
  8
0
 10
40.503292344361853
 20
16.637916276180871
 30
0.0
 11
42.503292344361853
 21
18.637916276180871
 31
0.0
  0
LINE
  5
D4B
  8
0
 10
30.50329234436186
 20
18.637916276180871
 30
0.0
 11
42.503292344361853
 21
18.637916276180871
 31
0.0
  0
LINE
  5
D4C
  8
0
 10
30.503292344361881
 20
71.768318175533693
 30
0.0
 11
42.503292344361853
 21
71.768318175533693
 31
0.0
  0
LINE
  5
D4D
  8
0
 10
97.435905604030353
 20
75.113916276180873
 30
0.0
 11
88.037905604030328
 21
75.113916276180817
 31
0.0
  0
LINE
  5
D4E
  8
0
 10
88.037905604030328
 20
74.021716276180825
 30
0.0
 11
97.435905604030353
 21
74.021716276180882
 31
0.0
  0
LINE
  5
D4F
  8
0
 10
97.435905604030353
 20
74.021716276180825
 30
0.0
 11
97.435905604030353
 21
75.113916276180817
 31
0.0
  0
LINE
  5
D50
  8
0
 10
88.037905604030328
 20
75.113916276180817
 30
0.0
 11
88.037905604030328
 21
74.021716276180825
 31
0.0
  0
LINE
  5
D51
  8
0
 10
88.037905604030328
 20
74.021716276180825
 30
0.0
 11
86.736905604030341
 21
71.768318175533693
 31
0.0
  0
LINE
  5
D52
  8
0
 10
98.736905604030341
 20
71.768318175533693
 30
0.0
 11
97.435905604030353
 21
74.021716276180825
 31
0.0
  0
ARC
  5
D53
  8
0
 10
98.959905604030297
 20
75.113916276180774
 30
0.0
 40
1.524
 50
89.999999999999986
 51
180.0
  0
ARC
  5
D54
  8
0
 10
86.513905604030327
 20
75.113916276180774
 30
0.0
 40
1.524
 50
0.0
 51
89.999999999999986
  0
LINE
  5
D55
  8
0
 10
88.736905604030341
 20
16.637916276180871
 30
0.0
 11
96.736905604030341
 21
16.637916276180871
 31
0.0
  0
LINE
  5
D56
  8
0
 10
98.736905604030341
 20
18.637916276180871
 30
0.0
 11
98.736905604030341
 21
71.768318175533693
 31
0.0
  0
LINE
  5
D57
  8
3
 10
97.789905604030338
 20
17.690916276180879
 30
0.0
 11
97.789905604030338
 21
73.408570290301512
 31
0.0
  0
LINE
  5
D58
  8
3
 10
87.683905604030343
 20
17.690916276180879
 30
0.0
 11
87.683905604030343
 21
73.408570290301455
 31
0.0
  0
LINE
  5
D59
  8
0
 10
86.736905604030341
 20
18.637916276180871
 30
0.0
 11
86.736905604030341
 21
71.768318175533693
 31
0.0
  0
LINE
  5
D5A
  8
0
 10
86.736905604030341
 20
18.637916276180871
 30
0.0
 11
88.736905604030341
 21
16.637916276180871
 31
0.0
  0
LINE
  5
D5B
  8
0
 10
96.736905604030341
 20
16.637916276180871
 30
0.0
 11
98.736905604030341
 21
18.637916276180871
 31
0.0
  0
LINE
  5
D5C
  8
0
 10
86.736905604030341
 20
18.637916276180871
 30
0.0
 11
98.736905604030341
 21
18.637916276180871
 31
0.0
  0
LINE
  5
D5D
  8
0
 10
86.736905604030341
 20
71.768318175533693
 30
0.0
 11
98.736905604030341
 21
71.768318175533693
 31
0.0
  0
TEXT
  5
E26
  8
0
 62
     3
 10
0.0
 20
0.0
 30
0.0
 40
5.0
  1
MBUH-12060-60UR
  7
STANDARD1
  0
ENDSEC
  0
EOF
