  0
SECTION
  2
HEADER
  9
$ACADVER
  1
AC1009
  9
$INSBASE
 10
82.638099999999994
 20
103.82319099999999
 30
0.0
  9
$EXTMIN
 10
0.0
 20
-1.4802182810368341
 30
0.0
  9
$EXTMAX
 10
90.45923456896719
 20
143.70974875187721
 30
0.0
  9
$LIMMIN
 10
0.0
 20
0.0
  9
$LIMMAX
 10
187.5
 20
135.0
  9
$ORTHOMODE
 70
     1
  9
$REGENMODE
 70
     1
  9
$FILLMODE
 70
     1
  9
$QTEXTMODE
 70
     0
  9
$MIRRTEXT
 70
     0
  9
$DRAGMODE
 70
     2
  9
$LTSCALE
 40
5.0
  9
$OSMODE
 70
  3071
  9
$ATTMODE
 70
     1
  9
$TEXTSIZE
 40
0.06
  9
$TRACEWID
 40
0.05
  9
$TEXTSTYLE
  7
STANDARD
  9
$CLAYER
  8
0
  9
$CELTYPE
  6
BYLAYER
  9
$CECOLOR
 62
   256
  9
$DIMSCALE
 40
0.5
  9
$DIMASZ
 40
3.0
  9
$DIMEXO
 40
2.0
  9
$DIMDLI
 40
10.0
  9
$DIMRND
 40
0.0
  9
$DIMDLE
 40
0.0
  9
$DIMEXE
 40
2.0
  9
$DIMTP
 40
0.0
  9
$DIMTM
 40
0.0
  9
$DIMTXT
 40
3.0
  9
$DIMCEN
 40
0.0
  9
$DIMTSZ
 40
0.0
  9
$DIMTOL
 70
     0
  9
$DIMLIM
 70
     0
  9
$DIMTIH
 70
     0
  9
$DIMTOH
 70
     0
  9
$DIMSE1
 70
     0
  9
$DIMSE2
 70
     0
  9
$DIMTAD
 70
     1
  9
$DIMZIN
 70
     0
  9
$DIMBLK
  1

  9
$DIMASO
 70
     0
  9
$DIMSHO
 70
     0
  9
$DIMPOST
  1

  9
$DIMAPOST
  1

  9
$DIMALT
 70
     0
  9
$DIMALTD
 70
     2
  9
$DIMALTF
 40
25.399999999999999
  9
$DIMLFAC
 40
1.0
  9
$DIMTOFL
 70
     1
  9
$DIMTVP
 40
1.6000000000000001
  9
$DIMTIX
 70
     1
  9
$DIMSOXD
 70
     0
  9
$DIMSAH
 70
     0
  9
$DIMBLK1
  1

  9
$DIMBLK2
  1

  9
$DIMSTYLE
  2
STANDARD
  9
$DIMCLRD
 70
     0
  9
$DIMCLRE
 70
     0
  9
$DIMCLRT
 70
     0
  9
$DIMTFAC
 40
1.0
  9
$DIMGAP
 40
0.09
  9
$LUNITS
 70
     2
  9
$LUPREC
 70
     4
  9
$SKETCHINC
 40
0.1
  9
$FILLETRAD
 40
0.4
  9
$AUNITS
 70
     0
  9
$AUPREC
 70
     4
  9
$MENU
  1
E:\r13\win\SUPPORT\ACAD
  9
$ELEVATION
 40
0.0
  9
$PELEVATION
 40
0.0
  9
$THICKNESS
 40
0.0
  9
$LIMCHECK
 70
     0
  9
$BLIPMODE
 70
     0
  9
$CHAMFERA
 40
0.0
  9
$CHAMFERB
 40
0.0
  9
$SKPOLY
 70
     0
  9
$TDCREATE
 40
2449840.5907060192
  9
$TDUPDATE
 40
2456597.6357613308
  9
$TDINDWG
 40
0.057053669
  9
$TDUSRTIMER
 40
0.057053669
  9
$USRTIMER
 70
     1
  9
$ANGBASE
 50
0.0
  9
$ANGDIR
 70
     0
  9
$PDMODE
 70
     0
  9
$PDSIZE
 40
0.0
  9
$PLINEWID
 40
0.0
  9
$COORDS
 70
     1
  9
$SPLFRAME
 70
     0
  9
$SPLINETYPE
 70
     6
  9
$SPLINESEGS
 70
     8
  9
$ATTDIA
 70
     0
  9
$ATTREQ
 70
     1
  9
$HANDLING
 70
     1
  9
$HANDSEED
  5
1280
  9
$SURFTAB1
 70
     6
  9
$SURFTAB2
 70
     6
  9
$SURFTYPE
 70
     6
  9
$SURFU
 70
     6
  9
$SURFV
 70
     6
  9
$UCSNAME
  2

  9
$UCSORG
 10
0.0
 20
0.0
 30
0.0
  9
$UCSXDIR
 10
1.0
 20
0.0
 30
0.0
  9
$UCSYDIR
 10
0.0
 20
1.0
 30
0.0
  9
$PUCSNAME
  2

  9
$PUCSORG
 10
0.0
 20
0.0
 30
0.0
  9
$PUCSXDIR
 10
1.0
 20
0.0
 30
0.0
  9
$PUCSYDIR
 10
0.0
 20
1.0
 30
0.0
  9
$USERI1
 70
     3
  9
$USERI2
 70
     1
  9
$USERI3
 70
     0
  9
$USERI4
 70
     0
  9
$USERI5
 70
     0
  9
$USERR1
 40
0.5
  9
$USERR2
 40
3.0
  9
$USERR3
 40
3.0
  9
$USERR4
 40
3.0
  9
$USERR5
 40
10.0
  9
$WORLDVIEW
 70
     1
  9
$SHADEDGE
 70
     3
  9
$SHADEDIF
 70
    70
  9
$TILEMODE
 70
     1
  9
$MAXACTVP
 70
    16
  9
$PLIMCHECK
 70
     0
  9
$PEXTMIN
 10
1.0000000000000000E+020
 20
1.0000000000000000E+020
 30
1.0000000000000000E+020
  9
$PEXTMAX
 10
-1.0000000000000000E+020
 20
-1.0000000000000000E+020
 30
-1.0000000000000000E+020
  9
$PLIMMIN
 10
0.0
 20
0.0
  9
$PLIMMAX
 10
12.0
 20
9.0
  9
$UNITMODE
 70
     0
  9
$VISRETAIN
 70
     0
  9
$PLINEGEN
 70
     0
  9
$PSLTSCALE
 70
     0
  0
ENDSEC
  0
SECTION
  2
TABLES
  0
TABLE
  2
VPORT
 70
     1
  0
VPORT
  2
*ACTIVE
 70
     0
 10
0.0
 20
0.0
 11
1.0
 21
1.0
 12
93.747139195326156
 22
71.42911921767616
 13
0.0
 23
0.0
 14
5.0
 24
5.0
 15
10.0
 25
10.0
 16
0.0
 26
0.0
 36
1.0
 17
0.0
 27
0.0
 37
0.0
 40
147.49628912002731
 41
2.304913294797688
 42
50.0
 43
0.0
 44
0.0
 50
0.0
 51
0.0
 71
     0
 72
   100
 73
     1
 74
     0
 75
     0
 76
     0
 77
     0
 78
     2
  0
ENDTAB
  0
TABLE
  2
LTYPE
 70
     3
  0
LTYPE
  2
CONTINUOUS
 70
     0
  3
Solid Line
 72
    65
 73
     0
 40
0.0
  0
LTYPE
  2
CENTER
 70
     0
  3
____ _ ____ _ ____ _ ____ _ ____ _ ____ _ ____
 72
    65
 73
     4
 40
2.0
 49
1.25
 49
-0.25
 49
0.25
 49
-0.25
  0
LTYPE
  2
PHANTOM2
 70
     0
  3
___ _ _ ___ _ _ ___ _ _ ___ _ _
 72
    65
 73
     6
 40
1.25
 49
0.625
 49
-0.125
 49
0.125
 49
-0.125
 49
0.125
 49
-0.125
  0
ENDTAB
  0
TABLE
  2
LAYER
 70
     3
  0
LAYER
  2
0
 70
     0
 62
     7
  6
CONTINUOUS
  0
LAYER
  2
1
 70
     0
 62
     1
  6
CENTER
  0
LAYER
  2
3
 70
     0
 62
     3
  6
CONTINUOUS
  0
ENDTAB
  0
TABLE
  2
STYLE
 70
     2
  0
STYLE
  2
STANDARD
 70
     0
 40
0.0
 41
1.0
 50
0.0
 71
     0
 42
0.06
  3
TXT
  4
BIGFONT
  0
STYLE
  2
STANDARD1
 70
     0
 40
0.0
 41
1.0
 50
0.0
 71
     0
 42
3.0
  3
txt
  4

  0
ENDTAB
  0
TABLE
  2
VIEW
 70
     0
  0
ENDTAB
  0
TABLE
  2
UCS
 70
     0
  0
ENDTAB
  0
TABLE
  2
APPID
 70
     3
  0
APPID
  2
ACAD
 70
     0
  0
APPID
  2
ACAD_MLEADERVER
 70
     0
  0
APPID
  2
ACAD_NAV_VCDISPLAY
 70
     0
  0
ENDTAB
  0
TABLE
  2
DIMSTYLE
 70
     1
  0
DIMSTYLE
  2
STANDARD
 70
     0
  3

  4

  5

  6

  7

 40
1.0
 41
0.18
 42
0.0625
 43
0.38
 44
0.18
 45
0.0
 46
0.0
 47
0.0
 48
0.0
140
0.18
141
0.09
142
0.0
143
25.399999999999999
144
1.0
145
0.0
146
1.0
147
0.09
 71
     0
 72
     0
 73
     1
 74
     1
 75
     0
 76
     0
 77
     0
 78
     0
170
     0
171
     2
172
     0
173
     0
174
     0
175
     0
176
     0
177
     0
178
     0
  0
ENDTAB
  0
ENDSEC
  0
SECTION
  2
BLOCKS
  0
BLOCK
  8
0
  2
$MODEL_SPACE
 70
     0
 10
0.0
 20
0.0
 30
0.0
  3
$MODEL_SPACE
  1

  0
ENDBLK
  5
131
  8
0
  0
BLOCK
 67
     1
  8
0
  2
$PAPER_SPACE
 70
     0
 10
0.0
 20
0.0
 30
0.0
  3
$PAPER_SPACE
  1

  0
ENDBLK
  5
12F
 67
     1
  8
0
  0
ENDSEC
  0
SECTION
  2
ENTITIES
  0
POLYLINE
  5
A54
  8
0
 66
     1
 10
0.0
 20
0.0
 30
0.0
 70
   128
  0
VERTEX
  5
F48
  8
0
 10
25.974740271735811
 20
135.59226484915459
 30
0.0
  0
VERTEX
  5
F49
  8
0
 10
26.086283845174929
 20
135.72829475572561
 30
0.0
  0
VERTEX
  5
F4A
  8
0
 10
26.21714398013415
 20
135.8878824668214
 30
0.0
  0
VERTEX
  5
F4B
  8
0
 10
26.362264060694599
 20
136.0648598330304
 30
0.0
  0
VERTEX
  5
F4C
  8
0
 10
26.516036127973219
 20
136.2523886183485
 30
0.0
  0
VERTEX
  5
F4D
  8
0
 10
26.672517412621399
 20
136.44322127050009
 30
0.0
  0
VERTEX
  5
F4E
  8
0
 10
26.825660837162161
 20
136.62998311167809
 30
0.0
  0
VERTEX
  5
F4F
  8
0
 10
26.9695483122951
 20
136.80545825457421
 30
0.0
  0
VERTEX
  5
F50
  8
0
 10
27.098619376588491
 20
136.96286294555509
 30
0.0
  0
VERTEX
  5
F51
  8
0
 10
27.207885866332671
 20
137.0961165795311
 30
0.0
  0
VERTEX
  5
F52
  8
0
 10
27.29312563063564
 20
137.20006894266459
 30
0.0
  0
SEQEND
  5
F53
  8
0
  0
ARC
  5
A55
  8
0
 10
27.49325302665801
 20
135.74215623225231
 30
0.0
 40
1.4715843318751489
 50
51.922485467299317
 51
97.816131736220825
  0
LINE
  5
A56
  8
0
 10
28.40081881480279
 20
136.9005537400231
 30
0.0
 11
28.515307230222849
 21
136.78615938818311
 31
0.0
  0
ARC
  5
A57
  8
0
 10
27.39566898432739
 20
135.8879543666016
 30
0.0
 40
1.4353961343357129
 50
351.61796251557638
 51
38.737558092732549
  0
POLYLINE
  5
A58
  8
0
 66
     1
 10
0.0
 20
0.0
 30
0.0
 70
   128
  0
VERTEX
  5
F54
  8
0
 10
27.209012300986672
 20
134.35900656452631
 30
0.0
  0
VERTEX
  5
F55
  8
0
 10
27.34495047228398
 20
134.4706618966743
 30
0.0
  0
VERTEX
  5
F56
  8
0
 10
27.504430149961141
 20
134.60165288245531
 30
0.0
  0
VERTEX
  5
F57
  8
0
 10
27.681288772541901
 20
134.74691871499871
 30
0.0
  0
VERTEX
  5
F58
  8
0
 10
27.86869089798989
 20
134.90084445050209
 30
0.0
  0
VERTEX
  5
F59
  8
0
 10
28.059395027626181
 20
135.05748266300409
 30
0.0
  0
VERTEX
  5
F5A
  8
0
 10
28.246031140256552
 20
135.21077929010841
 30
0.0
  0
VERTEX
  5
F5B
  8
0
 10
28.421387073863169
 20
135.35481112024041
 30
0.0
  0
VERTEX
  5
F5C
  8
0
 10
28.578686525393149
 20
135.48401117271041
 30
0.0
  0
VERTEX
  5
F5D
  8
0
 10
28.711849821079401
 20
135.59338755851829
 30
0.0
  0
VERTEX
  5
F5E
  8
0
 10
28.815732335019732
 20
135.67871253883689
 30
0.0
  0
SEQEND
  5
F5F
  8
0
  0
ARC
  5
A59
  8
0
 10
31.311811894755671
 20
139.69945112646431
 30
0.0
 40
6.7344868123535697
 50
217.58037000481059
 51
232.46670806736461
  0
POLYLINE
  5
A5A
  8
0
 66
     1
 10
0.0
 20
0.0
 30
0.0
 70
   128
  0
VERTEX
  5
F60
  8
0
 10
24.52358742924395
 20
136.5610317135438
 30
0.0
  0
VERTEX
  5
F61
  8
0
 10
24.606449527013918
 20
136.7162096122488
 30
0.0
  0
VERTEX
  5
F62
  8
0
 10
24.703661443013569
 20
136.89825989252179
 30
0.0
  0
VERTEX
  5
F63
  8
0
 10
24.811466687638191
 20
137.10014827495661
 30
0.0
  0
VERTEX
  5
F64
  8
0
 10
24.92569898935022
 20
137.31407307034581
 30
0.0
  0
VERTEX
  5
F65
  8
0
 10
25.041943879146
 20
137.53176692819449
 30
0.0
  0
VERTEX
  5
F66
  8
0
 10
25.15570912258687
 20
137.7448172116861
 30
0.0
  0
VERTEX
  5
F67
  8
0
 10
25.262598411459351
 20
137.94499102926099
 30
0.0
  0
VERTEX
  5
F68
  8
0
 10
25.358481330145029
 20
138.12455281561461
 30
0.0
  0
VERTEX
  5
F69
  8
0
 10
25.439651680458208
 20
138.2765623549208
 30
0.0
  0
VERTEX
  5
F6A
  8
0
 10
25.50297369929018
 20
138.39514672702401
 30
0.0
  0
SEQEND
  5
F6B
  8
0
  0
ARC
  5
A5B
  8
0
 10
25.983680246651321
 20
137.00429311304561
 30
0.0
 40
1.4715816525741341
 50
63.172423613961101
 51
109.0661629704308
  0
LINE
  5
A5C
  8
0
 10
26.647815478313589
 20
138.31748653149461
 30
0.0
 11
26.78242092700663
 21
138.2276260102376
 31
0.0
  0
ARC
  5
A5D
  8
0
 10
25.85952508420991
 20
137.12824798614591
 30
0.0
 40
1.4353984730754701
 50
2.8680235780617371
 51
49.987519784958792
  0
ARC
  5
A5E
  8
0
 10
26.130943988120858
 20
141.9624236317714
 30
0.0
 40
6.3720736433881182
 50
260.7108168752693
 51
268.59532221385621
  0
ARC
  5
A5F
  8
0
 10
25.834838732743268
 20
136.9539527729479
 30
0.0
 40
1.4747881203752731
 50
232.3259259629873
 51
240.22114775787259
  0
ARC
  5
A60
  8
0
 10
30.3470050431863
 20
139.14792066989881
 30
0.0
 40
6.3721414908086427
 50
203.95183487925931
 51
211.83625139097961
  0
POLYLINE
  5
A61
  8
0
 66
     1
 10
0.0
 20
0.0
 30
0.0
 70
   128
  0
VERTEX
  5
F6C
  8
0
 10
22.911321369279051
 20
137.22807846909609
 30
0.0
  0
VERTEX
  5
F6D
  8
0
 10
22.962317566666631
 20
137.39644017016741
 30
0.0
  0
VERTEX
  5
F6E
  8
0
 10
23.022145496029282
 20
137.59395785575961
 30
0.0
  0
VERTEX
  5
F6F
  8
0
 10
23.088492450583601
 20
137.81299840605109
 30
0.0
  0
VERTEX
  5
F70
  8
0
 10
23.1587951977736
 20
138.04509889280649
 30
0.0
  0
VERTEX
  5
F71
  8
0
 10
23.23033637115719
 20
138.2812878856644
 30
0.0
  0
VERTEX
  5
F72
  8
0
 10
23.300351805332919
 20
138.51243935471621
 30
0.0
  0
VERTEX
  5
F73
  8
0
 10
23.3661353097296
 20
138.72961912250369
 30
0.0
  0
VERTEX
  5
F74
  8
0
 10
23.425144839379811
 20
138.92443597262951
 30
0.0
  0
VERTEX
  5
F75
  8
0
 10
23.475100283790258
 20
139.08936109340041
 30
0.0
  0
VERTEX
  5
F76
  8
0
 10
23.514070778433108
 20
139.21801958179319
 30
0.0
  0
SEQEND
  5
F77
  8
0
  0
ARC
  5
A62
  8
0
 10
24.25688422402547
 20
137.94767148007111
 30
0.0
 40
1.471582860222894
 50
74.422487240269234
 51
120.3162013405197
  0
LINE
  5
A63
  8
0
 10
24.652065706718592
 20
139.36520021355
 30
0.0
 11
24.801615623105189
 21
139.3033259356603
 31
0.0
  0
ARC
  5
A64
  8
0
 10
24.110933818277939
 20
138.04502629167251
 30
0.0
 40
1.4353951893396319
 50
14.11797036274932
 51
61.237577173134092
  0
ARC
  5
A65
  8
0
 10
26.270401363612081
 20
143.065081683725
 30
0.0
 40
6.7345396974044052
 50
240.0804237767741
 51
254.9666437451701
  0
POLYLINE
  5
A66
  8
0
 66
     1
 10
0.0
 20
0.0
 30
0.0
 70
   128
  0
VERTEX
  5
F78
  8
0
 10
21.199900072347251
 20
137.56777092760649
 30
0.0
  0
VERTEX
  5
F79
  8
0
 10
21.217070808447769
 20
137.74284560179561
 30
0.0
  0
VERTEX
  5
F7A
  8
0
 10
21.23721519932138
 20
137.94824041372391
 30
0.0
  0
VERTEX
  5
F7B
  8
0
 10
21.259554717503359
 20
138.17601583844271
 30
0.0
  0
VERTEX
  5
F7C
  8
0
 10
21.283226026967039
 20
138.41737180894461
 30
0.0
  0
VERTEX
  5
F7D
  8
0
 10
21.307314452528828
 20
138.66297926699971
 30
0.0
  0
VERTEX
  5
F7E
  8
0
 10
21.330889079067731
 20
138.90334803557249
 30
0.0
  0
VERTEX
  5
F7F
  8
0
 10
21.353038723859811
 20
139.12919003462639
 30
0.0
  0
VERTEX
  5
F80
  8
0
 10
21.372907676081979
 20
139.3317750463471
 30
0.0
  0
VERTEX
  5
F81
  8
0
 10
21.389727943856141
 20
139.50327716713991
 30
0.0
  0
VERTEX
  5
F82
  8
0
 10
21.402849580440549
 20
139.6370663115963
 30
0.0
  0
SEQEND
  5
F83
  8
0
  0
ARC
  5
A67
  8
0
 10
22.356019547050611
 20
138.60491034395761
 30
0.0
 40
1.40494801568585
 50
84.51692998714401
 51
132.72169448823669
  0
LINE
  5
A68
  8
0
 10
22.490264612529302
 20
140.00342998599859
 30
0.0
 11
22.649012037832168
 21
139.9719214806542
 31
0.0
  0
ARC
  5
A69
  8
0
 10
22.21708221556273
 20
138.60305370284689
 30
0.0
 40
1.435396239539749
 50
25.367924022190621
 51
72.487533585111365
  0
ARC
  5
A6A
  8
0
 10
20.617854046919209
 20
143.17320092218489
 30
0.0
 40
6.3721639449210876
 50
283.21087272421028
 51
291.0952644836554
  0
ARC
  5
A6B
  8
0
 10
22.2609739011742
 20
138.43257632945719
 30
0.0
 40
1.47478812037527
 50
254.8259259629865
 51
262.72114775787259
  0
ARC
  5
A6C
  8
0
 10
25.590133835210509
 20
142.1863302948417
 30
0.0
 40
6.3722243464319899
 50
226.45183636183901
 51
234.33615471916929
  0
POLYLINE
  5
A6D
  8
0
 66
     1
 10
0.0
 20
0.0
 30
0.0
 70
   128
  0
VERTEX
  5
F84
  8
0
 10
19.455092549137639
 20
137.56705380922409
 30
0.0
  0
VERTEX
  5
F85
  8
0
 10
19.437777981907001
 20
137.74211451357451
 30
0.0
  0
VERTEX
  5
F86
  8
0
 10
19.417464847024402
 20
137.94749256169649
 30
0.0
  0
VERTEX
  5
F87
  8
0
 10
19.39493824942025
 20
138.1752502912864
 30
0.0
  0
VERTEX
  5
F88
  8
0
 10
19.371068626455841
 20
138.41658577269169
 30
0.0
  0
VERTEX
  5
F89
  8
0
 10
19.346778394933661
 20
138.66217367297261
 30
0.0
  0
VERTEX
  5
F8A
  8
0
 10
19.323006386216601
 20
138.9025238150939
 30
0.0
  0
VERTEX
  5
F8B
  8
0
 10
19.300671058986211
 20
139.12834625637379
 30
0.0
  0
VERTEX
  5
F8C
  8
0
 10
19.280635749269148
 20
139.33091543561071
 30
0.0
  0
VERTEX
  5
F8D
  8
0
 10
19.263674502540251
 20
139.50240358656501
 30
0.0
  0
VERTEX
  5
F8E
  8
0
 10
19.250442969892049
 20
139.63618248647299
 30
0.0
  0
SEQEND
  5
F8F
  8
0
  0
ARC
  5
A6E
  8
0
 10
20.42285192237938
 20
138.74679766599121
 30
0.0
 40
1.471580140792869
 50
96.922408430068643
 51
142.81618899324411
  0
LINE
  5
A6F
  8
0
 10
20.245489581825549
 20
140.2076504001603
 30
0.0
 11
20.40733384386391
 21
140.20771745538559
 31
0.0
  0
ARC
  5
A70
  8
0
 10
20.250753415459911
 20
138.78088173584379
 30
0.0
 40
1.435401546996383
 50
36.618024061536261
 51
83.737441500933656
  0
ARC
  5
A71
  8
0
 10
20.324751732139699
 20
144.24519599698931
 30
0.0
 40
6.7345296921603968
 50
262.58042682175028
 51
277.46667046991757
  0
POLYLINE
  5
A72
  8
0
 66
     1
 10
0.0
 20
0.0
 30
0.0
 70
   128
  0
VERTEX
  5
F90
  8
0
 10
17.743950940016529
 20
137.2259559849486
 30
0.0
  0
VERTEX
  5
F91
  8
0
 10
17.692816441226618
 20
137.3942748451814
 30
0.0
  0
VERTEX
  5
F92
  8
0
 10
17.632826461735991
 20
137.59174317067709
 30
0.0
  0
VERTEX
  5
F93
  8
0
 10
17.56629929626348
 20
137.8107297042593
 30
0.0
  0
VERTEX
  5
F94
  8
0
 10
17.495806093606969
 20
138.0427724490151
 30
0.0
  0
VERTEX
  5
F95
  8
0
 10
17.424070739466568
 20
138.27890276855081
 30
0.0
  0
VERTEX
  5
F96
  8
0
 10
17.353865548316261
 20
138.50999649560299
 30
0.0
  0
VERTEX
  5
F97
  8
0
 10
17.287903462815901
 20
138.7271222466812
 30
0.0
  0
VERTEX
  5
F98
  8
0
 10
17.22873374568286
 20
138.92189066803309
 30
0.0
  0
VERTEX
  5
F99
  8
0
 10
17.17864302666845
 20
139.08677481061071
 30
0.0
  0
VERTEX
  5
F9A
  8
0
 10
17.139566826913381
 20
139.215401634036
 30
0.0
  0
SEQEND
  5
F9B
  8
0
  0
ARC
  5
A73
  8
0
 10
18.462961324182739
 20
138.5718293491646
 30
0.0
 40
1.471583596421737
 50
108.1724850958623
 51
154.0661511908188
  0
LINE
  5
A74
  8
0
 10
18.004005772340921
 20
139.97001320069879
 30
0.0
 11
18.162727353442332
 21
140.0016520912036
 31
0.0
  0
ARC
  5
A75
  8
0
 10
18.298126648546429
 20
138.60325749759309
 30
0.0
 40
1.4049343075581
 50
47.325158538702063
 51
95.530413511972682
  0
ARC
  5
A76
  8
0
 10
15.061083664145849
 20
142.18198520022199
 30
0.0
 40
6.3721978802455101
 50
305.71089180969739
 51
313.59524090412617
  0
ARC
  5
A77
  8
0
 10
18.393308593544759
 20
138.4309875090515
 30
0.0
 40
1.4747881203752631
 50
277.3259259629869
 51
285.2211477578719
  0
ARC
  5
A78
  8
0
 10
20.032459651701881
 20
143.17272991895319
 30
0.0
 40
6.3719221860923536
 50
248.95167962214899
 51
256.83636989169912
  0
POLYLINE
  5
A79
  8
0
 66
     1
 10
0.0
 20
0.0
 30
0.0
 70
   128
  0
VERTEX
  5
F9C
  8
0
 10
16.132233196217442
 20
136.5575848886952
 30
0.0
  0
VERTEX
  5
F9D
  8
0
 10
16.049243972916031
 20
136.71269386952969
 30
0.0
  0
VERTEX
  5
F9E
  8
0
 10
15.951882579643151
 20
136.89466498738381
 30
0.0
  0
VERTEX
  5
F9F
  8
0
 10
15.84391155960026
 20
137.09646489417401
 30
0.0
  0
VERTEX
  5
FA0
  8
0
 10
15.72950370358291
 20
137.3102956259832
 30
0.0
  0
VERTEX
  5
FA1
  8
0
 10
15.6130799998528
 20
137.5278935576066
 30
0.0
  0
VERTEX
  5
FA2
  8
0
 10
15.499139667767899
 20
137.74085070884081
 30
0.0
  0
VERTEX
  5
FA3
  8
0
 10
15.392085534799721
 20
137.9409360507712
 30
0.0
  0
VERTEX
  5
FA4
  8
0
 10
15.29605546714725
 20
138.12041867470589
 30
0.0
  0
VERTEX
  5
FA5
  8
0
 10
15.214759853947781
 20
138.27236209010931
 30
0.0
  0
VERTEX
  5
FA6
  8
0
 10
15.151340511906771
 20
138.39089430814829
 30
0.0
  0
SEQEND
  5
FA7
  8
0
  0
ARC
  5
A7A
  8
0
 10
16.574860134435909
 20
138.0178700205818
 30
0.0
 40
1.4715825613400111
 50
119.4224429331553
 51
165.3161598567612
  0
LINE
  5
A7B
  8
0
 10
15.85195259870949
 20
139.29965000545829
 30
0.0
 11
16.001451292354488
 21
139.36164628660529
 31
0.0
  0
ARC
  5
A7C
  8
0
 10
16.402817435130121
 20
137.98350227569691
 30
0.0
 40
1.43540088315748
 50
59.118055763329053
 51
106.237499323549
  0
ARC
  5
A7D
  8
0
 10
14.380099234527821
 20
143.06014375744721
 30
0.0
 40
6.734481810896213
 50
285.0803595422708
 51
299.96671012248243
  0
POLYLINE
  5
A7E
  8
0
 66
     1
 10
0.0
 20
0.0
 30
0.0
 70
   128
  0
VERTEX
  5
FA8
  8
0
 10
14.68187710018816
 20
135.58762593141051
 30
0.0
  0
VERTEX
  5
FA9
  8
0
 10
14.57022176804008
 20
135.7235641027078
 30
0.0
  0
VERTEX
  5
FAA
  8
0
 10
14.439230782259131
 20
135.88304378038501
 30
0.0
  0
VERTEX
  5
FAB
  8
0
 10
14.293964949715759
 20
136.05990240296569
 30
0.0
  0
VERTEX
  5
FAC
  8
0
 10
14.140039214212321
 20
136.24730452841371
 30
0.0
  0
VERTEX
  5
FAD
  8
0
 10
13.98340100171032
 20
136.43800865804999
 30
0.0
  0
VERTEX
  5
FAE
  8
0
 10
13.830104374606041
 20
136.62464477068039
 30
0.0
  0
VERTEX
  5
FAF
  8
0
 10
13.68607254447403
 20
136.80000070428699
 30
0.0
  0
VERTEX
  5
FB0
  8
0
 10
13.556872492004061
 20
136.95730015581699
 30
0.0
  0
VERTEX
  5
FB1
  8
0
 10
13.44749610619607
 20
137.09046345150321
 30
0.0
  0
VERTEX
  5
FB2
  8
0
 10
13.36217112587752
 20
137.19434596544349
 30
0.0
  0
SEQEND
  5
FB3
  8
0
  0
ARC
  5
A7F
  8
0
 10
14.8311143969278
 20
137.10620315092299
 30
0.0
 40
1.4715853659626741
 50
130.67249649234159
 51
176.56612796598671
  0
LINE
  5
A80
  8
0
 10
13.87203158559265
 20
138.2223230594978
 30
0.0
 11
14.00656299414101
 21
138.3122934768185
 31
0.0
  0
ARC
  5
A81
  8
0
 10
14.66907945968202
 20
137.03893382815031
 30
0.0
 40
1.4353998961854959
 50
70.368052901542939
 51
117.4875154015966
  0
ARC
  5
A82
  8
0
 10
10.306821054000659
 20
139.1396163047273
 30
0.0
 40
6.371994417767767
 50
328.21075987458028
 51
336.09536278106179
  0
ARC
  5
A83
  8
0
 10
14.8206597924682
 20
136.94942819523479
 30
0.0
 40
1.474788120375268
 50
299.82592596298662
 51
307.7211477578723
  0
ARC
  5
A84
  8
0
 10
14.52044255830071
 20
141.9576261874235
 30
0.0
 40
6.3720455407129606
 50
271.4517328251186
 51
279.33627164621601
  0
POLYLINE
  5
A85
  8
0
 66
     1
 10
0.0
 20
0.0
 30
0.0
 70
   128
  0
VERTEX
  5
FB4
  8
0
 10
13.448618815559771
 20
134.3533539021596
 30
0.0
  0
VERTEX
  5
FB5
  8
0
 10
13.312588908988859
 20
134.46489747559869
 30
0.0
  0
VERTEX
  5
FB6
  8
0
 10
13.153001197893049
 20
134.595757610558
 30
0.0
  0
VERTEX
  5
FB7
  8
0
 10
12.976023831684021
 20
134.74087769111841
 30
0.0
  0
VERTEX
  5
FB8
  8
0
 10
12.788495046365879
 20
134.89464975839701
 30
0.0
  0
VERTEX
  5
FB9
  8
0
 10
12.597662394214289
 20
135.05113104304519
 30
0.0
  0
VERTEX
  5
FBA
  8
0
 10
12.410900553036351
 20
135.204274467586
 30
0.0
  0
VERTEX
  5
FBB
  8
0
 10
12.235425410140181
 20
135.34816194271889
 30
0.0
  0
VERTEX
  5
FBC
  8
0
 10
12.078020719159269
 20
135.4772330070123
 30
0.0
  0
VERTEX
  5
FBD
  8
0
 10
11.94476708518328
 20
135.58649949675649
 30
0.0
  0
VERTEX
  5
FBE
  8
0
 10
11.840814722049849
 20
135.67173926105951
 30
0.0
  0
SEQEND
  5
FBF
  8
0
  0
ARC
  5
A86
  8
0
 10
13.298727432462099
 20
135.87186665708191
 30
0.0
 40
1.4715843318751149
 50
141.92248546729931
 51
187.8161317362208
  0
LINE
  5
A87
  8
0
 10
12.14032992469134
 20
136.7794324452266
 30
0.0
 11
12.254724276531361
 21
136.89392086064669
 31
0.0
  0
ARC
  5
A88
  8
0
 10
13.152929298112751
 20
135.7742826147512
 30
0.0
 40
1.4353961343357
 50
81.617962515576338
 51
128.73755809273379
  0
ARC
  5
A89
  8
0
 10
9.3414325382501318
 20
139.69042552517951
 30
0.0
 40
6.7344868123536017
 50
307.58037000481062
 51
322.46670806736228
  0
POLYLINE
  5
A8A
  8
0
 66
     1
 10
0.0
 20
0.0
 30
0.0
 70
   128
  0
VERTEX
  5
FC0
  8
0
 10
12.479851951170589
 20
132.90220105966779
 30
0.0
  0
VERTEX
  5
FC1
  8
0
 10
12.32467405246558
 20
132.98506315743771
 30
0.0
  0
VERTEX
  5
FC2
  8
0
 10
12.14262377219262
 20
133.08227507343739
 30
0.0
  0
VERTEX
  5
FC3
  8
0
 10
11.940735389757769
 20
133.190080318062
 30
0.0
  0
VERTEX
  5
FC4
  8
0
 10
11.726810594368599
 20
133.30431261977401
 30
0.0
  0
VERTEX
  5
FC5
  8
0
 10
11.50911673651995
 20
133.42055750956979
 30
0.0
  0
VERTEX
  5
FC6
  8
0
 10
11.29606645302834
 20
133.53432275301071
 30
0.0
  0
VERTEX
  5
FC7
  8
0
 10
11.095892635453369
 20
133.64121204188319
 30
0.0
  0
VERTEX
  5
FC8
  8
0
 10
10.916330849099779
 20
133.73709496056881
 30
0.0
  0
VERTEX
  5
FC9
  8
0
 10
10.76432130979361
 20
133.818265310882
 30
0.0
  0
VERTEX
  5
FCA
  8
0
 10
10.645736937690399
 20
133.88158732971399
 30
0.0
  0
SEQEND
  5
FCB
  8
0
  0
ARC
  5
A8B
  8
0
 10
12.03659055166883
 20
134.3622938770751
 30
0.0
 40
1.471581652574147
 50
153.17242361396319
 51
199.0661629704307
  0
LINE
  5
A8C
  8
0
 10
10.72339713321986
 20
135.0264291087374
 30
0.0
 11
10.81325765447678
 21
135.16103455743041
 31
0.0
  0
ARC
  5
A8D
  8
0
 10
11.912635678568529
 20
134.23813871463381
 30
0.0
 40
1.435398473075441
 50
92.868023578061724
 51
139.98751978496
  0
ARC
  5
A8E
  8
0
 10
7.0784600329430409
 20
134.5095576185447
 30
0.0
 40
6.3720736433881351
 50
350.7108168752693
 51
358.59532221385462
  0
ARC
  5
A8F
  8
0
 10
12.08693089176648
 20
134.21345236316711
 30
0.0
 40
1.4747881203752731
 50
322.3259259629873
 51
330.22114775787122
  0
ARC
  5
A90
  8
0
 10
9.8929629948156617
 20
138.72561867361009
 30
0.0
 40
6.3721414908086631
 50
293.95183487925931
 51
301.83625139097819
  0
POLYLINE
  5
A91
  8
0
 66
     1
 10
0.0
 20
0.0
 30
0.0
 70
   128
  0
VERTEX
  5
FCC
  8
0
 10
28.847342354524759
 20
131.29693272469791
 30
0.0
  0
VERTEX
  5
FCD
  8
0
 10
29.015661214757589
 20
131.34806722348779
 30
0.0
  0
VERTEX
  5
FCE
  8
0
 10
29.213129540253309
 20
131.4080572029784
 30
0.0
  0
VERTEX
  5
FCF
  8
0
 10
29.43211607383552
 20
131.47458436845091
 30
0.0
  0
VERTEX
  5
FD0
  8
0
 10
29.664158818591261
 20
131.54507757110741
 30
0.0
  0
VERTEX
  5
FD1
  8
0
 10
29.90028913812699
 20
131.61681292524781
 30
0.0
  0
VERTEX
  5
FD2
  8
0
 10
30.131382865179209
 20
131.68701811639821
 30
0.0
  0
VERTEX
  5
FD3
  8
0
 10
30.34850861625733
 20
131.75298020189851
 30
0.0
  0
VERTEX
  5
FD4
  8
0
 10
30.54327703760924
 20
131.81214991903161
 30
0.0
  0
VERTEX
  5
FD5
  8
0
 10
30.708161180186892
 20
131.86224063804599
 30
0.0
  0
VERTEX
  5
FD6
  8
0
 10
30.836788003612181
 20
131.90131683780101
 30
0.0
  0
SEQEND
  5
FD7
  8
0
  0
ARC
  5
A92
  8
0
 10
30.193215718740731
 20
130.57792234053159
 30
0.0
 40
1.4715835964217541
 50
18.17248509586226
 51
64.066151190816626
  0
LINE
  5
A93
  8
0
 10
31.591399570274969
 20
131.0368778923735
 30
0.0
 11
31.62303846077981
 21
130.87815631127211
 31
0.0
  0
ARC
  5
A94
  8
0
 10
30.22464386716933
 20
130.74275701616801
 30
0.0
 40
1.404934307558094
 50
317.32515853870427
 51
5.5304135119726903
  0
POLYLINE
  5
A95
  8
0
 66
     1
 10
0.0
 20
0.0
 30
0.0
 70
   128
  0
VERTEX
  5
FD8
  8
0
 10
29.188440178800249
 20
129.5857911155768
 30
0.0
  0
VERTEX
  5
FD9
  8
0
 10
29.363500883150721
 20
129.60310568280741
 30
0.0
  0
VERTEX
  5
FDA
  8
0
 10
29.56887893127265
 20
129.62341881769001
 30
0.0
  0
VERTEX
  5
FDB
  8
0
 10
29.796636660862589
 20
129.64594541529419
 30
0.0
  0
VERTEX
  5
FDC
  8
0
 10
30.037972142267851
 20
129.66981503825861
 30
0.0
  0
VERTEX
  5
FDD
  8
0
 10
30.2835600425488
 20
129.69410526978081
 30
0.0
  0
VERTEX
  5
FDE
  8
0
 10
30.523910184670111
 20
129.71787727849781
 30
0.0
  0
VERTEX
  5
FDF
  8
0
 10
30.749732625949999
 20
129.7402126057282
 30
0.0
  0
VERTEX
  5
FE0
  8
0
 10
30.952301805186892
 20
129.76024791544529
 30
0.0
  0
VERTEX
  5
FE1
  8
0
 10
31.123789956141142
 20
129.77720916217419
 30
0.0
  0
VERTEX
  5
FE2
  8
0
 10
31.2575688560492
 20
129.79044069482239
 30
0.0
  0
SEQEND
  5
FE3
  8
0
  0
ARC
  5
A96
  8
0
 10
33.80337156979823
 20
133.9798000005685
 30
0.0
 40
6.3721978802455101
 50
215.7108918096975
 51
223.59524090412739
  0
ARC
  5
A97
  8
0
 10
30.052373878627691
 20
130.6475750711696
 30
0.0
 40
1.4747881203752791
 50
187.32592596298679
 51
195.22114775787179
  0
ARC
  5
A98
  8
0
 10
34.794116288529288
 20
129.0084240130125
 30
0.0
 40
6.3719221860923341
 50
158.9516796221474
 51
166.83636989169861
  0
POLYLINE
  5
A99
  8
0
 66
     1
 10
0.0
 20
0.0
 30
0.0
 70
   128
  0
VERTEX
  5
FE4
  8
0
 10
28.178971258271361
 20
132.908650468497
 30
0.0
  0
VERTEX
  5
FE5
  8
0
 10
28.334080239105841
 20
132.99163969179841
 30
0.0
  0
VERTEX
  5
FE6
  8
0
 10
28.516051356959959
 20
133.08900108507129
 30
0.0
  0
VERTEX
  5
FE7
  8
0
 10
28.717851263750219
 20
133.19697210511421
 30
0.0
  0
VERTEX
  5
FE8
  8
0
 10
28.931681995559359
 20
133.31137996113151
 30
0.0
  0
VERTEX
  5
FE9
  8
0
 10
29.149279927182821
 20
133.42780366486161
 30
0.0
  0
VERTEX
  5
FEA
  8
0
 10
29.362237078416971
 20
133.54174399694651
 30
0.0
  0
VERTEX
  5
FEB
  8
0
 10
29.56232242034736
 20
133.6487981299147
 30
0.0
  0
VERTEX
  5
FEC
  8
0
 10
29.741805044282099
 20
133.74482819756719
 30
0.0
  0
VERTEX
  5
FED
  8
0
 10
29.893748459685469
 20
133.8261238107666
 30
0.0
  0
VERTEX
  5
FEE
  8
0
 10
30.012280677724501
 20
133.88954315280759
 30
0.0
  0
SEQEND
  5
FEF
  8
0
  0
ARC
  5
A9A
  8
0
 10
29.639256390157978
 20
132.46602353027851
 30
0.0
 40
1.4715825613400311
 50
29.422442933153121
 51
75.31615985675964
  0
LINE
  5
A9B
  8
0
 10
30.921036375034479
 20
133.1889310660049
 30
0.0
 11
30.983032656181479
 21
133.0394323723599
 31
0.0
  0
ARC
  5
A9C
  8
0
 10
29.604888645273061
 20
132.6380662295843
 30
0.0
 40
1.4354008831574989
 50
329.11805576332898
 51
16.237499323547478
  0
ARC
  5
A9D
  8
0
 10
34.681530127023372
 20
134.6607844301866
 30
0.0
 40
6.734481810896181
 50
195.08035954227239
 51
209.9667101224824
  0
ARC
  5
A9E
  8
0
 10
28.727589520499151
 20
134.20976926778661
 30
0.0
 40
1.4715853659627049
 50
40.672496492340407
 51
86.566127965985103
  0
LINE
  5
A9F
  8
0
 10
29.84370942907395
 20
135.16885207912179
 30
0.0
 11
29.933679846394678
 21
135.03432067057341
 31
0.0
  0
ARC
  5
AA0
  8
0
 10
28.66032019772652
 20
134.37180420503239
 30
0.0
 40
1.435399896185479
 50
340.36805290154291
 51
27.487515401596632
  0
ARC
  5
AA1
  8
0
 10
30.761002674303459
 20
138.73406261071369
 30
0.0
 40
6.3719944177677244
 50
238.21075987458121
 51
246.09536278106179
  0
ARC
  5
AA2
  8
0
 10
28.57081456481097
 20
134.22022387224621
 30
0.0
 40
1.4747881203752591
 50
209.82592596298659
 51
217.7211477578723
  0
ARC
  5
AA3
  8
0
 10
33.579012556999658
 20
134.5204411064137
 30
0.0
 40
6.3720455407129437
 50
181.45173282511851
 51
189.33627164621601
  0
POLYLINE
  5
AA4
  8
0
 66
     1
 10
0.0
 20
0.0
 30
0.0
 70
   128
  0
VERTEX
  5
FF0
  8
0
 10
28.849464838672301
 20
126.12956229543541
 30
0.0
  0
VERTEX
  5
FF1
  8
0
 10
29.01782653974357
 20
126.0785660980478
 30
0.0
  0
VERTEX
  5
FF2
  8
0
 10
29.215344225335741
 20
126.0187381686851
 30
0.0
  0
VERTEX
  5
FF3
  8
0
 10
29.434384775627279
 20
125.9523912141308
 30
0.0
  0
VERTEX
  5
FF4
  8
0
 10
29.66648526238265
 20
125.8820884669408
 30
0.0
  0
VERTEX
  5
FF5
  8
0
 10
29.90267425524058
 20
125.81054729355721
 30
0.0
  0
VERTEX
  5
FF6
  8
0
 10
30.133825724292421
 20
125.74053185938151
 30
0.0
  0
VERTEX
  5
FF7
  8
0
 10
30.351005492079882
 20
125.6747483549848
 30
0.0
  0
VERTEX
  5
FF8
  8
0
 10
30.545822342205671
 20
125.6157388253346
 30
0.0
  0
VERTEX
  5
FF9
  8
0
 10
30.710747462976599
 20
125.5657833809242
 30
0.0
  0
VERTEX
  5
FFA
  8
0
 10
30.839405951369429
 20
125.52681288628131
 30
0.0
  0
SEQEND
  5
FFB
  8
0
  0
ARC
  5
AA5
  8
0
 10
29.569057849647319
 20
124.7839994406889
 30
0.0
 40
1.471582860222904
 50
344.42248724026922
 51
30.316201340519779
  0
LINE
  5
AA6
  8
0
 10
30.986586583126211
 20
124.3888179579958
 30
0.0
 11
30.924712305236479
 21
124.23926804160919
 31
0.0
  0
ARC
  5
AA7
  8
0
 10
29.666412661248671
 20
124.9299498464365
 30
0.0
 40
1.435395189339618
 50
284.11797036274942
 51
331.23757717313413
  0
POLYLINE
  5
AA8
  8
0
 66
     1
 10
0.0
 20
0.0
 30
0.0
 70
   128
  0
VERTEX
  5
FFC
  8
0
 10
28.182418083120009
 20
124.5172962354705
 30
0.0
  0
VERTEX
  5
FFD
  8
0
 10
28.337595981825022
 20
124.43443413770051
 30
0.0
  0
VERTEX
  5
FFE
  8
0
 10
28.519646262097979
 20
124.3372222217008
 30
0.0
  0
VERTEX
  5
FFF
  8
0
 10
28.72153464453282
 20
124.2294169770762
 30
0.0
  0
VERTEX
  5
1000
  8
0
 10
28.935459439921999
 20
124.1151846753642
 30
0.0
  0
VERTEX
  5
1001
  8
0
 10
29.15315329777064
 20
123.9989397855684
 30
0.0
  0
VERTEX
  5
1002
  8
0
 10
29.366203581262258
 20
123.8851745421275
 30
0.0
  0
VERTEX
  5
1003
  8
0
 10
29.566377398837229
 20
123.77828525325511
 30
0.0
  0
VERTEX
  5
1004
  8
0
 10
29.745939185190821
 20
123.6824023345694
 30
0.0
  0
VERTEX
  5
1005
  8
0
 10
29.897948724496981
 20
123.6012319842562
 30
0.0
  0
VERTEX
  5
1006
  8
0
 10
30.016533096600199
 20
123.53790996542421
 30
0.0
  0
SEQEND
  5
1007
  8
0
  0
ARC
  5
AA9
  8
0
 10
34.686468053301162
 20
122.77048230110231
 30
0.0
 40
6.7345396974044078
 50
150.0804237767741
 51
164.96664374516999
  0
POLYLINE
  5
AAA
  8
0
 66
     1
 10
0.0
 20
0.0
 30
0.0
 70
   128
  0
VERTEX
  5
1008
  8
0
 10
29.1891572971827
 20
127.84098359236719
 30
0.0
  0
VERTEX
  5
1009
  8
0
 10
29.36423197137179
 20
127.8238128562666
 30
0.0
  0
VERTEX
  5
100A
  8
0
 10
29.56962678330007
 20
127.803668465393
 30
0.0
  0
VERTEX
  5
100B
  8
0
 10
29.797402208018919
 20
127.78132894721109
 30
0.0
  0
VERTEX
  5
100C
  8
0
 10
30.038758178520819
 20
127.7576576377474
 30
0.0
  0
VERTEX
  5
100D
  8
0
 10
30.284365636575838
 20
127.7335692121856
 30
0.0
  0
VERTEX
  5
100E
  8
0
 10
30.524734405148649
 20
127.7099945856467
 30
0.0
  0
VERTEX
  5
100F
  8
0
 10
30.750576404202601
 20
127.6878449408546
 30
0.0
  0
VERTEX
  5
1010
  8
0
 10
30.953161415923262
 20
127.66797598863241
 30
0.0
  0
VERTEX
  5
1011
  8
0
 10
31.124663536716131
 20
127.6511557208583
 30
0.0
  0
VERTEX
  5
1012
  8
0
 10
31.258452681172511
 20
127.6380340842739
 30
0.0
  0
SEQEND
  5
1013
  8
0
  0
ARC
  5
AAB
  8
0
 10
30.226296713533831
 20
126.68486411766381
 30
0.0
 40
1.40494801568588
 50
354.5169299871456
 51
42.7216944882367
  0
LINE
  5
AAC
  8
0
 10
31.624816355574751
 20
126.5506190521851
 30
0.0
 11
31.59330785023036
 21
126.39187162688231
 31
0.0
  0
ARC
  5
AAD
  8
0
 10
30.224440072423022
 20
126.8238014491517
 30
0.0
 40
1.4353962395397419
 50
295.36792402219208
 51
342.4875335851134
  0
ARC
  5
AAE
  8
0
 10
34.794587291761019
 20
128.42302961779521
 30
0.0
 40
6.3721639449210521
 50
193.21087272421181
 51
201.0952644836554
  0
ARC
  5
AAF
  8
0
 10
30.053962699033409
 20
126.7799097635402
 30
0.0
 40
1.4747881203752791
 50
164.82592596298801
 51
172.7211477578727
  0
ARC
  5
AB0
  8
0
 10
33.807716664417882
 20
123.45074982950391
 30
0.0
 40
6.372224346431997
 50
136.45183636183901
 51
144.33615471916929
  0
ARC
  5
AB1
  8
0
 10
30.368184035567371
 20
128.61803174233501
 30
0.0
 40
1.471580140792887
 50
6.9224084300686597
 51
52.816188993244118
  0
LINE
  5
AB2
  8
0
 10
31.82903676973643
 20
128.79539408288889
 30
0.0
 11
31.829103824961809
 21
128.6335498208505
 31
0.0
  0
ARC
  5
AB3
  8
0
 10
30.40226810541995
 20
128.7901302492545
 30
0.0
 40
1.4354015469964141
 50
306.61802406153748
 51
353.73744150093358
  0
ARC
  5
AB4
  8
0
 10
35.866582366565503
 20
128.71613193257471
 30
0.0
 40
6.7345296921603817
 50
172.58042682175031
 51
187.46667046991919
  0
POLYLINE
  5
AB5
  8
0
 66
     1
 10
0.0
 20
0.0
 30
0.0
 70
   128
  0
VERTEX
  5
1014
  8
0
 10
11.81280519561829
 20
131.28993499970289
 30
0.0
  0
VERTEX
  5
1015
  8
0
 10
11.64444349454703
 20
131.34093119709041
 30
0.0
  0
VERTEX
  5
1016
  8
0
 10
11.446925808954861
 20
131.4007591264531
 30
0.0
  0
VERTEX
  5
1017
  8
0
 10
11.227885258663321
 20
131.46710608100739
 30
0.0
  0
VERTEX
  5
1018
  8
0
 10
10.99578477190795
 20
131.53740882819741
 30
0.0
  0
VERTEX
  5
1019
  8
0
 10
10.759595779050009
 20
131.60895000158101
 30
0.0
  0
VERTEX
  5
101A
  8
0
 10
10.52844430999818
 20
131.67896543575671
 30
0.0
  0
VERTEX
  5
101B
  8
0
 10
10.31126454221072
 20
131.74474894015341
 30
0.0
  0
VERTEX
  5
101C
  8
0
 10
10.116447692084931
 20
131.8037584698036
 30
0.0
  0
VERTEX
  5
101D
  8
0
 10
9.9515225713140012
 20
131.8537139142141
 30
0.0
  0
VERTEX
  5
101E
  8
0
 10
9.8228640829211713
 20
131.89268440885689
 30
0.0
  0
SEQEND
  5
101F
  8
0
  0
ARC
  5
AB6
  8
0
 10
11.093212184643271
 20
132.63549785444931
 30
0.0
 40
1.4715828602228951
 50
164.42248724027081
 51
210.31620134052059
  0
LINE
  5
AB7
  8
0
 10
9.6756834511643888
 20
133.0306793371424
 30
0.0
 11
9.7375577290541173
 21
133.18022925352901
 31
0.0
  0
ARC
  5
AB8
  8
0
 10
10.995857373041931
 20
132.48954744870181
 30
0.0
 40
1.4353951893396011
 50
104.1179703627493
 51
151.23757717313549
  0
ARC
  5
AB9
  8
0
 10
5.975801980989444
 20
134.64901499403589
 30
0.0
 40
6.7345396974044389
 50
330.08042377677413
 51
344.96664374516803
  0
POLYLINE
  5
ABA
  8
0
 66
     1
 10
0.0
 20
0.0
 30
0.0
 70
   128
  0
VERTEX
  5
1020
  8
0
 10
27.213651218730831
 20
123.0661433929786
 30
0.0
  0
VERTEX
  5
1021
  8
0
 10
27.349681125301739
 20
122.9545998195395
 30
0.0
  0
VERTEX
  5
1022
  8
0
 10
27.509268836397549
 20
122.8237396845803
 30
0.0
  0
VERTEX
  5
1023
  8
0
 10
27.686246202606579
 20
122.6786196040198
 30
0.0
  0
VERTEX
  5
1024
  8
0
 10
27.873774987924719
 20
122.52484753674121
 30
0.0
  0
VERTEX
  5
1025
  8
0
 10
28.0646076400763
 20
122.368366252093
 30
0.0
  0
VERTEX
  5
1026
  8
0
 10
28.25136948125424
 20
122.2152228275523
 30
0.0
  0
VERTEX
  5
1027
  8
0
 10
28.426844624150419
 20
122.0713353524193
 30
0.0
  0
VERTEX
  5
1028
  8
0
 10
28.584249315131331
 20
121.9422642881259
 30
0.0
  0
VERTEX
  5
1029
  8
0
 10
28.71750294910731
 20
121.8329977983817
 30
0.0
  0
VERTEX
  5
102A
  8
0
 10
28.82145531224074
 20
121.7477580340788
 30
0.0
  0
SEQEND
  5
102B
  8
0
  0
ARC
  5
ABB
  8
0
 10
27.363542601828438
 20
121.5476306380564
 30
0.0
 40
1.4715843318751449
 50
321.92248546729928
 51
7.8161317362208234
  0
LINE
  5
ABC
  8
0
 10
28.52194010959926
 20
120.6400648499116
 30
0.0
 11
28.407545757759241
 21
120.5255764344916
 31
0.0
  0
ARC
  5
ABD
  8
0
 10
27.509340736177819
 20
121.645214680387
 30
0.0
 40
1.435396134335702
 50
261.61796251557638
 51
308.73755809273382
  0
POLYLINE
  5
ABE
  8
0
 66
     1
 10
0.0
 20
0.0
 30
0.0
 70
   128
  0
VERTEX
  5
102C
  8
0
 10
25.98039293410244
 20
121.8318713637277
 30
0.0
  0
VERTEX
  5
102D
  8
0
 10
26.092048266250519
 20
121.6959331924304
 30
0.0
  0
VERTEX
  5
102E
  8
0
 10
26.223039252031469
 20
121.5364535147533
 30
0.0
  0
VERTEX
  5
102F
  8
0
 10
26.368305084574839
 20
121.3595948921725
 30
0.0
  0
VERTEX
  5
1030
  8
0
 10
26.522230820078281
 20
121.17219276672451
 30
0.0
  0
VERTEX
  5
1031
  8
0
 10
26.67886903258028
 20
120.9814886370882
 30
0.0
  0
VERTEX
  5
1032
  8
0
 10
26.832165659684559
 20
120.79485252445789
 30
0.0
  0
VERTEX
  5
1033
  8
0
 10
26.97619748981657
 20
120.6194965908512
 30
0.0
  0
VERTEX
  5
1034
  8
0
 10
27.105397542286539
 20
120.4621971393213
 30
0.0
  0
VERTEX
  5
1035
  8
0
 10
27.21477392809453
 20
120.329033843635
 30
0.0
  0
VERTEX
  5
1036
  8
0
 10
27.30009890841308
 20
120.2251513296947
 30
0.0
  0
SEQEND
  5
1037
  8
0
  0
ARC
  5
ABF
  8
0
 10
31.320837496040411
 20
117.72907176995869
 30
0.0
 40
6.7344868123535608
 50
127.5803700048106
 51
142.46670806736361
  0
ARC
  5
AC0
  8
0
 10
28.62567948262171
 20
123.0572034180631
 30
0.0
 40
1.4715816525741849
 50
333.1724236139633
 51
19.066162970429229
  0
LINE
  5
AC1
  8
0
 10
29.938872901070742
 20
122.3930681864008
 30
0.0
 11
29.849012379813811
 21
122.2584627377078
 31
0.0
  0
ARC
  5
AC2
  8
0
 10
28.749634355722009
 20
123.18135858050449
 30
0.0
 40
1.4353984730754701
 50
272.86802357806329
 51
319.98751978496011
  0
ARC
  5
AC3
  8
0
 10
33.58381000134753
 20
122.9099396765935
 30
0.0
 40
6.3720736433880889
 50
170.7108168752693
 51
178.59532221385621
  0
ARC
  5
AC4
  8
0
 10
28.575339142524061
 20
123.20604493197111
 30
0.0
 40
1.474788120375262
 50
142.3259259629873
 51
150.2211477578725
  0
ARC
  5
AC5
  8
0
 10
30.76930703947491
 20
118.6938786215281
 30
0.0
 40
6.3721414908086302
 50
113.95183487925929
 51
121.8362513909796
  0
ARC
  5
AC6
  8
0
 10
10.608307335257161
 20
130.63958753159801
 30
0.0
 40
1.4747881203752691
 50
344.82592596299111
 51
352.72114775787111
  0
ARC
  5
AC7
  8
0
 10
6.854553369872689
 20
133.96874746563441
 30
0.0
 40
6.372224346432029
 50
316.45183636183901
 51
324.33615471916801
  0
POLYLINE
  5
AC8
  8
0
 66
     1
 10
0.0
 20
0.0
 30
0.0
 70
   128
  0
VERTEX
  5
1038
  8
0
 10
9.4038173531180842
 20
129.78146321086439
 30
0.0
  0
VERTEX
  5
1039
  8
0
 10
9.5376064975744725
 20
129.76834157427999
 30
0.0
  0
VERTEX
  5
103A
  8
0
 10
9.7091086183673383
 20
129.75152130650579
 30
0.0
  0
VERTEX
  5
103B
  8
0
 10
9.9116936300879956
 20
129.7316523542836
 30
0.0
  0
VERTEX
  5
103C
  8
0
 10
10.137535629141951
 20
129.70950270949149
 30
0.0
  0
VERTEX
  5
103D
  8
0
 10
10.37790439771476
 20
129.68592808295261
 30
0.0
  0
VERTEX
  5
103E
  8
0
 10
10.623511855769779
 20
129.66183965739091
 30
0.0
  0
VERTEX
  5
103F
  8
0
 10
10.864867826271681
 20
129.63816834792721
 30
0.0
  0
VERTEX
  5
1040
  8
0
 10
11.09264325099053
 20
129.6158288297452
 30
0.0
  0
VERTEX
  5
1041
  8
0
 10
11.298038062918801
 20
129.59568443887159
 30
0.0
  0
VERTEX
  5
1042
  8
0
 10
11.4731127371079
 20
129.57851370277109
 30
0.0
  0
SEQEND
  5
1043
  8
0
  0
ARC
  5
AC9
  8
0
 10
10.435973320756769
 20
130.73463317747451
 30
0.0
 40
1.4049480156858689
 50
174.5169299871456
 51
222.7216944882378
  0
LINE
  5
ACA
  8
0
 10
9.037453678715849
 20
130.86887824295309
 30
0.0
 11
9.0689621840602381
 21
131.02762566825601
 31
0.0
  0
ARC
  5
ACB
  8
0
 10
10.43782996186752
 20
130.5956958459866
 30
0.0
 40
1.4353962395397331
 50
115.3679240221921
 51
162.4875335851134
  0
ARC
  5
ACC
  8
0
 10
5.8676827425295519
 20
128.99646767734311
 30
0.0
 40
6.3721639449210787
 50
13.210872724210279
 51
21.095264483655441
  0
POLYLINE
  5
ACD
  8
0
 66
     1
 10
0.0
 20
0.0
 30
0.0
 70
   128
  0
VERTEX
  5
1044
  8
0
 10
21.20717748515295
 20
119.85244348591419
 30
0.0
  0
VERTEX
  5
1045
  8
0
 10
21.224492052383599
 20
119.67738278156369
 30
0.0
  0
VERTEX
  5
1046
  8
0
 10
21.244805187266198
 20
119.47200473344181
 30
0.0
  0
VERTEX
  5
1047
  8
0
 10
21.26733178487035
 20
119.2442470038518
 30
0.0
  0
VERTEX
  5
1048
  8
0
 10
21.291201407834759
 20
119.0029115224466
 30
0.0
  0
VERTEX
  5
1049
  8
0
 10
21.315491639356939
 20
118.7573236221656
 30
0.0
  0
VERTEX
  5
104A
  8
0
 10
21.339263648073999
 20
118.5169734800443
 30
0.0
  0
VERTEX
  5
104B
  8
0
 10
21.361598975304389
 20
118.2911510387644
 30
0.0
  0
VERTEX
  5
104C
  8
0
 10
21.381634285021448
 20
118.08858185952749
 30
0.0
  0
VERTEX
  5
104D
  8
0
 10
21.398595531750349
 20
117.9170937085733
 30
0.0
  0
VERTEX
  5
104E
  8
0
 10
21.411827064398551
 20
117.7833148086652
 30
0.0
  0
SEQEND
  5
104F
  8
0
  0
ARC
  5
ACE
  8
0
 10
20.239418111911188
 20
118.6726996291471
 30
0.0
 40
1.471580140792887
 50
276.92240843006857
 51
322.81618899324411
  0
LINE
  5
ACF
  8
0
 10
20.416780452465051
 20
117.211846894978
 30
0.0
 11
20.25493619042669
 21
117.21177983975259
 31
0.0
  0
ARC
  5
AD0
  8
0
 10
20.41151661883066
 20
118.63861555929439
 30
0.0
 40
1.4354015469963859
 50
216.6180240615376
 51
263.73744150093518
  0
POLYLINE
  5
AD1
  8
0
 66
     1
 10
0.0
 20
0.0
 30
0.0
 70
   128
  0
VERTEX
  5
1050
  8
0
 10
19.462369961943349
 20
119.8517263675317
 30
0.0
  0
VERTEX
  5
1051
  8
0
 10
19.445199225842831
 20
119.67665169334261
 30
0.0
  0
VERTEX
  5
1052
  8
0
 10
19.42505483496922
 20
119.4712568814144
 30
0.0
  0
VERTEX
  5
1053
  8
0
 10
19.402715316787241
 20
119.24348145669551
 30
0.0
  0
VERTEX
  5
1054
  8
0
 10
19.379044007323561
 20
119.00212548619361
 30
0.0
  0
VERTEX
  5
1055
  8
0
 10
19.354955581761772
 20
118.7565180281386
 30
0.0
  0
VERTEX
  5
1056
  8
0
 10
19.331380955222869
 20
118.51614925956579
 30
0.0
  0
VERTEX
  5
1057
  8
0
 10
19.309231310430789
 20
118.2903072605118
 30
0.0
  0
VERTEX
  5
1058
  8
0
 10
19.289362358208621
 20
118.0877222487912
 30
0.0
  0
VERTEX
  5
1059
  8
0
 10
19.272542090434449
 20
117.9162201279983
 30
0.0
  0
VERTEX
  5
105A
  8
0
 10
19.259420453850051
 20
117.7824309835419
 30
0.0
  0
SEQEND
  5
105B
  8
0
  0
ARC
  5
AD2
  8
0
 10
20.337518302150869
 20
113.1743012981489
 30
0.0
 40
6.7345296921603977
 50
82.580426821748745
 51
97.466670469919251
  0
POLYLINE
  5
AD3
  8
0
 66
     1
 10
0.0
 20
0.0
 30
0.0
 70
   128
  0
VERTEX
  5
105C
  8
0
 10
24.530036838073158
 20
120.8619124064431
 30
0.0
  0
VERTEX
  5
105D
  8
0
 10
24.613026061374569
 20
120.7068034256086
 30
0.0
  0
VERTEX
  5
105E
  8
0
 10
24.710387454647449
 20
120.52483230775449
 30
0.0
  0
VERTEX
  5
105F
  8
0
 10
24.818358474690339
 20
120.32303240096419
 30
0.0
  0
VERTEX
  5
1060
  8
0
 10
24.93276633070769
 20
120.1092016691551
 30
0.0
  0
VERTEX
  5
1061
  8
0
 10
25.0491900344378
 20
119.8916037375316
 30
0.0
  0
VERTEX
  5
1062
  8
0
 10
25.16313036652269
 20
119.6786465862974
 30
0.0
  0
VERTEX
  5
1063
  8
0
 10
25.270184499490881
 20
119.4785612443671
 30
0.0
  0
VERTEX
  5
1064
  8
0
 10
25.366214567143349
 20
119.2990786204323
 30
0.0
  0
VERTEX
  5
1065
  8
0
 10
25.447510180342821
 20
119.1471352050289
 30
0.0
  0
VERTEX
  5
1066
  8
0
 10
25.510929522383829
 20
119.0286029869899
 30
0.0
  0
SEQEND
  5
1067
  8
0
  0
ARC
  5
AD4
  8
0
 10
24.087409899854659
 20
119.4016272745564
 30
0.0
 40
1.4715825613400499
 50
299.42244293315542
 51
345.31615985675973
  0
LINE
  5
AD5
  8
0
 10
24.810317435581108
 20
118.1198472896799
 30
0.0
 11
24.660818741936112
 21
118.05785100853289
 31
0.0
  0
ARC
  5
AD6
  8
0
 10
24.259452599160461
 20
119.43599501944129
 30
0.0
 40
1.435400883157486
 50
239.1180557633304
 51
286.23749932354752
  0
POLYLINE
  5
AD7
  8
0
 66
     1
 10
0.0
 20
0.0
 30
0.0
 70
   128
  0
VERTEX
  5
1068
  8
0
 10
22.918319094274072
 20
120.1935413101897
 30
0.0
  0
VERTEX
  5
1069
  8
0
 10
22.969453593063971
 20
120.0252224499568
 30
0.0
  0
VERTEX
  5
106A
  8
0
 10
23.029443572554609
 20
119.82775412446109
 30
0.0
  0
VERTEX
  5
106B
  8
0
 10
23.09597073802712
 20
119.6087675908789
 30
0.0
  0
VERTEX
  5
106C
  8
0
 10
23.166463940683631
 20
119.3767248461232
 30
0.0
  0
VERTEX
  5
106D
  8
0
 10
23.238199294824032
 20
119.14059452658741
 30
0.0
  0
VERTEX
  5
106E
  8
0
 10
23.308404485974339
 20
118.90950079953519
 30
0.0
  0
VERTEX
  5
106F
  8
0
 10
23.374366571474699
 20
118.69237504845709
 30
0.0
  0
VERTEX
  5
1070
  8
0
 10
23.433536288607741
 20
118.4976066271052
 30
0.0
  0
VERTEX
  5
1071
  8
0
 10
23.48362700762215
 20
118.33272248452749
 30
0.0
  0
VERTEX
  5
1072
  8
0
 10
23.522703207377219
 20
118.2040956611022
 30
0.0
  0
SEQEND
  5
1073
  8
0
  0
ARC
  5
AD8
  8
0
 10
26.28217079976276
 20
114.35935353769101
 30
0.0
 40
6.7344818108961837
 50
105.0803595422724
 51
119.9667101224824
  0
ARC
  5
AD9
  8
0
 10
25.83115563736277
 20
120.31329414421521
 30
0.0
 40
1.471585365962703
 50
310.67249649234037
 51
356.56612796598671
  0
LINE
  5
ADA
  8
0
 10
26.790238448697949
 20
119.1971742356405
 30
0.0
 11
26.65570704014959
 21
119.1072038183197
 31
0.0
  0
ARC
  5
ADB
  8
0
 10
25.993190574608551
 20
120.38056346698789
 30
0.0
 40
1.4353998961854919
 50
250.36805290154439
 51
297.4875154015952
  0
ARC
  5
ADC
  8
0
 10
30.355448980289911
 20
118.2798809904109
 30
0.0
 40
6.3719944177677226
 50
148.2107598745811
 51
156.09536278106179
  0
ARC
  5
ADD
  8
0
 10
25.841610241822309
 20
120.4700690999034
 30
0.0
 40
1.474788120375262
 50
119.8259259629873
 51
127.7211477578723
  0
ARC
  5
ADE
  8
0
 10
26.141827475989832
 20
115.4618711077148
 30
0.0
 40
6.3720455407129579
 50
91.451732825118498
 51
99.336271646216005
  0
ARC
  5
ADF
  8
0
 10
22.1993087101078
 20
118.8476679459737
 30
0.0
 40
1.4715835964217541
 50
288.17248509586381
 51
334.0661511908188
  0
LINE
  5
AE0
  8
0
 10
22.658264261949679
 20
117.4494840944394
 30
0.0
 11
22.499542680848268
 21
117.4178452039346
 31
0.0
  0
ARC
  5
AE1
  8
0
 10
22.364143385744139
 20
118.81623979754509
 30
0.0
 40
1.404934307558094
 50
227.3251585387043
 51
275.53041351197271
  0
ARC
  5
AE2
  8
0
 10
25.60118637014472
 20
115.2375120949162
 30
0.0
 40
6.3721978802454906
 50
125.7108918096974
 51
133.59524090412731
  0
ARC
  5
AE3
  8
0
 10
22.268961440745731
 20
118.98850978608669
 30
0.0
 40
1.474788120375262
 50
97.325925962986872
 51
105.2211477578719
  0
ARC
  5
AE4
  8
0
 10
20.62981038258869
 20
114.2467673761851
 30
0.0
 40
6.3719221860923518
 50
68.951679622146841
 51
76.836369891697089
  0
ARC
  5
AE5
  8
0
 10
18.306250487239929
 20
118.8145869511806
 30
0.0
 40
1.4049480156858689
 50
264.5169299871456
 51
312.72169448823672
  0
LINE
  5
AE6
  8
0
 10
18.172005421761298
 20
117.41606730913971
 30
0.0
 11
18.013257996458432
 21
117.4475758144841
 31
0.0
  0
ARC
  5
AE7
  8
0
 10
18.44518781872782
 20
118.81644359229141
 30
0.0
 40
1.4353962395397379
 50
205.36792402219271
 51
252.48753358511499
  0
POLYLINE
  5
AE8
  8
0
 66
     1
 10
0.0
 20
0.0
 30
0.0
 70
   128
  0
VERTEX
  5
1074
  8
0
 10
17.750948665011549
 20
120.1914188260421
 30
0.0
  0
VERTEX
  5
1075
  8
0
 10
17.699952467623969
 20
120.0230571249708
 30
0.0
  0
VERTEX
  5
1076
  8
0
 10
17.640124538261318
 20
119.8255394393787
 30
0.0
  0
VERTEX
  5
1077
  8
0
 10
17.573777583706999
 20
119.60649888908711
 30
0.0
  0
VERTEX
  5
1078
  8
0
 10
17.503474836517
 20
119.37439840233181
 30
0.0
  0
VERTEX
  5
1079
  8
0
 10
17.43193366313341
 20
119.1382094094738
 30
0.0
  0
VERTEX
  5
107A
  8
0
 10
17.361918228957681
 20
118.90705794042201
 30
0.0
  0
VERTEX
  5
107B
  8
0
 10
17.296134724561
 20
118.68987817263449
 30
0.0
  0
VERTEX
  5
107C
  8
0
 10
17.237125194910789
 20
118.4950613225087
 30
0.0
  0
VERTEX
  5
107D
  8
0
 10
17.187169750500338
 20
118.3301362017378
 30
0.0
  0
VERTEX
  5
107E
  8
0
 10
17.148199255857492
 20
118.201477713345
 30
0.0
  0
SEQEND
  5
107F
  8
0
  0
ARC
  5
AE9
  8
0
 10
20.044415987371341
 20
114.2462963729534
 30
0.0
 40
6.3721639449210654
 50
103.2108727242118
 51
111.0952644836554
  0
ARC
  5
AEA
  8
0
 10
18.401296133116318
 20
118.98692096568099
 30
0.0
 40
1.474788120375256
 50
74.825925962986034
 51
82.721147757871066
  0
ARC
  5
AEB
  8
0
 10
15.072136199080029
 20
115.2331670002965
 30
0.0
 40
6.3722243464320067
 50
46.451836361837849
 51
54.336154719167979
  0
POLYLINE
  5
AEC
  8
0
 66
     1
 10
0.0
 20
0.0
 30
0.0
 70
   128
  0
VERTEX
  5
1080
  8
0
 10
11.814927679765839
 20
126.1225645704403
 30
0.0
  0
VERTEX
  5
1081
  8
0
 10
11.646608819533011
 20
126.0714300716504
 30
0.0
  0
VERTEX
  5
1082
  8
0
 10
11.449140494037289
 20
126.0114400921598
 30
0.0
  0
VERTEX
  5
1083
  8
0
 10
11.23015396045508
 20
125.94491292668729
 30
0.0
  0
VERTEX
  5
1084
  8
0
 10
10.998111215699341
 20
125.8744197240308
 30
0.0
  0
VERTEX
  5
1085
  8
0
 10
10.7619808961636
 20
125.8026843698904
 30
0.0
  0
VERTEX
  5
1086
  8
0
 10
10.53088716911139
 20
125.73247917874011
 30
0.0
  0
VERTEX
  5
1087
  8
0
 10
10.313761418033261
 20
125.6665170932397
 30
0.0
  0
VERTEX
  5
1088
  8
0
 10
10.118992996681349
 20
125.6073473761067
 30
0.0
  0
VERTEX
  5
1089
  8
0
 10
9.9541088541037084
 20
125.5572566570923
 30
0.0
  0
VERTEX
  5
108A
  8
0
 10
9.8254820306784154
 20
125.51818045733719
 30
0.0
  0
SEQEND
  5
108B
  8
0
  0
ARC
  5
AED
  8
0
 10
10.46905431554984
 20
126.8415749546066
 30
0.0
 40
1.4715835964217481
 50
198.17248509586381
 51
244.06615119082019
  0
LINE
  5
AEE
  8
0
 10
9.070870464015627
 20
126.3826194027647
 30
0.0
 11
9.0392315735107882
 21
126.54134098386621
 31
0.0
  0
ARC
  5
AEF
  8
0
 10
10.437626167121261
 20
126.6767402789703
 30
0.0
 40
1.4049343075580809
 50
137.3251585387043
 51
185.53041351197271
  0
POLYLINE
  5
AF0
  8
0
 66
     1
 10
0.0
 20
0.0
 30
0.0
 70
   128
  0
VERTEX
  5
108C
  8
0
 10
11.473829855490351
 20
127.8337061795615
 30
0.0
  0
VERTEX
  5
108D
  8
0
 10
11.298769151139879
 20
127.8163916123308
 30
0.0
  0
VERTEX
  5
108E
  8
0
 10
11.09339110301795
 20
127.79607847744821
 30
0.0
  0
VERTEX
  5
108F
  8
0
 10
10.865633373428009
 20
127.77355187984411
 30
0.0
  0
VERTEX
  5
1090
  8
0
 10
10.624297892022749
 20
127.74968225687969
 30
0.0
  0
VERTEX
  5
1091
  8
0
 10
10.3787099917418
 20
127.72539202535749
 30
0.0
  0
VERTEX
  5
1092
  8
0
 10
10.13835984962048
 20
127.7016200166404
 30
0.0
  0
VERTEX
  5
1093
  8
0
 10
9.9125374083405973
 20
127.67928468941
 30
0.0
  0
VERTEX
  5
1094
  8
0
 10
9.7099682291037084
 20
127.65924937969299
 30
0.0
  0
VERTEX
  5
1095
  8
0
 10
9.5384800781494619
 20
127.6422881329641
 30
0.0
  0
VERTEX
  5
1096
  8
0
 10
9.4047011782413961
 20
127.62905660031591
 30
0.0
  0
SEQEND
  5
1097
  8
0
  0
ARC
  5
AF1
  8
0
 10
6.8588984644923121
 20
123.4396972945697
 30
0.0
 40
6.3721978802455226
 50
35.710891809697451
 51
43.595240904125077
  0
ARC
  5
AF2
  8
0
 10
10.609896155662881
 20
126.7719222239687
 30
0.0
 40
1.474788120375256
 50
7.325925962986866
 51
15.22114775787192
  0
ARC
  5
AF3
  8
0
 10
5.8681537457612762
 20
128.4110732821257
 30
0.0
 40
6.3719221860923794
 50
338.95167962214691
 51
346.83636989169707
  0
POLYLINE
  5
AF4
  8
0
 66
     1
 10
0.0
 20
0.0
 30
0.0
 70
   128
  0
VERTEX
  5
1098
  8
0
 10
12.48329877601924
 20
124.5108468266413
 30
0.0
  0
VERTEX
  5
1099
  8
0
 10
12.32818979518475
 20
124.4278576033398
 30
0.0
  0
VERTEX
  5
109A
  8
0
 10
12.146218677330641
 20
124.330496210067
 30
0.0
  0
VERTEX
  5
109B
  8
0
 10
11.944418770540381
 20
124.2225251900241
 30
0.0
  0
VERTEX
  5
109C
  8
0
 10
11.73058803873124
 20
124.10811733400671
 30
0.0
  0
VERTEX
  5
109D
  8
0
 10
11.512990107107781
 20
123.9916936302766
 30
0.0
  0
VERTEX
  5
109E
  8
0
 10
11.300032955873631
 20
123.87775329819171
 30
0.0
  0
VERTEX
  5
109F
  8
0
 10
11.09994761394324
 20
123.7706991652235
 30
0.0
  0
VERTEX
  5
10A0
  8
0
 10
10.920464990008499
 20
123.6746690975711
 30
0.0
  0
VERTEX
  5
10A1
  8
0
 10
10.768521574605129
 20
123.5933734843716
 30
0.0
  0
VERTEX
  5
10A2
  8
0
 10
10.64998935656609
 20
123.5299541423306
 30
0.0
  0
SEQEND
  5
10A3
  8
0
  0
ARC
  5
AF5
  8
0
 10
11.023013644132609
 20
124.95347376485969
 30
0.0
 40
1.4715825613400231
 50
209.42244293315531
 51
255.3161598567616
  0
LINE
  5
AF6
  8
0
 10
9.7412336592561246
 20
124.2305662291333
 30
0.0
 11
9.6792373781091214
 21
124.3800649227783
 31
0.0
  0
ARC
  5
AF7
  8
0
 10
11.057381389017509
 20
124.7814310655539
 30
0.0
 40
1.4354008831574729
 50
149.11805576332901
 51
196.237499323549
  0
ARC
  5
AF8
  8
0
 10
5.9807399072672061
 20
122.7587128649517
 30
0.0
 40
6.7344818108962023
 50
15.08035954227088
 51
29.96671012248158
  0
POLYLINE
  5
AF9
  8
0
 66
     1
 10
0.0
 20
0.0
 30
0.0
 70
   128
  0
VERTEX
  5
10A4
  8
0
 10
13.45325773330393
 20
123.060490730612
 30
0.0
  0
VERTEX
  5
10A5
  8
0
 10
13.31731956200661
 20
122.9488353984639
 30
0.0
  0
VERTEX
  5
10A6
  8
0
 10
13.15783988432946
 20
122.8178444126829
 30
0.0
  0
VERTEX
  5
10A7
  8
0
 10
12.98098126174869
 20
122.6725785801396
 30
0.0
  0
VERTEX
  5
10A8
  8
0
 10
12.793579136300711
 20
122.51865284463609
 30
0.0
  0
VERTEX
  5
10A9
  8
0
 10
12.602875006664419
 20
122.36201463213411
 30
0.0
  0
VERTEX
  5
10AA
  8
0
 10
12.41623889403405
 20
122.20871800502989
 30
0.0
  0
VERTEX
  5
10AB
  8
0
 10
12.240882960427429
 20
122.0646861748978
 30
0.0
  0
VERTEX
  5
10AC
  8
0
 10
12.083583508897449
 20
121.9354861224279
 30
0.0
  0
VERTEX
  5
10AD
  8
0
 10
11.950420213211199
 20
121.8261097366199
 30
0.0
  0
VERTEX
  5
10AE
  8
0
 10
11.84653769927087
 20
121.7407847563013
 30
0.0
  0
SEQEND
  5
10AF
  8
0
  0
ARC
  5
AFA
  8
0
 10
11.93468051379142
 20
123.2097280273516
 30
0.0
 40
1.471585365962687
 50
220.6724964923427
 51
266.56612796598841
  0
LINE
  5
AFB
  8
0
 10
10.818560605216639
 20
122.25064521601649
 30
0.0
 11
10.72859018789592
 21
122.38517662456481
 31
0.0
  0
ARC
  5
AFC
  8
0
 10
12.00194983656408
 20
123.0476930901058
 30
0.0
 40
1.4353998961854959
 50
160.36805290154291
 51
207.4875154015966
  0
ARC
  5
AFD
  8
0
 10
9.9012673599871164
 20
118.68543468442449
 30
0.0
 40
6.371994417767735
 50
58.210759874580297
 51
66.095362781061766
  0
ARC
  5
AFE
  8
0
 10
12.09145546947954
 20
123.19927342289211
 30
0.0
 40
1.4747881203752611
 50
29.82592596298511
 51
37.72114775787103
  0
ARC
  5
AFF
  8
0
 10
7.083257477290914
 20
122.8990561887246
 30
0.0
 40
6.3720455407129872
 50
1.4517328251185091
 51
9.3362716462160051
  0
POLYLINE
  5
B00
  8
0
 66
     1
 10
0.0
 20
0.0
 30
0.0
 70
   128
  0
VERTEX
  5
10B0
  8
0
 10
14.68752976255479
 20
121.8272324459836
 30
0.0
  0
VERTEX
  5
10B1
  8
0
 10
14.575986189115669
 20
121.6912025394127
 30
0.0
  0
VERTEX
  5
10B2
  8
0
 10
14.44512605415645
 20
121.5316148283169
 30
0.0
  0
VERTEX
  5
10B3
  8
0
 10
14.300005973596001
 20
121.3546374621078
 30
0.0
  0
VERTEX
  5
10B4
  8
0
 10
14.146233906317381
 20
121.1671086767897
 30
0.0
  0
VERTEX
  5
10B5
  8
0
 10
13.989752621669201
 20
120.9762760246381
 30
0.0
  0
VERTEX
  5
10B6
  8
0
 10
13.836609197128441
 20
120.7895141834602
 30
0.0
  0
VERTEX
  5
10B7
  8
0
 10
13.69272172199549
 20
120.61403904056399
 30
0.0
  0
VERTEX
  5
10B8
  8
0
 10
13.563650657702111
 20
120.4566343495831
 30
0.0
  0
VERTEX
  5
10B9
  8
0
 10
13.454384167957921
 20
120.3233807156071
 30
0.0
  0
VERTEX
  5
10BA
  8
0
 10
13.36914440365496
 20
120.2194283524737
 30
0.0
  0
SEQEND
  5
10BB
  8
0
  0
ARC
  5
B01
  8
0
 10
13.169017007632529
 20
121.677341062886
 30
0.0
 40
1.4715843318751429
 50
231.92248546729931
 51
277.81613173622083
  0
LINE
  5
B02
  8
0
 10
12.26145121948781
 20
120.5189435551152
 30
0.0
 11
12.14696280406775
 21
120.63333790695521
 31
0.0
  0
ARC
  5
B03
  8
0
 10
13.26660104996318
 20
121.5315429285366
 30
0.0
 40
1.43539613433568
 50
171.61796251557629
 51
218.73755809273479
  0
ARC
  5
B04
  8
0
 10
9.3504581395349078
 20
117.720046168674
 30
0.0
 40
6.7344868123536008
 50
37.580370004810632
 51
52.466708067362298
  0
POLYLINE
  5
B05
  8
0
 66
     1
 10
0.0
 20
0.0
 30
0.0
 70
   128
  0
VERTEX
  5
10BC
  8
0
 10
16.13868260504665
 20
120.8584655815944
 30
0.0
  0
VERTEX
  5
10BD
  8
0
 10
16.055820507276682
 20
120.7032876828894
 30
0.0
  0
VERTEX
  5
10BE
  8
0
 10
15.958608591277031
 20
120.52123740261641
 30
0.0
  0
VERTEX
  5
10BF
  8
0
 10
15.850803346652411
 20
120.3193490201816
 30
0.0
  0
VERTEX
  5
10C0
  8
0
 10
15.736571044940369
 20
120.1054242247924
 30
0.0
  0
VERTEX
  5
10C1
  8
0
 10
15.620326155144591
 20
119.8877303669438
 30
0.0
  0
VERTEX
  5
10C2
  8
0
 10
15.50656091170373
 20
119.6746800834522
 30
0.0
  0
VERTEX
  5
10C3
  8
0
 10
15.399671622831249
 20
119.4745062658772
 30
0.0
  0
VERTEX
  5
10C4
  8
0
 10
15.303788704145569
 20
119.29494447952359
 30
0.0
  0
VERTEX
  5
10C5
  8
0
 10
15.22261835383239
 20
119.1429349402174
 30
0.0
  0
VERTEX
  5
10C6
  8
0
 10
15.15929633500042
 20
119.0243505681142
 30
0.0
  0
SEQEND
  5
10C7
  8
0
  0
ARC
  5
B06
  8
0
 10
14.67858978763922
 20
120.41520418209269
 30
0.0
 40
1.471581652574161
 50
243.1724236139647
 51
289.0661629704307
  0
LINE
  5
B07
  8
0
 10
14.014454555977011
 20
119.1020107636437
 30
0.0
 11
13.87984910728397
 21
119.1918712849006
 31
0.0
  0
ARC
  5
B08
  8
0
 10
14.80274495008063
 20
120.29124930899241
 30
0.0
 40
1.435398473075441
 50
182.8680235780617
 51
229.98751978496011
  0
ARC
  5
B09
  8
0
 10
14.53132604616968
 20
115.4570736633669
 30
0.0
 40
6.3720736433881067
 50
80.710816875269302
 51
88.595322213854615
  0
ARC
  5
B0A
  8
0
 10
14.82743130154722
 20
120.4655445221904
 30
0.0
 40
1.4747881203752631
 50
52.325925962987291
 51
60.221147757871158
  0
ARC
  5
B0B
  8
0
 10
10.31526499110427
 20
118.2715766252395
 30
0.0
 40
6.3721414908086871
 50
23.951834879259309
 51
31.836251390978209
  0
ARC
  5
B0C
  8
0
 10
10.294085998723199
 20
128.80146555280319
 30
0.0
 40
1.471580140792867
 50
186.92240843007019
 51
232.81618899324641
  0
LINE
  5
B0D
  8
0
 10
8.8332332645541651
 20
128.62410321224939
 30
0.0
 11
8.8331662093287946
 21
128.7859474742877
 31
0.0
  0
ARC
  5
B0E
  8
0
 10
10.26000192887062
 20
128.62936704588381
 30
0.0
 40
1.4354015469963859
 50
126.6180240615375
 51
173.7374415009352
  0
ARC
  5
B0F
  8
0
 10
4.7956876677250762
 20
128.70336536256349
 30
0.0
 40
6.7345296921604101
 50
352.5804268217488
 51
7.4666704699176396
  0
ARC
  5
B10
  8
0
 10
23.97786508170401
 20
132.3594760657291
 30
0.0
 40
2.3130067012440811
 50
188.91694562954771
 51
193.1528784590412
  0
POLYLINE
  5
B11
  8
0
 66
     1
 10
0.0
 20
0.0
 30
0.0
 70
   128
  0
VERTEX
  5
10C8
  8
0
 10
21.692813255172101
 20
132.0009541506156
 30
0.0
  0
VERTEX
  5
10C9
  8
0
 10
21.795500998664519
 20
132.2491527809039
 30
0.0
  0
VERTEX
  5
10CA
  8
0
 10
21.903320795204369
 20
132.5097552309021
 30
0.0
  0
VERTEX
  5
10CB
  8
0
 10
22.01472653290244
 20
132.77902526727169
 30
0.0
  0
VERTEX
  5
10CC
  8
0
 10
22.128121109958609
 20
133.05310279077139
 30
0.0
  0
VERTEX
  5
10CD
  8
0
 10
22.241878786403561
 20
133.32805715447509
 30
0.0
  0
VERTEX
  5
10CE
  8
0
 10
22.354368350747851
 20
133.5999470012471
 30
0.0
  0
VERTEX
  5
10CF
  8
0
 10
22.463977334368849
 20
133.86487381478989
 30
0.0
  0
VERTEX
  5
10D0
  8
0
 10
22.56913366476061
 20
134.11903966164439
 30
0.0
  0
SEQEND
  5
10D1
  8
0
  0
ARC
  5
B12
  8
0
 10
22.457164955697859
 20
138.99181140853861
 30
0.0
 40
4.8740580104405682
 50
271.31633617164351
 51
290.22327765511398
  0
ARC
  5
B13
  8
0
 10
27.635567642427588
 20
136.02018494814769
 30
0.0
 40
3.843318966996367
 50
204.63376365687819
 51
245.41330846577929
  0
ARC
  5
B14
  8
0
 10
30.611456432727181
 20
130.8442233089954
 30
0.0
 40
4.8740671252423438
 50
159.82380779387009
 51
178.73071270599101
  0
POLYLINE
  5
B15
  8
0
 66
     1
 10
0.0
 20
0.0
 30
0.0
 70
   128
  0
VERTEX
  5
10D2
  8
0
 10
23.621220604795841
 20
130.0741303986147
 30
0.0
  0
VERTEX
  5
10D3
  8
0
 10
23.869334717560431
 20
130.17702210175099
 30
0.0
  0
VERTEX
  5
10D4
  8
0
 10
24.129848691914109
 20
130.2850558696523
 30
0.0
  0
VERTEX
  5
10D5
  8
0
 10
24.399027225840712
 20
130.3966829128772
 30
0.0
  0
VERTEX
  5
10D6
  8
0
 10
24.67301115142169
 20
130.51030263716581
 30
0.0
  0
VERTEX
  5
10D7
  8
0
 10
24.94787238286796
 20
130.6242861593351
 30
0.0
  0
VERTEX
  5
10D8
  8
0
 10
25.219669563043741
 20
130.73699900826659
 30
0.0
  0
VERTEX
  5
10D9
  8
0
 10
25.48450650395813
 20
130.8468254557088
 30
0.0
  0
VERTEX
  5
10DA
  8
0
 10
25.738585272151852
 20
130.95219086801859
 30
0.0
  0
SEQEND
  5
10DB
  8
0
  0
ARC
  5
B16
  8
0
 10
23.97786508170401
 20
132.3594760657291
 30
0.0
 40
2.3130067012440851
 50
256.89419526181842
 51
261.13012809131141
  0
ARC
  5
B17
  8
0
 10
26.57693605197025
 20
134.96068323776001
 30
0.0
 40
5.7721339272451333
 50
212.80849883639871
 51
237.23857419295311
  0
ARC
  5
B18
  8
0
 10
16.405385810265098
 20
119.47182581506711
 30
0.0
 40
1.471582860222914
 50
254.42248724027129
 51
300.31620134051968
  0
LINE
  5
B19
  8
0
 10
16.010204327572009
 20
118.0542970815882
 30
0.0
 11
15.86065441118541
 21
118.1161713594779
 31
0.0
  0
ARC
  5
B1A
  8
0
 10
16.551336216012629
 20
119.3744710034658
 30
0.0
 40
1.4353951893396031
 50
194.11797036275081
 51
241.23757717313549
  0
ARC
  5
B1B
  8
0
 10
14.391868670678489
 20
114.3544156114133
 30
0.0
 40
6.7345396974043972
 50
60.08042377677409
 51
74.966643745168057
  0
ARC
  5
B1C
  8
0
 10
20.32901556808827
 20
133.8691232122388
 30
0.0
 40
2.313006701244078
 50
233.9169456295493
 51
238.1528784590412
  0
POLYLINE
  5
B1D
  8
0
 66
     1
 10
0.0
 20
0.0
 30
0.0
 70
   128
  0
VERTEX
  5
10DC
  8
0
 10
18.966753266099708
 20
131.99983423521971
 30
0.0
  0
VERTEX
  5
10DD
  8
0
 10
18.86386156296345
 20
132.24794834798431
 30
0.0
  0
VERTEX
  5
10DE
  8
0
 10
18.755827795062089
 20
132.50846232233789
 30
0.0
  0
VERTEX
  5
10DF
  8
0
 10
18.644200751837221
 20
132.7776408562645
 30
0.0
  0
VERTEX
  5
10E0
  8
0
 10
18.530581027548632
 20
133.0516247818455
 30
0.0
  0
VERTEX
  5
10E1
  8
0
 10
18.41659750537934
 20
133.3264860132918
 30
0.0
  0
VERTEX
  5
10E2
  8
0
 10
18.303884656447789
 20
133.59828319346761
 30
0.0
  0
VERTEX
  5
10E3
  8
0
 10
18.194058209005622
 20
133.86312013438189
 30
0.0
  0
VERTEX
  5
10E4
  8
0
 10
18.088692796695849
 20
134.11719890257569
 30
0.0
  0
SEQEND
  5
10E5
  8
0
  0
ARC
  5
B1E
  8
0
 10
14.563939996659849
 20
137.48360016467129
 30
0.0
 40
4.8740680913176471
 50
316.3163656338387
 51
335.2232710506164
  0
ARC
  5
B1F
  8
0
 10
20.326890119322741
 20
139.0440212869529
 30
0.0
 40
3.8433185402845962
 50
249.63375607298661
 51
290.41330720598921
  0
ARC
  5
B20
  8
0
 10
26.091113808792219
 20
137.48833187450791
 30
0.0
 40
4.8740613609817913
 50
204.82379571808249
 51
223.7307216398433
  0
ARC
  5
B21
  8
0
 10
20.32901556808827
 20
133.8691232122388
 30
0.0
 40
2.3130067012440758
 50
301.89419526181689
 51
306.13012809131078
  0
ARC
  5
B22
  8
0
 10
20.327504752426961
 20
137.54627345699069
 30
0.0
 40
5.7721322915265842
 50
257.80849952721559
 51
282.23857938057711
  0
ARC
  5
B23
  8
0
 10
25.49050958181499
 20
128.71186809662609
 30
0.0
 40
2.3130067012440878
 50
143.916945629547
 51
148.15287845904109
  0
ARC
  5
B24
  8
0
 10
29.10498653424748
 20
134.4769436680545
 30
0.0
 40
4.8740680913176151
 50
226.316365633841
 51
245.2232710506164
  0
ARC
  5
B25
  8
0
 10
30.665407656529059
 20
128.7139935453917
 30
0.0
 40
3.8433185402845691
 50
159.6337560729865
 51
200.41330720598921
  0
ARC
  5
B26
  8
0
 10
29.109718244084089
 20
122.9497698559222
 30
0.0
 40
4.8740613609818091
 50
114.823795718081
 51
133.73072163984321
  0
POLYLINE
  5
B27
  8
0
 66
     1
 10
0.0
 20
0.0
 30
0.0
 70
   128
  0
VERTEX
  5
10E6
  8
0
 10
23.622340520191809
 20
127.3480704095423
 30
0.0
  0
VERTEX
  5
10E7
  8
0
 10
23.870539150480059
 20
127.24538266604991
 30
0.0
  0
VERTEX
  5
10E8
  8
0
 10
24.131141600478319
 20
127.13756286951011
 30
0.0
  0
VERTEX
  5
10E9
  8
0
 10
24.400411636847881
 20
127.026157131812
 30
0.0
  0
VERTEX
  5
10EA
  8
0
 10
24.674489160347608
 20
126.9127625547558
 30
0.0
  0
VERTEX
  5
10EB
  8
0
 10
24.949443524051329
 20
126.7990048783109
 30
0.0
  0
VERTEX
  5
10EC
  8
0
 10
25.221333370823292
 20
126.68651531396659
 30
0.0
  0
VERTEX
  5
10ED
  8
0
 10
25.486260184366131
 20
126.57690633034559
 30
0.0
  0
VERTEX
  5
10EE
  8
0
 10
25.740426031220579
 20
126.4717499999538
 30
0.0
  0
SEQEND
  5
10EF
  8
0
  0
ARC
  5
B28
  8
0
 10
25.49050958181499
 20
128.71186809662609
 30
0.0
 40
2.3130067012440789
 50
211.89419526181831
 51
216.1301280913107
  0
ARC
  5
B29
  8
0
 10
29.167659826566879
 20
128.7133789122874
 30
0.0
 40
5.772132291526554
 50
167.808499527214
 51
192.23857938057861
  0
ARC
  5
B2A
  8
0
 10
16.681407598985341
 20
132.35647871212791
 30
0.0
 40
2.3130067012440909
 50
278.91694562954928
 51
283.15287845904118
  0
POLYLINE
  5
B2B
  8
0
 66
     1
 10
0.0
 20
0.0
 30
0.0
 70
   128
  0
VERTEX
  5
10F0
  8
0
 10
14.921844003070021
 20
130.9477472951844
 30
0.0
  0
VERTEX
  5
10F1
  8
0
 10
15.176009849924471
 20
130.84259096479269
 30
0.0
  0
VERTEX
  5
10F2
  8
0
 10
15.44093666346731
 20
130.73298198117169
 30
0.0
  0
VERTEX
  5
10F3
  8
0
 10
15.712826510239269
 20
130.6204924168274
 30
0.0
  0
VERTEX
  5
10F4
  8
0
 10
15.98778087394299
 20
130.5067347403824
 30
0.0
  0
VERTEX
  5
10F5
  8
0
 10
16.261858397442719
 20
130.39334016332629
 30
0.0
  0
VERTEX
  5
10F6
  8
0
 10
16.531128433812281
 20
130.28193442562821
 30
0.0
  0
VERTEX
  5
10F7
  8
0
 10
16.791730883810541
 20
130.17411462908831
 30
0.0
  0
VERTEX
  5
10F8
  8
0
 10
17.039929514098791
 20
130.07142688559591
 30
0.0
  0
SEQEND
  5
10F9
  8
0
  0
ARC
  5
B2C
  8
0
 10
10.049072256175769
 20
130.83577858612171
 30
0.0
 40
4.8740580104405771
 50
1.3163361716434849
 51
20.223277655113989
  0
ARC
  5
B2D
  8
0
 10
13.02069871656675
 20
136.0141812728514
 30
0.0
 40
3.843318966996367
 50
294.63376365687668
 51
335.41330846577767
  0
ARC
  5
B2E
  8
0
 10
18.196660355719018
 20
138.99007006315099
 30
0.0
 40
4.8740671252423722
 50
249.82380779387219
 51
268.73071270599098
  0
ARC
  5
B2F
  8
0
 10
16.681407598985341
 20
132.35647871212791
 30
0.0
 40
2.3130067012440718
 50
346.89419526181678
 51
351.1301280913097
  0
ARC
  5
B30
  8
0
 10
14.080200426954381
 20
134.95554968239409
 30
0.0
 40
5.7721339272451502
 50
302.80849883639729
 51
327.23857419295172
  0
POLYLINE
  5
B31
  8
0
 66
     1
 10
0.0
 20
0.0
 30
0.0
 70
   128
  0
VERTEX
  5
10FA
  8
0
 10
16.515554624888921
 20
134.41509313827601
 30
0.0
  0
VERTEX
  5
10FB
  8
0
 10
16.415277959126851
 20
134.56503421014401
 30
0.0
  0
VERTEX
  5
10FC
  8
0
 10
16.310968433786059
 20
134.72100606134379
 30
0.0
  0
VERTEX
  5
10FD
  8
0
 10
16.204777171183249
 20
134.87979097238031
 30
0.0
  0
VERTEX
  5
10FE
  8
0
 10
16.098895107675219
 20
135.03811394741979
 30
0.0
  0
VERTEX
  5
10FF
  8
0
 10
15.995506194699431
 20
135.19270883819311
 30
0.0
  0
VERTEX
  5
1100
  8
0
 10
15.89674362661304
 20
135.34038633054351
 30
0.0
  0
VERTEX
  5
1101
  8
0
 10
15.80464374022546
 20
135.47810053399061
 30
0.0
  0
VERTEX
  5
1102
  8
0
 10
15.72110783057275
 20
135.60301044902059
 30
0.0
  0
SEQEND
  5
1103
  8
0
  0
ARC
  5
B32
  8
0
 10
17.44260114218298
 20
135.67519173784129
 30
0.0
 40
1.7230060940112819
 50
176.41686260395019
 51
182.40097536241771
  0
ARC
  5
B33
  8
0
 10
17.44260114218298
 20
135.67519173784129
 30
0.0
 40
1.7230060940112879
 50
42.646098358440859
 51
48.630211116909173
  0
POLYLINE
  5
B34
  8
0
 66
     1
 10
0.0
 20
0.0
 30
0.0
 70
   128
  0
VERTEX
  5
1104
  8
0
 10
18.989339235517999
 20
135.44095938971489
 30
0.0
  0
VERTEX
  5
1105
  8
0
 10
18.95407575396808
 20
135.61786085313409
 30
0.0
  0
VERTEX
  5
1106
  8
0
 10
18.917393984552351
 20
135.80187715536209
 30
0.0
  0
VERTEX
  5
1107
  8
0
 10
18.880050510447351
 20
135.98921315690731
 30
0.0
  0
VERTEX
  5
1108
  8
0
 10
18.84281576825293
 20
136.17600386908501
 30
0.0
  0
VERTEX
  5
1109
  8
0
 10
18.806457866262519
 20
136.35839594474291
 30
0.0
  0
VERTEX
  5
110A
  8
0
 10
18.77172663556399
 20
136.5326273063406
 30
0.0
  0
VERTEX
  5
110B
  8
0
 10
18.739338728878518
 20
136.6951039800629
 30
0.0
  0
VERTEX
  5
110C
  8
0
 10
18.709962137322751
 20
136.8424736703023
 30
0.0
  0
SEQEND
  5
110D
  8
0
  0
POLYLINE
  5
B35
  8
0
 66
     1
 10
0.0
 20
0.0
 30
0.0
 70
   128
  0
VERTEX
  5
110E
  8
0
 10
14.622657557297369
 20
132.52064029632359
 30
0.0
  0
VERTEX
  5
110F
  8
0
 10
14.47263406338158
 20
132.62079356184449
 30
0.0
  0
VERTEX
  5
1110
  8
0
 10
14.31657699616613
 20
132.72497503033131
 30
0.0
  0
VERTEX
  5
1111
  8
0
 10
14.157704540807631
 20
132.8310359077737
 30
0.0
  0
VERTEX
  5
1112
  8
0
 10
13.99929448710742
 20
132.93678758612131
 30
0.0
  0
VERTEX
  5
1113
  8
0
 10
13.84461484597983
 20
133.04004937356561
 30
0.0
  0
VERTEX
  5
1114
  8
0
 10
13.696856328565501
 20
133.13869086971729
 30
0.0
  0
VERTEX
  5
1115
  8
0
 10
13.559066222328569
 20
133.23067760041209
 30
0.0
  0
VERTEX
  5
1116
  8
0
 10
13.434087855089331
 20
133.3141110645816
 30
0.0
  0
SEQEND
  5
1117
  8
0
  0
ARC
  5
B36
  8
0
 10
14.996918021373061
 20
134.0395848957703
 30
0.0
 40
1.7230060940112819
 50
198.91686260395039
 51
204.90097536241791
  0
ARC
  5
B37
  8
0
 10
14.996918021373061
 20
134.0395848957703
 30
0.0
 40
1.7230060940112719
 50
65.146098358441193
 51
71.130211116908981
  0
POLYLINE
  5
B38
  8
0
 66
     1
 10
0.0
 20
0.0
 30
0.0
 70
   128
  0
VERTEX
  5
1118
  8
0
 10
13.59992427499952
 20
127.3679528659418
 30
0.0
  0
VERTEX
  5
1119
  8
0
 10
13.423022811580321
 20
127.3326893843919
 30
0.0
  0
VERTEX
  5
111A
  8
0
 10
13.23900650935235
 20
127.2960076149762
 30
0.0
  0
VERTEX
  5
111B
  8
0
 10
13.05167050780716
 20
127.2586641408712
 30
0.0
  0
VERTEX
  5
111C
  8
0
 10
12.864879795629401
 20
127.2214293986767
 30
0.0
  0
VERTEX
  5
111D
  8
0
 10
12.68248771997156
 20
127.18507149668631
 30
0.0
  0
VERTEX
  5
111E
  8
0
 10
12.50825635837378
 20
127.15034026598779
 30
0.0
  0
VERTEX
  5
111F
  8
0
 10
12.34577968465152
 20
127.11795235930229
 30
0.0
  0
VERTEX
  5
1120
  8
0
 10
12.19840999441209
 20
127.0885757677466
 30
0.0
  0
SEQEND
  5
1121
  8
0
  0
ARC
  5
B39
  8
0
 10
12.790510653397231
 20
128.70665099125509
 30
0.0
 40
1.7230060940112719
 50
243.916862603949
 51
249.90097536241791
  0
ARC
  5
B3A
  8
0
 10
12.790510653397231
 20
128.70665099125509
 30
0.0
 40
1.7230060940112739
 50
110.14609835844399
 51
116.13021111690981
  0
POLYLINE
  5
B3B
  8
0
 66
     1
 10
0.0
 20
0.0
 30
0.0
 70
   128
  0
VERTEX
  5
1122
  8
0
 10
12.19708099709811
 20
130.32423917150351
 30
0.0
  0
VERTEX
  5
1123
  8
0
 10
12.34447490172448
 20
130.2949836518824
 30
0.0
  0
VERTEX
  5
1124
  8
0
 10
12.50697765247884
 20
130.2627292735711
 30
0.0
  0
VERTEX
  5
1125
  8
0
 10
12.68123741941514
 20
130.22814123371839
 30
0.0
  0
VERTEX
  5
1126
  8
0
 10
12.863659297395371
 20
130.1919331582472
 30
0.0
  0
VERTEX
  5
1127
  8
0
 10
13.05048074321809
 20
130.15485185144689
 30
0.0
  0
VERTEX
  5
1128
  8
0
 10
13.237847012746951
 20
130.1176623948127
 30
0.0
  0
VERTEX
  5
1129
  8
0
 10
13.42189404861989
 20
130.08113184889999
 30
0.0
  0
VERTEX
  5
112A
  8
0
 10
13.598824383038901
 20
130.04601377008709
 30
0.0
  0
SEQEND
  5
112B
  8
0
  0
ARC
  5
B3C
  8
0
 10
9.996862377761488
 20
128.70550374974661
 30
0.0
 40
3.8433185402845962
 50
339.6337560729861
 51
20.41330720598917
  0
POLYLINE
  5
B3D
  8
0
 66
     1
 10
0.0
 20
0.0
 30
0.0
 70
   128
  0
VERTEX
  5
112C
  8
0
 10
27.063445651251701
 20
127.3734835250512
 30
0.0
  0
VERTEX
  5
112D
  8
0
 10
27.24037598567071
 20
127.3383654462382
 30
0.0
  0
VERTEX
  5
112E
  8
0
 10
27.42442302154365
 20
127.3018349003255
 30
0.0
  0
VERTEX
  5
112F
  8
0
 10
27.611789291072508
 20
127.26464544369129
 30
0.0
  0
VERTEX
  5
1130
  8
0
 10
27.798610736895231
 20
127.2275641368911
 30
0.0
  0
VERTEX
  5
1131
  8
0
 10
27.98103261487546
 20
127.1913560614198
 30
0.0
  0
VERTEX
  5
1132
  8
0
 10
28.155292381811758
 20
127.1567680215672
 30
0.0
  0
VERTEX
  5
1133
  8
0
 10
28.317795132566118
 20
127.1245136432558
 30
0.0
  0
VERTEX
  5
1134
  8
0
 10
28.465189037192491
 20
127.09525812363481
 30
0.0
  0
SEQEND
  5
1135
  8
0
  0
ARC
  5
B3E
  8
0
 10
27.2989489509186
 20
125.8269384951415
 30
0.0
 40
1.7230060940112799
 50
41.416862603948303
 51
47.400975362417931
  0
ARC
  5
B3F
  8
0
 10
27.2989489509186
 20
125.8269384951415
 30
0.0
 40
1.7230060940112759
 50
267.64609835844158
 51
273.63021111690892
  0
POLYLINE
  5
B40
  8
0
 66
     1
 10
0.0
 20
0.0
 30
0.0
 70
   128
  0
VERTEX
  5
1136
  8
0
 10
26.039612476993231
 20
124.89885699881459
 30
0.0
  0
VERTEX
  5
1137
  8
0
 10
26.18963597090902
 20
124.79870373329371
 30
0.0
  0
VERTEX
  5
1138
  8
0
 10
26.34569303812447
 20
124.69452226480691
 30
0.0
  0
VERTEX
  5
1139
  8
0
 10
26.504565493482971
 20
124.5884613873646
 30
0.0
  0
VERTEX
  5
113A
  8
0
 10
26.66297554718318
 20
124.482709709017
 30
0.0
  0
VERTEX
  5
113B
  8
0
 10
26.81765518831077
 20
124.37944792157261
 30
0.0
  0
VERTEX
  5
113C
  8
0
 10
26.965413705725101
 20
124.28080642542091
 30
0.0
  0
VERTEX
  5
113D
  8
0
 10
27.103203811962029
 20
124.18881969472621
 30
0.0
  0
VERTEX
  5
113E
  8
0
 10
27.228182179201269
 20
124.1053862305567
 30
0.0
  0
SEQEND
  5
113F
  8
0
  0
ARC
  5
B41
  8
0
 10
30.613197778114799
 20
126.58371870901649
 30
0.0
 40
4.8740580104405344
 50
181.31633617164351
 51
200.22327765511551
  0
ARC
  5
B42
  8
0
 10
15.171760452475549
 20
128.70762919851211
 30
0.0
 40
2.3130067012440771
 50
323.91694562954712
 51
328.15287845904032
  0
POLYLINE
  5
B43
  8
0
 66
     1
 10
0.0
 20
0.0
 30
0.0
 70
   128
  0
VERTEX
  5
1140
  8
0
 10
17.041049429494759
 20
127.3453668965235
 30
0.0
  0
VERTEX
  5
1141
  8
0
 10
16.792935316730158
 20
127.24247519338731
 30
0.0
  0
VERTEX
  5
1142
  8
0
 10
16.532421342376491
 20
127.1344414254859
 30
0.0
  0
VERTEX
  5
1143
  8
0
 10
16.263242808449888
 20
127.022814382261
 30
0.0
  0
VERTEX
  5
1144
  8
0
 10
15.98925888286891
 20
126.90919465797251
 30
0.0
  0
VERTEX
  5
1145
  8
0
 10
15.71439765142264
 20
126.7952111358032
 30
0.0
  0
VERTEX
  5
1146
  8
0
 10
15.442600471246861
 20
126.68249828687161
 30
0.0
  0
VERTEX
  5
1147
  8
0
 10
15.17776353033247
 20
126.5726718394294
 30
0.0
  0
VERTEX
  5
1148
  8
0
 10
14.92368476213875
 20
126.46730642711969
 30
0.0
  0
SEQEND
  5
1149
  8
0
  0
ARC
  5
B44
  8
0
 10
11.55728350004307
 20
122.9425536270837
 30
0.0
 40
4.8740680913176488
 50
46.316365633838743
 51
65.223271050614272
  0
ARC
  5
B45
  8
0
 10
11.552551790206509
 20
134.46972743921609
 30
0.0
 40
4.8740613609818206
 50
294.82379571808042
 51
313.73072163984318
  0
ARC
  5
B46
  8
0
 10
15.171760452475549
 20
128.70762919851211
 30
0.0
 40
2.3130067012440931
 50
31.8941952618169
 51
36.130128091308471
  0
ARC
  5
B47
  8
0
 10
11.49461020772369
 20
128.7061183828508
 30
0.0
 40
5.7721322915265949
 50
347.80849952721411
 51
12.238579380577081
  0
ARC
  5
B48
  8
0
 10
16.684404952586529
 20
125.0600212294092
 30
0.0
 40
2.3130067012440798
 50
8.9169456295477154
 51
13.15287845904122
  0
POLYLINE
  5
B49
  8
0
 66
     1
 10
0.0
 20
0.0
 30
0.0
 70
   128
  0
VERTEX
  5
114A
  8
0
 10
18.969456779118499
 20
125.4185431445226
 30
0.0
  0
VERTEX
  5
114B
  8
0
 10
18.866769035626081
 20
125.1703445142344
 30
0.0
  0
VERTEX
  5
114C
  8
0
 10
18.758949239086231
 20
124.9097420642361
 30
0.0
  0
VERTEX
  5
114D
  8
0
 10
18.64754350138816
 20
124.64047202786649
 30
0.0
  0
VERTEX
  5
114E
  8
0
 10
18.534148924331991
 20
124.3663945043668
 30
0.0
  0
VERTEX
  5
114F
  8
0
 10
18.420391247887039
 20
124.0914401406631
 30
0.0
  0
VERTEX
  5
1150
  8
0
 10
18.307901683542749
 20
123.8195502938911
 30
0.0
  0
VERTEX
  5
1151
  8
0
 10
18.198292699921751
 20
123.5546234803483
 30
0.0
  0
VERTEX
  5
1152
  8
0
 10
18.09313636952999
 20
123.30045763349381
 30
0.0
  0
SEQEND
  5
1153
  8
0
  0
ARC
  5
B4A
  8
0
 10
18.20510507859268
 20
118.4276858865996
 30
0.0
 40
4.874058010440562
 50
91.316336171643471
 51
110.223277655114
  0
ARC
  5
B4B
  8
0
 10
13.026702391862949
 20
121.3993123469906
 30
0.0
 40
3.8433189669963741
 50
24.633763656876749
 51
65.41330846577776
  0
ARC
  5
B4C
  8
0
 10
10.050813601563391
 20
126.5752739861428
 30
0.0
 40
4.8740671252423589
 50
339.82380779387017
 51
358.73071270598939
  0
ARC
  5
B4D
  8
0
 10
16.684404952586529
 20
125.0600212294092
 30
0.0
 40
2.313006701244074
 50
76.89419526181679
 51
81.130128091309686
  0
ARC
  5
B4E
  8
0
 10
14.08533398232032
 20
122.45881405737821
 30
0.0
 40
5.7721339272451608
 50
32.808498836397327
 51
57.238574192951717
  0
ARC
  5
B4F
  8
0
 10
13.36332108337194
 20
131.5925587999966
 30
0.0
 40
1.723006094011279
 50
221.41686260395059
 51
227.40097536241441
  0
ARC
  5
B50
  8
0
 10
13.36332108337194
 20
131.5925587999966
 30
0.0
 40
1.7230060940112759
 50
87.646098358441606
 51
93.630211116910502
  0
ARC
  5
B51
  8
0
 10
25.665352012917481
 20
123.3799123993678
 30
0.0
 40
1.7230060940112779
 50
18.916862603948939
 51
24.90097536241721
  0
ARC
  5
B52
  8
0
 10
25.665352012917481
 20
123.3799123993678
 30
0.0
 40
1.723006094011281
 50
245.14609835844121
 51
251.13021111690901
  0
POLYLINE
  5
B53
  8
0
 66
     1
 10
0.0
 20
0.0
 30
0.0
 70
   128
  0
VERTEX
  5
1154
  8
0
 10
24.146715409401679
 20
123.00440415686219
 30
0.0
  0
VERTEX
  5
1155
  8
0
 10
24.24699207516375
 20
122.85446308499429
 30
0.0
  0
VERTEX
  5
1156
  8
0
 10
24.351301600504542
 20
122.6984912337944
 30
0.0
  0
VERTEX
  5
1157
  8
0
 10
24.457492863107351
 20
122.53970632275789
 30
0.0
  0
VERTEX
  5
1158
  8
0
 10
24.563374926615381
 20
122.3813833477184
 30
0.0
  0
VERTEX
  5
1159
  8
0
 10
24.666763839591169
 20
122.2267884569451
 30
0.0
  0
VERTEX
  5
115A
  8
0
 10
24.765526407677559
 20
122.0791109645948
 30
0.0
  0
VERTEX
  5
115B
  8
0
 10
24.857626294065138
 20
121.9413967611477
 30
0.0
  0
VERTEX
  5
115C
  8
0
 10
24.941162203717852
 20
121.8164868461177
 30
0.0
  0
SEQEND
  5
115D
  8
0
  0
ARC
  5
B54
  8
0
 10
27.641571317723791
 20
121.4053160222868
 30
0.0
 40
3.843318966996355
 50
114.6337636568782
 51
155.4133084657777
  0
ARC
  5
B55
  8
0
 10
23.980862435305198
 20
125.0630185830104
 30
0.0
 40
2.3130067012440909
 50
98.916945629547712
 51
103.1528784590412
  0
ARC
  5
B56
  8
0
 10
22.46560967857155
 20
118.42942723198721
 30
0.0
 40
4.8740671252423784
 50
69.823807793870145
 51
88.730712705989404
  0
POLYLINE
  5
B57
  8
0
 66
     1
 10
0.0
 20
0.0
 30
0.0
 70
   128
  0
VERTEX
  5
115E
  8
0
 10
21.695516768190888
 20
125.41966305991861
 30
0.0
  0
VERTEX
  5
115F
  8
0
 10
21.79840847132715
 20
125.17154894715399
 30
0.0
  0
VERTEX
  5
1160
  8
0
 10
21.906442239228511
 20
124.91103497280029
 30
0.0
  0
VERTEX
  5
1161
  8
0
 10
22.018069282453379
 20
124.6418564388737
 30
0.0
  0
VERTEX
  5
1162
  8
0
 10
22.131689006741968
 20
124.3678725132927
 30
0.0
  0
VERTEX
  5
1163
  8
0
 10
22.24567252891126
 20
124.0930112818465
 30
0.0
  0
VERTEX
  5
1164
  8
0
 10
22.358385377842811
 20
123.82121410167071
 30
0.0
  0
VERTEX
  5
1165
  8
0
 10
22.468211825284978
 20
123.5563771607563
 30
0.0
  0
VERTEX
  5
1166
  8
0
 10
22.573577237594751
 20
123.30229839256261
 30
0.0
  0
SEQEND
  5
1167
  8
0
  0
ARC
  5
B58
  8
0
 10
23.980862435305198
 20
125.0630185830104
 30
0.0
 40
2.3130067012440891
 50
166.89419526181831
 51
171.13012809131129
  0
ARC
  5
B59
  8
0
 10
26.582069607336219
 20
122.46394761274409
 30
0.0
 40
5.7721339272451342
 50
122.8084988363987
 51
147.23857419295169
  0
POLYLINE
  5
B5A
  8
0
 66
     1
 10
0.0
 20
0.0
 30
0.0
 70
   128
  0
VERTEX
  5
1168
  8
0
 10
27.06234575929108
 20
130.05154442919641
 30
0.0
  0
VERTEX
  5
1169
  8
0
 10
27.239247222710279
 20
130.0868079107463
 30
0.0
  0
VERTEX
  5
116A
  8
0
 10
27.42326352493825
 20
130.12348968016209
 30
0.0
  0
VERTEX
  5
116B
  8
0
 10
27.610599526483441
 20
130.1608331542671
 30
0.0
  0
VERTEX
  5
116C
  8
0
 10
27.79739023866119
 20
130.19806789646151
 30
0.0
  0
VERTEX
  5
116D
  8
0
 10
27.979782314319039
 20
130.23442579845189
 30
0.0
  0
VERTEX
  5
116E
  8
0
 10
28.154013675916818
 20
130.26915702915039
 30
0.0
  0
VERTEX
  5
116F
  8
0
 10
28.316490349639079
 20
130.30154493583589
 30
0.0
  0
VERTEX
  5
1170
  8
0
 10
28.463860039878512
 20
130.33092152739169
 30
0.0
  0
SEQEND
  5
1171
  8
0
  0
ARC
  5
B5B
  8
0
 10
27.871759380893309
 20
128.7128463038832
 30
0.0
 40
1.7230060940112719
 50
63.916862603949021
 51
69.900975362416361
  0
ARC
  5
B5C
  8
0
 10
27.871759380893309
 20
128.7128463038832
 30
0.0
 40
1.7230060940112839
 50
290.14609835844101
 51
296.13021111690841
  0
POLYLINE
  5
B5D
  8
0
 66
     1
 10
0.0
 20
0.0
 30
0.0
 70
   128
  0
VERTEX
  5
1172
  8
0
 10
26.036479507852221
 20
132.52532903982549
 30
0.0
  0
VERTEX
  5
1173
  8
0
 10
26.18642057972016
 20
132.62560570558759
 30
0.0
  0
VERTEX
  5
1174
  8
0
 10
26.342392430920029
 20
132.72991523092841
 30
0.0
  0
VERTEX
  5
1175
  8
0
 10
26.50117734195652
 20
132.83610649353119
 30
0.0
  0
VERTEX
  5
1176
  8
0
 10
26.659500316995999
 20
132.9419885570392
 30
0.0
  0
VERTEX
  5
1177
  8
0
 10
26.814095207769299
 20
133.04537747001501
 30
0.0
  0
VERTEX
  5
1178
  8
0
 10
26.961772700119639
 20
133.1441400381014
 30
0.0
  0
VERTEX
  5
1179
  8
0
 10
27.099486903566739
 20
133.23623992448901
 30
0.0
  0
VERTEX
  5
117A
  8
0
 10
27.224396818596741
 20
133.31977583414169
 30
0.0
  0
SEQEND
  5
117B
  8
0
  0
ARC
  5
B5E
  8
0
 10
27.296578107417471
 20
131.59828252253141
 30
0.0
 40
1.723006094011283
 50
86.416862603948474
 51
92.400975362417725
  0
ARC
  5
B5F
  8
0
 10
27.296578107417471
 20
131.59828252253141
 30
0.0
 40
1.7230060940112779
 50
312.64609835844078
 51
318.63021111690921
  0
POLYLINE
  5
B60
  8
0
 66
     1
 10
0.0
 20
0.0
 30
0.0
 70
   128
  0
VERTEX
  5
117C
  8
0
 10
24.142026665899781
 20
134.41822610741701
 30
0.0
  0
VERTEX
  5
117D
  8
0
 10
24.242179931420711
 20
134.56824960133281
 30
0.0
  0
VERTEX
  5
117E
  8
0
 10
24.34636139990749
 20
134.72430666854831
 30
0.0
  0
VERTEX
  5
117F
  8
0
 10
24.45242227734985
 20
134.88317912390681
 30
0.0
  0
VERTEX
  5
1180
  8
0
 10
24.558173955697441
 20
135.04158917760699
 30
0.0
  0
VERTEX
  5
1181
  8
0
 10
24.661435743141791
 20
135.19626881873461
 30
0.0
  0
VERTEX
  5
1182
  8
0
 10
24.76007723929348
 20
135.34402733614891
 30
0.0
  0
VERTEX
  5
1183
  8
0
 10
24.852063969988251
 20
135.48181744238579
 30
0.0
  0
VERTEX
  5
1184
  8
0
 10
24.93549743415775
 20
135.60679580962511
 30
0.0
  0
SEQEND
  5
1185
  8
0
  0
ARC
  5
B61
  8
0
 10
25.660971265346522
 20
134.04396564334141
 30
0.0
 40
1.723006094011275
 50
108.9168626039489
 51
114.9009753624179
  0
ARC
  5
B62
  8
0
 10
25.660971265346522
 20
134.04396564334141
 30
0.0
 40
1.7230060940112899
 50
335.1460983584397
 51
341.13021111690898
  0
POLYLINE
  5
B63
  8
0
 66
     1
 10
0.0
 20
0.0
 30
0.0
 70
   128
  0
VERTEX
  5
1186
  8
0
 10
21.66740013966324
 20
135.44205928167551
 30
0.0
  0
VERTEX
  5
1187
  8
0
 10
21.7025182184762
 20
135.6189896160945
 30
0.0
  0
VERTEX
  5
1188
  8
0
 10
21.73904876438888
 20
135.80303665196749
 30
0.0
  0
VERTEX
  5
1189
  8
0
 10
21.77623822102311
 20
135.9904029214963
 30
0.0
  0
VERTEX
  5
118A
  8
0
 10
21.813319527823349
 20
136.17722436731901
 30
0.0
  0
VERTEX
  5
118B
  8
0
 10
21.849527603294579
 20
136.3596462452993
 30
0.0
  0
VERTEX
  5
118C
  8
0
 10
21.884115643147251
 20
136.5339060122356
 30
0.0
  0
VERTEX
  5
118D
  8
0
 10
21.91637002145859
 20
136.6964087629899
 30
0.0
  0
VERTEX
  5
118E
  8
0
 10
21.945625541079661
 20
136.8438026676163
 30
0.0
  0
SEQEND
  5
118F
  8
0
  0
ARC
  5
B64
  8
0
 10
23.213945169572838
 20
135.67756258134241
 30
0.0
 40
1.723006094011279
 50
131.41686260395059
 51
137.40097536241791
  0
ARC
  5
B65
  8
0
 10
23.213945169572838
 20
135.67756258134241
 30
0.0
 40
1.7230060940112759
 50
357.64609835843999
 51
3.6302111169088902
  0
ARC
  5
B66
  8
0
 10
20.328037360831161
 20
136.25037301131709
 30
0.0
 40
1.723006094011277
 50
153.916862603949
 51
159.9009753624178
  0
ARC
  5
B67
  8
0
 10
20.328037360831161
 20
136.25037301131709
 30
0.0
 40
1.723006094011289
 50
20.146098358440991
 51
26.130211116909859
  0
ARC
  5
B68
  8
0
 10
20.33325446620228
 20
123.5503740828994
 30
0.0
 40
2.313006701244078
 50
53.916945629547037
 51
58.152878459041197
  0
ARC
  5
B69
  8
0
 10
26.098330037630721
 20
119.9358971304669
 30
0.0
 40
4.8740680913176186
 50
136.3163656338387
 51
155.2232710506164
  0
ARC
  5
B6A
  8
0
 10
20.335379914967831
 20
118.3754760081853
 30
0.0
 40
3.8433185402846011
 50
69.633756072986003
 51
110.4133072059891
  0
ARC
  5
B6B
  8
0
 10
14.57115622549833
 20
119.93116542063029
 30
0.0
 40
4.8740613609818144
 50
24.823795718080319
 51
43.730721639843239
  0
ARC
  5
B6C
  8
0
 10
20.33325446620228
 20
123.5503740828994
 30
0.0
 40
2.3130067012440811
 50
121.8941952618182
 51
126.1301280913107
  0
ARC
  5
B6D
  8
0
 10
20.334765281863611
 20
119.8732238381475
 30
0.0
 40
5.7721322915265816
 50
77.808499527214067
 51
102.2385793805786
  0
ARC
  5
B6E
  8
0
 10
20.3311350171453
 20
128.70974864756911
 30
0.0
 40
3.4205262752974108
 50
245.9422561098902
 51
249.10481761096969
  0
ARC
  5
B6F
  8
0
 10
20.3311350171453
 20
128.70974864756911
 30
0.0
 40
3.4205262752974259
 50
200.94225610988889
 51
204.10481761096841
  0
ARC
  5
B70
  8
0
 10
20.3311350171453
 20
128.70974864756911
 30
0.0
 40
3.4205262752974162
 50
155.94225610989011
 51
159.1048176109681
  0
ARC
  5
B71
  8
0
 10
20.3311350171453
 20
128.70974864756911
 30
0.0
 40
3.4205262752974179
 50
110.94225610989039
 51
114.1048176109698
  0
ARC
  5
B72
  8
0
 10
20.3311350171453
 20
128.70974864756911
 30
0.0
 40
3.4205262752974139
 50
65.942256109890167
 51
69.104817610968126
  0
ARC
  5
B73
  8
0
 10
20.3311350171453
 20
128.70974864756911
 30
0.0
 40
3.4205262752974099
 50
20.94225610988893
 51
24.10481761096835
  0
ARC
  5
B74
  8
0
 10
20.3311350171453
 20
128.70974864756911
 30
0.0
 40
3.4205262752974188
 50
335.9422561098902
 51
339.10481761096821
  0
ARC
  5
B75
  8
0
 10
20.3311350171453
 20
128.70974864756911
 30
0.0
 40
3.4205262752974139
 50
290.94225610988889
 51
294.10481761096833
  0
POLYLINE
  5
B76
  8
0
 66
     1
 10
0.0
 20
0.0
 30
0.0
 70
   128
  0
VERTEX
  5
1190
  8
0
 10
14.625790526438379
 20
124.89416825531271
 30
0.0
  0
VERTEX
  5
1191
  8
0
 10
14.47584945457044
 20
124.7938915895507
 30
0.0
  0
VERTEX
  5
1192
  8
0
 10
14.319877603370569
 20
124.6895820642099
 30
0.0
  0
VERTEX
  5
1193
  8
0
 10
14.16109269233408
 20
124.58339080160709
 30
0.0
  0
VERTEX
  5
1194
  8
0
 10
14.0027697172946
 20
124.477508738099
 30
0.0
  0
VERTEX
  5
1195
  8
0
 10
13.8481748265213
 20
124.3741198251232
 30
0.0
  0
VERTEX
  5
1196
  8
0
 10
13.70049733417096
 20
124.2753572570369
 30
0.0
  0
VERTEX
  5
1197
  8
0
 10
13.56278313072386
 20
124.1832573706493
 30
0.0
  0
VERTEX
  5
1198
  8
0
 10
13.43787321569385
 20
124.09972146099661
 30
0.0
  0
SEQEND
  5
1199
  8
0
  0
ARC
  5
B77
  8
0
 10
13.365691926873071
 20
125.82121477260689
 30
0.0
 40
1.723006094011283
 50
266.41686260394857
 51
272.40097536241768
  0
ARC
  5
B78
  8
0
 10
13.365691926873071
 20
125.82121477260689
 30
0.0
 40
1.723006094011283
 50
132.6460983584409
 51
138.6302111169104
  0
POLYLINE
  5
B79
  8
0
 66
     1
 10
0.0
 20
0.0
 30
0.0
 70
   128
  0
VERTEX
  5
119A
  8
0
 10
16.520243368390819
 20
123.0012711877212
 30
0.0
  0
VERTEX
  5
119B
  8
0
 10
16.420090102869889
 20
122.8512476938054
 30
0.0
  0
VERTEX
  5
119C
  8
0
 10
16.315908634383099
 20
122.69519062659
 30
0.0
  0
VERTEX
  5
119D
  8
0
 10
16.209847756940739
 20
122.5363181712314
 30
0.0
  0
VERTEX
  5
119E
  8
0
 10
16.104096078593159
 20
122.37790811753121
 30
0.0
  0
VERTEX
  5
119F
  8
0
 10
16.000834291148799
 20
122.2232284764037
 30
0.0
  0
VERTEX
  5
11A0
  8
0
 10
15.90219279499712
 20
122.0754699589893
 30
0.0
  0
VERTEX
  5
11A1
  8
0
 10
15.810206064302349
 20
121.9376798527524
 30
0.0
  0
VERTEX
  5
11A2
  8
0
 10
15.72677260013285
 20
121.8127014855131
 30
0.0
  0
SEQEND
  5
11A3
  8
0
  0
ARC
  5
B7A
  8
0
 10
15.00129876894402
 20
123.3755316517969
 30
0.0
 40
1.7230060940112819
 50
288.91686260394891
 51
294.90097536241569
  0
ARC
  5
B7B
  8
0
 10
15.00129876894402
 20
123.3755316517969
 30
0.0
 40
1.7230060940112899
 50
155.14609835844121
 51
161.13021111691049
  0
POLYLINE
  5
B7C
  8
0
 66
     1
 10
0.0
 20
0.0
 30
0.0
 70
   128
  0
VERTEX
  5
11A4
  8
0
 10
21.672930798772601
 20
121.97853790542329
 30
0.0
  0
VERTEX
  5
11A5
  8
0
 10
21.70819428032252
 20
121.8016364420041
 30
0.0
  0
VERTEX
  5
11A6
  8
0
 10
21.744876049738249
 20
121.61762013977619
 30
0.0
  0
VERTEX
  5
11A7
  8
0
 10
21.782219523843249
 20
121.430284138231
 30
0.0
  0
VERTEX
  5
11A8
  8
0
 10
21.81945426603767
 20
121.24349342605321
 30
0.0
  0
VERTEX
  5
11A9
  8
0
 10
21.855812168028081
 20
121.0611013503954
 30
0.0
  0
VERTEX
  5
11AA
  8
0
 10
21.89054339872661
 20
120.8868699887976
 30
0.0
  0
VERTEX
  5
11AB
  8
0
 10
21.922931305412082
 20
120.7243933150753
 30
0.0
  0
VERTEX
  5
11AC
  8
0
 10
21.952307896967849
 20
120.5770236248359
 30
0.0
  0
SEQEND
  5
11AD
  8
0
  0
ARC
  5
B7D
  8
0
 10
20.334232673459319
 20
121.16912428382111
 30
0.0
 40
1.7230060940112899
 50
333.91686260394903
 51
339.90097536241637
  0
ARC
  5
B7E
  8
0
 10
20.334232673459319
 20
121.16912428382111
 30
0.0
 40
1.723006094011283
 50
200.14609835844101
 51
206.13021111690989
  0
POLYLINE
  5
B7F
  8
0
 66
     1
 10
0.0
 20
0.0
 30
0.0
 70
   128
  0
VERTEX
  5
11AE
  8
0
 10
18.99486989462736
 20
121.9774380134627
 30
0.0
  0
VERTEX
  5
11AF
  8
0
 10
18.9597518158144
 20
121.8005076790437
 30
0.0
  0
VERTEX
  5
11B0
  8
0
 10
18.92322126990172
 20
121.6164606431708
 30
0.0
  0
VERTEX
  5
11B1
  8
0
 10
18.88603181326749
 20
121.4290943736419
 30
0.0
  0
VERTEX
  5
11B2
  8
0
 10
18.848950506467251
 20
121.2422729278192
 30
0.0
  0
VERTEX
  5
11B3
  8
0
 10
18.812742430996021
 20
121.059851049839
 30
0.0
  0
VERTEX
  5
11B4
  8
0
 10
18.778154391143339
 20
120.88559128290269
 30
0.0
  0
VERTEX
  5
11B5
  8
0
 10
18.74590001283201
 20
120.7230885321483
 30
0.0
  0
VERTEX
  5
11B6
  8
0
 10
18.716644493210929
 20
120.5756946275219
 30
0.0
  0
SEQEND
  5
11B7
  8
0
  0
ARC
  5
B80
  8
0
 10
23.21966889210751
 20
121.7443055572969
 30
0.0
 40
1.7230060940112919
 50
356.41686260394852
 51
2.4009753624177419
  0
ARC
  5
B81
  8
0
 10
23.21966889210751
 20
121.7443055572969
 30
0.0
 40
1.7230060940112779
 50
222.6460983584409
 51
228.6302111169104
  0
ARC
  5
B82
  8
0
 10
17.448324864717669
 20
121.7419347137958
 30
0.0
 40
1.7230060940112799
 50
311.41686260394829
 51
317.40097536241802
  0
ARC
  5
B83
  8
0
 10
17.448324864717669
 20
121.7419347137958
 30
0.0
 40
1.7230060940112859
 50
177.64609835844161
 51
183.63021111690881
  0
CIRCLE
  5
B84
  8
0
 10
20.3311350171453
 20
128.70974864756911
 30
0.0
 40
11.499999999999989
  0
POLYLINE
  5
B85
  8
0
 66
     1
 10
0.0
 20
0.0
 30
0.0
 70
   128
  0
VERTEX
  5
11B8
  8
0
 10
13.40293381579934
 20
116.709748543261
 30
0.0
  0
VERTEX
  5
11B9
  8
0
 10
9.0722087745553495
 20
124.2107807466969
 30
0.0
  0
VERTEX
  5
11BA
  8
0
 10
8.2067791347390653
 20
125.7097486214921
 30
0.0
  0
VERTEX
  5
11BB
  8
0
 10
7.33942445116105
 20
127.2120509803504
 30
0.0
  0
VERTEX
  5
11BC
  8
0
 10
6.4747286935335628
 20
128.70974864756911
 30
0.0
  0
SEQEND
  5
11BD
  8
0
  0
POLYLINE
  5
B8A
  8
0
 66
     1
 10
0.0
 20
0.0
 30
0.0
 70
   128
  0
VERTEX
  5
11BE
  8
0
 10
6.4747298074987043
 20
128.70974671812399
 30
0.0
  0
VERTEX
  5
11BF
  8
0
 10
10.805451308656361
 20
136.21078085100501
 30
0.0
  0
VERTEX
  5
11C0
  8
0
 10
11.670880948472639
 20
137.70974826013889
 30
0.0
  0
VERTEX
  5
11C1
  8
0
 10
12.538235632050659
 20
139.2120507354125
 30
0.0
  0
VERTEX
  5
11C2
  8
0
 10
13.40293185533943
 20
140.70974875187721
 30
0.0
  0
SEQEND
  5
11C3
  8
0
  0
LINE
  5
B8B
  8
0
 10
27.259338178951172
 20
116.709748543261
 30
0.0
 11
13.40293185533943
 21
116.709748543261
 31
0.0
  0
LINE
  5
B90
  8
0
 10
13.40293185533943
 20
140.70974875187721
 30
0.0
 11
27.259338178951172
 21
140.70974875187721
 31
0.0
  0
POLYLINE
  5
B91
  8
0
 66
     1
 10
0.0
 20
0.0
 30
0.0
 70
   128
  0
VERTEX
  5
11C4
  8
0
 10
27.25933621849126
 20
140.70974875187721
 30
0.0
  0
VERTEX
  5
11C5
  8
0
 10
31.590061259735251
 20
133.20871654844129
 30
0.0
  0
VERTEX
  5
11C6
  8
0
 10
32.455490899551542
 20
131.70974867364609
 30
0.0
  0
VERTEX
  5
11C7
  8
0
 10
33.322845583129549
 20
130.20744631478789
 30
0.0
  0
VERTEX
  5
11C8
  8
0
 10
34.187541340757043
 20
128.70974864756911
 30
0.0
  0
SEQEND
  5
11C9
  8
0
  0
POLYLINE
  5
B96
  8
0
 66
     1
 10
0.0
 20
0.0
 30
0.0
 70
   128
  0
VERTEX
  5
11CA
  8
0
 10
34.187540226791903
 20
128.7097505770142
 30
0.0
  0
VERTEX
  5
11CB
  8
0
 10
29.856818725634241
 20
121.2087164441332
 30
0.0
  0
VERTEX
  5
11CC
  8
0
 10
28.991389085817961
 20
119.70974903499931
 30
0.0
  0
VERTEX
  5
11CD
  8
0
 10
28.124034402239939
 20
118.2074465597257
 30
0.0
  0
VERTEX
  5
11CE
  8
0
 10
27.259338178951172
 20
116.709748543261
 30
0.0
  0
SEQEND
  5
11CF
  8
0
  0
ARC
  5
B97
  8
0
 10
9.4661350171452625
 20
86.779908869063618
 30
0.0
 40
0.6349999999999959
 50
175.7339246997891
 51
180.0
  0
ARC
  5
B98
  8
0
 10
31.196135017145249
 20
86.779908869063661
 30
0.0
 40
0.6350000000000052
 50
359.99999999999682
 51
4.2726603436415136
  0
ARC
  5
B99
  8
0
 10
20.33520702950673
 20
86.827408869063703
 30
0.0
 40
1.587499999999977
 50
52.047021448088948
 51
127.9493625916685
  0
LINE
  5
B9A
  8
0
 10
8.8311349947935298
 20
86.779908810545166
 30
0.0
 11
8.8311349947935298
 21
85.398908772308786
 31
0.0
  0
LINE
  5
B9B
  8
0
 10
31.831135039497021
 20
85.398908772308786
 30
0.0
 11
31.831135039497021
 21
86.779908810545166
 31
0.0
  0
ARC
  5
B9C
  8
0
 10
18.40129613311629
 20
86.827408869063675
 30
0.0
 40
1.5875000000000159
 50
52.05063740833377
 51
129.75366854549341
  0
ARC
  5
B9D
  8
0
 10
22.268961440745731
 20
86.827408869063675
 30
0.0
 40
1.5875000000000099
 50
50.234451136640367
 51
127.952978551911
  0
ARC
  5
B9E
  8
0
 10
16.541547862772969
 20
86.827408869063675
 30
0.0
 40
1.587500000000023
 50
54.32183243994276
 51
133.9332039764513
  0
ARC
  5
B9F
  8
0
 10
24.128246269271362
 20
86.827408869063675
 30
0.0
 40
1.5875000000000219
 50
46.042544268776012
 51
126.0235182920118
  0
ARC
  5
BA0
  8
0
 10
14.82743130154722
 20
86.827408869063675
 30
0.0
 40
1.5875000000000059
 50
57.485744143682943
 51
142.324006488865
  0
ARC
  5
BA1
  8
0
 10
25.841610241822281
 20
86.827408869063675
 30
0.0
 40
1.587500000000015
 50
37.625920498178473
 51
122.820709079407
  0
ARC
  5
BA2
  8
0
 10
20.334232673459319
 20
86.43053386906368
 30
0.0
 40
1.9843749999999949
 50
59.010597476665033
 51
121.2458465232846
  0
ARC
  5
BA3
  8
0
 10
27.343209741798969
 20
86.827408869063675
 30
0.0
 40
1.5875000000000039
 50
21.027888876295801
 51
118.3643950686531
  0
ARC
  5
BA4
  8
0
 10
13.324818987599279
 20
86.827408869063675
 30
0.0
 40
1.587499999999991
 50
61.892265192558916
 51
159.0514420716213
  0
ARC
  5
BA5
  8
0
 10
17.448324864717669
 20
86.43053386906368
 30
0.0
 40
1.984374999999994
 50
75.426700032529993
 51
104.0892504306851
  0
ARC
  5
BA6
  8
0
 10
23.21966889210751
 20
86.43053386906368
 30
0.0
 40
1.9843749999999969
 50
76.119398809415998
 51
104.78998284184431
  0
ARC
  5
BA7
  8
0
 10
28.575339142524061
 20
86.827408869063675
 30
0.0
 40
1.587500000000009
 50
17.788753240600862
 51
112.94740707382751
  0
ARC
  5
BA8
  8
0
 10
12.091455469479509
 20
86.827408869063675
 30
0.0
 40
1.5875000000000019
 50
67.25396213765049
 51
161.90520075825739
  0
ARC
  5
BA9
  8
0
 10
15.001298768944
 20
86.43053386906368
 30
0.0
 40
1.9843749999999969
 50
65.868887054902487
 51
92.754320834278346
  0
ARC
  5
BAA
  8
0
 10
25.665352012917481
 20
86.43053386906368
 30
0.0
 40
1.984375000000002
 50
87.415854699027193
 51
114.33184049748471
  0
ARC
  5
BAB
  8
0
 10
20.33325446620228
 20
85.239908869063655
 30
0.0
 40
3.1750000000000069
 50
69.008324431584583
 51
111.1334115188743
  0
POLYLINE
  5
BAC
  8
0
 66
     1
 10
0.0
 20
0.0
 30
0.0
 70
   128
  0
VERTEX
  5
11D0
  8
0
 10
17.10809580730259
 20
88.386511963595126
 30
0.0
  0
VERTEX
  5
11D1
  8
0
 10
16.773578941169969
 20
88.413656291354854
 30
0.0
  0
VERTEX
  5
11D2
  8
0
 10
16.596310070995091
 20
88.413686559338544
 30
0.0
  0
SEQEND
  5
11D3
  8
0
  0
POLYLINE
  5
BAD
  8
0
 66
     1
 10
0.0
 20
0.0
 30
0.0
 70
   128
  0
VERTEX
  5
11D4
  8
0
 10
16.20010612281024
 20
88.377755203087304
 30
0.0
  0
VERTEX
  5
11D5
  8
0
 10
16.0268163283354
 20
88.346064624179576
 30
0.0
  0
VERTEX
  5
11D6
  8
0
 10
15.73905907319843
 20
88.270906426746805
 30
0.0
  0
SEQEND
  5
11D7
  8
0
  0
POLYLINE
  5
BAE
  8
0
 66
     1
 10
0.0
 20
0.0
 30
0.0
 70
   128
  0
VERTEX
  5
11D8
  8
0
 10
24.922048204857699
 20
88.272200965125535
 30
0.0
  0
VERTEX
  5
11D9
  8
0
 10
24.638578293192982
 20
88.346037615824898
 30
0.0
  0
VERTEX
  5
11DA
  8
0
 10
24.480280463863011
 20
88.375384521473606
 30
0.0
  0
SEQEND
  5
11DB
  8
0
  0
POLYLINE
  5
BAF
  8
0
 66
     1
 10
0.0
 20
0.0
 30
0.0
 70
   128
  0
VERTEX
  5
11DC
  8
0
 10
24.062793233711119
 20
88.413851403434236
 30
0.0
  0
VERTEX
  5
11DD
  8
0
 10
23.891540241706959
 20
88.413652100403269
 30
0.0
  0
VERTEX
  5
11DE
  8
0
 10
23.552292256895299
 20
88.385851190228436
 30
0.0
  0
SEQEND
  5
11DF
  8
0
  0
ARC
  5
BB0
  8
0
 10
29.490648402113749
 20
86.827408869063675
 30
0.0
 40
1.5874999999999919
 50
12.661936023754469
 51
106.84068143655669
  0
ARC
  5
BB1
  8
0
 10
11.17473821551101
 20
86.827408869063675
 30
0.0
 40
1.587499999999997
 50
73.303334265681684
 51
167.2225083445735
  0
ARC
  5
BB2
  8
0
 10
13.365691926873071
 20
86.430533869063638
 30
0.0
 40
1.984375000000012
 50
67.171628703552813
 51
90.034142521677794
  0
POLYLINE
  5
BB3
  8
0
 66
     1
 10
0.0
 20
0.0
 30
0.0
 70
   128
  0
VERTEX
  5
11E0
  8
0
 10
12.98239873470723
 20
88.377539136249979
 30
0.0
  0
VERTEX
  5
11E1
  8
0
 10
12.72539887325823
 20
88.308769346017797
 30
0.0
  0
VERTEX
  5
11E2
  8
0
 10
12.689446096587769
 20
88.296126642067406
 30
0.0
  0
SEQEND
  5
11E3
  8
0
  0
POLYLINE
  5
BB4
  8
0
 66
     1
 10
0.0
 20
0.0
 30
0.0
 70
   128
  0
VERTEX
  5
11E4
  8
0
 10
27.971534055936932
 20
88.297449585784634
 30
0.0
  0
VERTEX
  5
11E5
  8
0
 10
27.938611802924271
 20
88.308984015871246
 30
0.0
  0
VERTEX
  5
11E6
  8
0
 10
27.713299726415269
 20
88.371167027194474
 30
0.0
  0
SEQEND
  5
11E7
  8
0
  0
ARC
  5
BB5
  8
0
 10
27.298948950918572
 20
86.430533869063638
 30
0.0
 40
1.9843750000000231
 50
89.413168251140206
 51
112.98081519358929
  0
ARC
  5
BB6
  8
0
 10
20.331135017145272
 20
82.064908869063629
 30
0.0
 40
6.3500000000000254
 50
78.246858385125108
 51
101.8030412564607
  0
ARC
  5
BB7
  8
0
 10
10.609896155662851
 20
86.827408869063646
 30
0.0
 40
1.5875000000000159
 50
79.809508275075061
 51
174.3108669763065
  0
ARC
  5
BB8
  8
0
 10
30.053962699033381
 20
86.827408869063646
 30
0.0
 40
1.587500000000025
 50
5.6954872766630897
 51
100.27677773034711
  0
ARC
  5
BB9
  8
0
 10
15.171760452475549
 20
85.23990886906364
 30
0.0
 40
3.1750000000000211
 50
76.246825589679929
 51
91.7624494884043
  0
ARC
  5
BBA
  8
0
 10
25.49050958181499
 20
85.23990886906364
 30
0.0
 40
3.175000000000002
 50
88.281725474300373
 51
103.7810193591522
  0
ARC
  5
BBB
  8
0
 10
12.790510653397231
 20
86.430533869063638
 30
0.0
 40
1.984374999999998
 50
81.915055642691257
 51
100.7928122492884
  0
ARC
  5
BBC
  8
0
 10
27.871759380893309
 20
86.430533869063638
 30
0.0
 40
1.9843750000000011
 50
79.277493432473122
 51
98.173684985361646
  0
ARC
  5
BBD
  8
0
 10
10.41863585352789
 20
86.827408869063646
 30
0.0
 40
1.587500000000013
 50
86.575165470326866
 51
180.0
  0
ARC
  5
BBE
  8
0
 10
30.243634180762658
 20
86.827408869063646
 30
0.0
 40
1.587500000000009
 50
0.0060897587092544
 51
93.453557977897091
  0
LINE
  5
BBF
  8
0
 10
10.60910522686302
 20
88.414908454556425
 30
0.0
 11
10.51347143696605
 21
88.412073508639295
 31
0.0
  0
POLYLINE
  5
BC0
  8
0
 66
     1
 10
0.0
 20
0.0
 30
0.0
 70
   128
  0
VERTEX
  5
11E8
  8
0
 10
30.05316853271782
 20
88.414908454556425
 30
0.0
  0
VERTEX
  5
11E9
  8
0
 10
29.936452393699291
 20
88.410670936841925
 30
0.0
  0
VERTEX
  5
11EA
  8
0
 10
29.769952406454681
 20
88.389585328091357
 30
0.0
  0
SEQEND
  5
11EB
  8
0
  0
LINE
  5
BC1
  8
0
 10
13.36450921120106
 20
88.414908454556411
 30
0.0
 11
13.33995721982776
 21
88.414771550137942
 31
0.0
  0
ARC
  5
BC2
  8
0
 10
27.296578107417449
 20
86.430533869063623
 30
0.0
 40
1.98437500000001
 50
89.37703140815637
 51
112.9412645079997
  0
LINE
  5
BC3
  8
0
 10
16.68290281416833
 20
88.414908454556411
 30
0.0
 11
16.595068850833769
 21
88.413734522451108
 31
0.0
  0
POLYLINE
  5
BC4
  8
0
 66
     1
 10
0.0
 20
0.0
 30
0.0
 70
   128
  0
VERTEX
  5
11EC
  8
0
 10
16.207131088990561
 20
88.379285831738656
 30
0.0
  0
VERTEX
  5
11ED
  8
0
 10
16.023691741097561
 20
88.346037615824883
 30
0.0
  0
VERTEX
  5
11EE
  8
0
 10
15.926584133226269
 20
88.32387819214577
 30
0.0
  0
SEQEND
  5
11EF
  8
0
  0
POLYLINE
  5
BC5
  8
0
 66
     1
 10
0.0
 20
0.0
 30
0.0
 70
   128
  0
VERTEX
  5
11F0
  8
0
 10
23.979363494831919
 20
88.414908454556411
 30
0.0
  0
VERTEX
  5
11F1
  8
0
 10
23.88869109312057
 20
88.41365629135484
 30
0.0
  0
VERTEX
  5
11F2
  8
0
 10
23.550971874315142
 20
88.386078898597901
 30
0.0
  0
SEQEND
  5
11F3
  8
0
  0
ARC
  5
BC6
  8
0
 10
11.171621632176761
 20
86.827408869063646
 30
0.0
 40
1.5875000000000019
 50
89.943774912770294
 51
100.2196243214342
  0
ARC
  5
BC7
  8
0
 10
29.48753181877947
 20
86.827408869063646
 30
0.0
 40
1.587500000000007
 50
89.94375902480644
 51
106.7819288971202
  0
POLYLINE
  5
BC8
  8
0
 66
     1
 10
0.0
 20
0.0
 30
0.0
 70
   128
  0
VERTEX
  5
11F4
  8
0
 10
14.99910838650524
 20
88.414907523233836
 30
0.0
  0
VERTEX
  5
11F5
  8
0
 10
14.969062523264281
 20
88.414713342477029
 30
0.0
  0
VERTEX
  5
11F6
  8
0
 10
14.90387459965407
 20
88.412726365764087
 30
0.0
  0
SEQEND
  5
11F7
  8
0
  0
LINE
  5
BC9
  8
0
 10
25.663161647785302
 20
88.414907523233836
 30
0.0
 11
25.585711931157711
 21
88.413481202710813
 31
0.0
  0
ARC
  5
BCA
  8
0
 10
12.08693089176646
 20
86.827408869063646
 30
0.0
 40
1.5874999999999959
 50
89.918354497161246
 51
106.7553919307671
  0
POLYLINE
  5
BCB
  8
0
 66
     1
 10
0.0
 20
0.0
 30
0.0
 70
   128
  0
VERTEX
  5
11F8
  8
0
 10
28.573077169526218
 20
88.414907057572549
 30
0.0
  0
VERTEX
  5
11F9
  8
0
 10
28.337504712212681
 20
88.39767107068414
 30
0.0
  0
VERTEX
  5
11FA
  8
0
 10
28.240957294870022
 20
88.380261392135566
 30
0.0
  0
SEQEND
  5
11FB
  8
0
  0
POLYLINE
  5
BCC
  8
0
 66
     1
 10
0.0
 20
0.0
 30
0.0
 70
   128
  0
VERTEX
  5
11FC
  8
0
 10
17.445462986174821
 20
88.414906591911262
 30
0.0
  0
VERTEX
  5
11FD
  8
0
 10
17.395145024452201
 20
88.41434127910847
 30
0.0
  0
VERTEX
  5
11FE
  8
0
 10
17.106775424722429
 20
88.386285652209466
 30
0.0
  0
SEQEND
  5
11FF
  8
0
  0
POLYLINE
  5
BCD
  8
0
 66
     1
 10
0.0
 20
0.0
 30
0.0
 70
   128
  0
VERTEX
  5
1200
  8
0
 10
23.216807048115729
 20
88.414906591911262
 30
0.0
  0
VERTEX
  5
1201
  8
0
 10
22.970879447925679
 20
88.399965849507993
 30
0.0
  0
VERTEX
  5
1202
  8
0
 10
22.710410875547531
 20
88.349960346509164
 30
0.0
  0
SEQEND
  5
1203
  8
0
  0
POLYLINE
  5
BCE
  8
0
 66
     1
 10
0.0
 20
0.0
 30
0.0
 70
   128
  0
VERTEX
  5
1204
  8
0
 10
13.33995721982776
 20
88.414771550137942
 30
0.0
  0
VERTEX
  5
1205
  8
0
 10
13.08984448881804
 20
88.398273636389916
 30
0.0
  0
VERTEX
  5
1206
  8
0
 10
13.06959520773947
 20
88.395185370732491
 30
0.0
  0
SEQEND
  5
1207
  8
0
  0
LINE
  5
BCF
  8
0
 10
27.340330646652578
 20
88.414906126249974
 30
0.0
 11
27.318153527844551
 21
88.414791573573297
 31
0.0
  0
ARC
  5
BD0
  8
0
 10
14.820659792468181
 20
86.827408869063618
 30
0.0
 40
1.587500000000005
 50
89.877800414908251
 51
115.6103835915809
  0
LINE
  5
BD1
  8
0
 10
25.83822468044221
 20
88.4149051949274
 30
0.0
 11
25.752752551156881
 21
88.412785039086287
 31
0.0
  0
ARC
  5
BD2
  8
0
 10
16.534023765019128
 20
86.827408869063618
 30
0.0
 40
1.5875000000000039
 50
89.864221789605807
 51
102.8120672916675
  0
LINE
  5
BD3
  8
0
 10
24.124484273884288
 20
88.414904263604825
 30
0.0
 11
24.06155178071916
 21
88.413805768628066
 31
0.0
  0
ARC
  5
BD4
  8
0
 10
18.393308593544731
 20
86.827408869063618
 30
0.0
 40
1.587499999999989
 50
89.855857979312347
 51
106.40582362476459
  0
ARC
  5
BD5
  8
0
 10
22.260973901174172
 20
86.827408869063618
 30
0.0
 40
1.587500000000011
 50
89.855856832398885
 51
113.6322529126349
  0
LINE
  5
BD6
  8
0
 10
9.8311351587063012
 20
85.398908772308786
 30
0.0
 11
11.31413504229843
 21
84.542698527489264
 31
0.0
  0
LINE
  5
BD7
  8
0
 10
29.348134991992112
 20
84.542698527489264
 30
0.0
 11
30.83113487558424
 21
85.398908772308786
 31
0.0
  0
LINE
  5
BD8
  8
0
 10
11.4136394088155
 20
82.680601345178147
 30
0.0
 11
11.283715253043759
 21
82.414908868063648
 31
0.0
  0
LINE
  5
BD9
  8
0
 10
29.37855478124678
 20
82.414908868063648
 30
0.0
 11
29.248630625475052
 21
82.680601345178147
 31
0.0
  0
ARC
  5
BDA
  8
0
 10
11.187135017145261
 20
84.322727967294185
 30
0.0
 40
0.2540000000000122
 50
0.0
 51
59.99999999999946
  0
ARC
  5
BDB
  8
0
 10
29.475135017145249
 20
84.322727967294185
 30
0.0
 40
0.2540000000000051
 50
119.99999999999829
 51
180.0
  0
ARC
  5
BDC
  8
0
 10
29.475135017145249
 20
82.795543775910431
 30
0.0
 40
0.2539999999999975
 50
180.0
 51
206.90607403242299
  0
ARC
  5
BDD
  8
0
 10
11.187135017145261
 20
82.795543775910431
 30
0.0
 40
0.2540000000000049
 50
333.09392596757709
 51
0.0
  0
LINE
  5
BDE
  8
0
 10
11.44113484518587
 20
84.322727935191665
 30
0.0
 11
11.44113484518587
 21
82.795543780353327
 31
0.0
  0
LINE
  5
BDF
  8
0
 10
29.221135189104668
 20
82.795543780353327
 30
0.0
 11
29.221135189104668
 21
84.322727935191665
 31
0.0
  0
LINE
  5
C36
  8
0
 10
6.4747286935335353
 20
63.912330728758548
 30
0.0
 11
8.3311349128371432
 21
63.414909479011271
 31
0.0
  0
LINE
  5
C37
  8
0
 10
32.3311351214534
 20
63.414909479011271
 30
0.0
 11
34.187541340757008
 21
63.912330728758548
 31
0.0
  0
LINE
  5
C38
  8
0
 10
8.3311349128371432
 20
82.414908868063648
 30
0.0
 11
6.4747286935335353
 21
81.917486279540185
 31
0.0
  0
LINE
  5
C39
  8
0
 10
34.187541340757008
 20
81.917486279540185
 30
0.0
 11
32.3311351214534
 21
82.414908868063648
 31
0.0
  0
LINE
  5
C3A
  8
0
 10
8.8332332645541385
 20
86.827409055818279
 30
0.0
 11
8.8331978742963031
 21
86.827409055818279
 31
0.0
  0
ARC
  5
C3B
  8
0
 10
9.362384719588249
 20
86.807381052270827
 30
0.0
 40
0.5295303421814772
 50
119.0329039819957
 51
177.8324304544644
  0
ARC
  5
C3C
  8
0
 10
9.4729993913695125
 20
86.928603090913015
 30
0.0
 40
0.4454152585494752
 50
172.7446635717734
 51
193.131710363357
  0
LINE
  5
C3D
  8
0
 10
9.0708704640155986
 20
86.827409055818279
 30
0.0
 11
9.0392315735107616
 21
86.827409055818279
 31
0.0
  0
ARC
  5
C3E
  8
0
 10
9.9069537304794153
 20
86.505611970832334
 30
0.0
 40
0.895873089430794
 50
103.642031167794
 51
158.94896281572619
  0
ARC
  5
C3F
  8
0
 10
10.103180350492259
 20
87.064681482229901
 30
0.0
 40
0.4858249151374594
 50
166.55847337560911
 51
209.2348693051828
  0
LINE
  5
C40
  8
0
 10
9.7412336592560962
 20
86.827409055818322
 30
0.0
 11
9.679237378109093
 21
86.827409055818279
 31
0.0
  0
ARC
  5
C41
  8
0
 10
10.825686407690309
 20
86.12366442908916
 30
0.0
 40
1.292785466826075
 50
97.811001523674776
 51
147.0188532466706
  0
ARC
  5
C42
  8
0
 10
11.17911803566326
 20
87.229163524562864
 30
0.0
 40
0.6036406172302465
 50
171.33991900852149
 51
221.724718895395
  0
LINE
  5
C43
  8
0
 10
10.81856060521662
 20
86.827409055818322
 30
0.0
 11
10.72859018789589
 21
86.827409055818322
 31
0.0
  0
ARC
  5
C44
  8
0
 10
12.10178504265903
 20
85.745578983898923
 30
0.0
 40
1.6783984215193191
 50
98.747364399783265
 51
139.86723542079829
  0
ARC
  5
C45
  8
0
 10
12.63752099982468
 20
87.450799112162287
 30
0.0
 40
0.7932606795832266
 50
184.1304509299944
 51
231.80007979670651
  0
LINE
  5
C46
  8
0
 10
12.26145121948778
 20
86.827409055818322
 30
0.0
 11
12.146962804067719
 21
86.827409055818322
 31
0.0
  0
ARC
  5
C47
  8
0
 10
13.72497545626919
 20
85.36972190292704
 30
0.0
 40
2.065612506582704
 50
99.919489659302499
 51
135.11448669125659
  0
ARC
  5
C48
  8
0
 10
16.333261960565999
 20
89.513278165364284
 30
0.0
 40
3.6377365905549981
 50
215.42996956926149
 51
227.5897957779334
  0
LINE
  5
C49
  8
0
 10
14.014454555976981
 20
86.827409055818322
 30
0.0
 11
13.87984910728394
 21
86.827409055818322
 31
0.0
  0
ARC
  5
C4A
  8
0
 10
15.63844623900221
 20
85.029647754064385
 30
0.0
 40
2.4226627261381402
 50
101.4070649442228
 51
132.09280010160751
  0
ARC
  5
C4B
  8
0
 10
17.161677097851591
 20
89.123456972986034
 30
0.0
 40
2.639033169391825
 50
220.64539762258079
 51
240.4625613702072
  0
LINE
  5
C4C
  8
0
 10
16.01020432757198
 20
86.827409055818322
 30
0.0
 11
15.860654411185379
 21
86.827409055818322
 31
0.0
  0
ARC
  5
C4D
  8
0
 10
17.781820473668351
 20
84.74424284239285
 30
0.0
 40
2.7346307322683949
 50
103.3973352716167
 51
130.37930120174639
  0
ARC
  5
C4E
  8
0
 10
14.437599640333749
 20
82.404018532887278
 30
0.0
 40
5.6878569248953772
 50
51.049575022675882
 51
61.539092642230237
  0
LINE
  5
C4F
  8
0
 10
18.17200542176127
 20
86.827409055818322
 30
0.0
 11
18.01325799645841
 21
86.827409055818322
 31
0.0
  0
ARC
  5
C50
  8
0
 10
21.200980344871969
 20
82.432567492266074
 30
0.0
 40
5.3375388948053244
 50
111.3310228776688
 51
124.5750543900396
  0
ARC
  5
C51
  8
0
 10
17.86105847970623
 20
83.844759754970013
 30
0.0
 40
3.82450615710512
 50
51.249432596389212
 51
68.553515529952435
  0
LINE
  5
C52
  8
0
 10
20.416780452465019
 20
86.827409055818322
 30
0.0
 11
20.254936190426658
 21
86.827409055818322
 31
0.0
  0
ARC
  5
C53
  8
0
 10
22.60799947914299
 20
84.195357330219963
 30
0.0
 40
3.4247827827616768
 50
110.4426453544761
 51
129.77784370782209
  0
ARC
  5
C54
  8
0
 10
19.47531876573197
 20
82.440511724905619
 30
0.0
 40
5.3283016506885383
 50
55.418533172456172
 51
68.688502291838518
  0
LINE
  5
C55
  8
0
 10
22.658264261949661
 20
86.827409055818322
 30
0.0
 11
22.49954268084824
 21
86.827409055818322
 31
0.0
  0
ARC
  5
C56
  8
0
 10
25.659497890696969
 20
83.267442338857023
 30
0.0
 40
4.6562609806792388
 50
117.3166550395417
 51
130.13259804840769
  0
ARC
  5
C57
  8
0
 10
22.817095468971019
 20
84.601892591870794
 30
0.0
 40
2.890024055016585
 50
50.360039712440937
 51
75.868222032094735
  0
LINE
  5
C58
  8
0
 10
24.810317435581091
 20
86.827409055818322
 30
0.0
 11
24.66081874193609
 21
86.827409055818322
 31
0.0
  0
ARC
  5
C59
  8
0
 10
19.411076835359719
 20
94.096660458830897
 30
0.0
 40
9.0550436232676006
 50
306.60313969086121
 51
312.34873940310177
  0
ARC
  5
C5A
  8
0
 10
24.987374875102692
 20
84.941735892740596
 30
0.0
 40
2.517756042765372
 50
48.499497601805643
 51
77.998051975913654
  0
LINE
  5
C5B
  8
0
 10
26.79023844869792
 20
86.827409055818322
 30
0.0
 11
26.655707040149569
 21
86.827409055818322
 31
0.0
  0
ARC
  5
C5C
  8
0
 10
23.55271077317699
 20
90.201762295811506
 30
0.0
 40
4.6763067946849448
 50
313.81449640395527
 51
323.25981994759508
  0
ARC
  5
C5D
  8
0
 10
26.919401611209139
 20
85.32262417713585
 30
0.0
 40
2.1163531208242872
 50
45.318562146475251
 51
79.637017916649611
  0
LINE
  5
C5E
  8
0
 10
28.521940109599232
 20
86.827409055818322
 30
0.0
 11
28.407545757759209
 21
86.827409055818322
 31
0.0
  0
ARC
  5
C5F
  8
0
 10
28.085503056778919
 20
87.423174575375612
 30
0.0
 40
0.73852139804331
 50
306.22520537537662
 51
357.90389857242582
  0
ARC
  5
C60
  8
0
 10
28.555372964545231
 20
85.727218777035915
 30
0.0
 40
1.6982112902297291
 50
40.379877885191981
 51
80.985530686605756
  0
LINE
  5
C61
  8
0
 10
29.93887290107071
 20
86.827409055818322
 30
0.0
 11
29.849012379813789
 21
86.827409055818322
 31
0.0
  0
ARC
  5
C62
  8
0
 10
29.589156405701861
 20
87.186075208373708
 30
0.0
 40
0.5009421484782357
 50
314.27616761018089
 51
14.16325883253959
  0
ARC
  5
C63
  8
0
 10
29.839431383186849
 20
86.122536830163185
 30
0.0
 40
1.294094097917488
 50
33.003065398568509
 51
82.134169319948185
  0
LINE
  5
C64
  8
0
 10
30.986586583126179
 20
86.827409055818279
 30
0.0
 11
30.924712305236461
 21
86.827409055818322
 31
0.0
  0
POLYLINE
  5
C65
  8
0
 66
     1
 10
0.0
 20
0.0
 30
0.0
 70
   128
  0
VERTEX
  5
1208
  8
0
 10
31.026851383317108
 20
87.172008652974327
 30
0.0
  0
VERTEX
  5
1209
  8
0
 10
31.042081301379799
 20
86.996748179931615
 30
0.0
  0
VERTEX
  5
120A
  8
0
 10
30.986586583126179
 20
86.827409055818279
 30
0.0
  0
SEQEND
  5
120B
  8
0
  0
ARC
  5
C66
  8
0
 10
30.785612558796011
 20
86.522531496191135
 30
0.0
 40
0.8633203404121893
 50
20.679819613051791
 51
78.069147240108521
  0
LINE
  5
C67
  8
0
 10
31.624816355574719
 20
86.827409055818279
 30
0.0
 11
31.593307850230332
 21
86.827409055818279
 31
0.0
  0
ARC
  5
C68
  8
0
 10
31.191129784500959
 20
86.928026769284074
 30
0.0
 40
0.445205532527173
 50
346.93814440679517
 51
7.3119171279113209
  0
ARC
  5
C69
  8
0
 10
31.240491282025062
 20
86.778804294398086
 30
0.0
 40
0.5906159060973075
 50
4.7204971425153222
 51
57.982469345246344
  0
LINE
  5
C6A
  8
0
 10
31.82907215999424
 20
86.827409055818279
 30
0.0
 11
31.829103824961781
 21
86.827409055818279
 31
0.0
  0
ARC
  5
C6B
  8
0
 10
19.793767238013121
 20
87.508775897006444
 30
0.0
 40
1.62141926256349
 50
356.31108900306288
 51
20.596946731148151
  0
ARC
  5
C6C
  8
0
 10
20.887206798585371
 20
87.509090679521819
 30
0.0
 40
1.6311459110557189
 50
159.5408971222509
 51
183.6779633952444
  0
LINE
  5
C6D
  8
0
 10
8.8311349947935298
 20
85.398908772308786
 30
0.0
 11
31.831135039497021
 21
85.398908772308786
 31
0.0
  0
ARC
  5
C6E
  8
0
 10
18.26668870643519
 20
87.35658517839363
 30
0.0
 40
1.1195133688097729
 50
141.86648624535081
 51
177.54930800232239
  0
ARC
  5
C6F
  8
0
 10
22.40493313048708
 20
87.356089177161039
 30
0.0
 40
1.1188159856761311
 50
2.477644787492812
 51
38.180154927720537
  0
ARC
  5
C70
  8
0
 10
16.280608551824368
 20
87.201051072743951
 30
0.0
 40
1.13961146734605
 50
137.52152596088041
 51
169.7184466567968
  0
ARC
  5
C71
  8
0
 10
24.389552821928881
 20
87.200462011598304
 30
0.0
 40
1.1397801959472309
 50
10.31011089246376
 51
42.479055018927198
  0
ARC
  5
C72
  8
0
 10
14.58046498147459
 20
87.031178617850685
 30
0.0
 40
1.2675302338938139
 50
142.79116962738681
 51
162.8729695808679
  0
ARC
  5
C73
  8
0
 10
26.08851544253227
 20
87.030561320953808
 30
0.0
 40
1.267963356054562
 50
17.150189073551129
 51
37.166680105587197
  0
ARC
  5
C74
  8
0
 10
20.097660646524329
 20
115.1643499407798
 30
0.0
 40
51.749967134171762
 50
270.25849565096888
 51
277.95469271690598
  0
ARC
  5
C75
  8
0
 10
20.60085033916198
 20
115.6691226543989
 30
0.0
 40
52.254909251990753
 50
262.08254687424892
 51
269.70426475787718
  0
LINE
  5
C76
  8
0
 10
13.4029318553394
 20
63.912330728758569
 30
0.0
 11
13.4029318553394
 21
81.917486279540213
 31
0.0
  0
ARC
  5
C77
  8
0
 10
20.600556734232839
 20
30.164924381535599
 30
0.0
 40
52.250679104716568
 50
90.295437226237127
 51
97.917773171261402
  0
ARC
  5
C78
  8
0
 10
20.096765021703931
 20
30.653131902342039
 30
0.0
 40
51.762307560075747
 50
82.046215004874696
 51
89.740574597626036
  0
LINE
  5
C79
  8
0
 10
27.25933817895114
 20
63.912330728758569
 30
0.0
 11
27.25933817895114
 21
81.917486279540213
 31
0.0
  0
ARC
  5
C7A
  8
0
 10
30.863937036658861
 20
76.70427064039248
 30
0.0
 40
13.290103823064751
 50
254.26286829172039
 51
269.39428130961551
  0
ARC
  5
C7C
  8
0
 10
9.7988676205984575
 20
76.700547461817195
 30
0.0
 40
13.286375209959241
 50
270.60358306117013
 51
285.73926733749607
  0
ARC
  5
C7E
  8
0
 10
10.07932691132936
 20
76.704266315496056
 30
0.0
 40
13.290099486722379
 50
254.26286589000941
 51
269.39428587854371
  0
LINE
  5
C7F
  8
0
 10
6.4747286935335353
 20
63.912330728758548
 30
0.0
 11
6.4747286935335353
 21
81.917486279540185
 31
0.0
  0
ARC
  5
C80
  8
0
 10
10.078794759930529
 20
69.129292416932714
 30
0.0
 40
13.286353693868969
 50
90.603589929668445
 51
105.73930169344619
  0
ARC
  5
C81
  8
0
 10
9.7983317745355976
 20
69.125573617478267
 30
0.0
 40
13.29007792664706
 50
74.262831353639555
 51
89.394274856027664
  0
ARC
  5
C82
  8
0
 10
30.58347849045623
 20
76.700537951435194
 30
0.0
 40
13.286365680615511
 50
270.60357551531871
 51
285.73927271612911
  0
ARC
  5
C83
  8
0
 10
30.8634056297924
 20
69.129282906549236
 30
0.0
 40
13.28636322321467
 50
90.603597475532922
 51
105.7392963148021
  0
ARC
  5
C84
  8
0
 10
30.582941899871461
 20
69.125577942407716
 30
0.0
 40
13.290073590271479
 50
74.262828951898101
 51
89.394279424988468
  0
LINE
  5
C85
  8
0
 10
34.187541340757008
 20
63.912330728758548
 30
0.0
 11
34.187541340757008
 21
81.917486279540185
 31
0.0
  0
LINE
  5
CB6
  8
0
 10
8.3311349128371432
 20
63.414909479011271
 30
0.0
 11
32.3311351214534
 21
63.414909479011271
 31
0.0
  0
LINE
  5
CB8
  8
0
 10
8.3311349128371432
 20
82.414908868063648
 30
0.0
 11
32.3311351214534
 21
82.414908868063648
 31
0.0
  0
LINE
  5
CBA
  8
0
 10
8.8311349947935298
 20
86.779908810545166
 30
0.0
 11
31.831135039497021
 21
86.779908810545166
 31
0.0
  0
LINE
  5
CBB
  8
0
 10
11.31413504229843
 20
84.542698527489264
 30
0.0
 11
29.34813406066954
 21
84.542698527489264
 31
0.0
  0
LINE
  5
CBD
  8
0
 10
29.221134257782101
 20
84.322727935191665
 30
0.0
 11
11.44113484518587
 21
84.322727935191665
 31
0.0
  0
LINE
  5
CBE
  8
0
 10
11.441135776508441
 20
82.795543780353327
 30
0.0
 11
29.221135189104668
 21
82.795543780353327
 31
0.0
  0
ARC
  5
CC1
  8
0
 10
67.594234464659166
 20
86.779908869063689
 30
0.0
 40
0.6350000000000194
 50
175.7339246997908
 51
180.0
  0
ARC
  5
CC2
  8
0
 10
89.324234464659185
 20
86.779908869063604
 30
0.0
 40
0.6350000000000061
 50
0.0
 51
4.2726603436415136
  0
ARC
  5
CC3
  8
0
 10
78.463306477020637
 20
86.827408869063646
 30
0.0
 40
1.587499999999991
 50
52.047021448091229
 51
127.94936259166749
  0
LINE
  5
CC4
  8
0
 10
66.959234442307434
 20
86.779908810545209
 30
0.0
 11
66.959234442307434
 21
85.398908772308829
 31
0.0
  0
LINE
  5
CC5
  8
0
 10
89.959234487010903
 20
85.398908772308744
 30
0.0
 11
89.959234487010903
 21
86.779908810545152
 31
0.0
  0
ARC
  5
CC6
  8
0
 10
76.529395580630194
 20
86.827408869063646
 30
0.0
 40
1.5875000000000159
 50
52.050637408332491
 51
129.75366854549341
  0
ARC
  5
CC7
  8
0
 10
80.397060888259603
 20
86.827408869063646
 30
0.0
 40
1.587500000000005
 50
50.234451136640367
 51
127.952978551911
  0
ARC
  5
CC8
  8
0
 10
74.669647310286848
 20
86.827408869063675
 30
0.0
 40
1.5875000000000019
 50
54.321832439940479
 51
133.9332039764513
  0
ARC
  5
CC9
  8
0
 10
82.256345716785233
 20
86.827408869063646
 30
0.0
 40
1.5875000000000079
 50
46.042544268776012
 51
126.0235182920096
  0
ARC
  5
CCA
  8
0
 10
72.955530749061083
 20
86.827408869063675
 30
0.0
 40
1.5874999999999899
 50
57.485744143682943
 51
142.324006488865
  0
ARC
  5
CCB
  8
0
 10
83.969709689336128
 20
86.827408869063646
 30
0.0
 40
1.587499999999993
 50
37.62592049817718
 51
122.82070907940481
  0
ARC
  5
CCC
  8
0
 10
78.462332120973201
 20
86.430533869063638
 30
0.0
 40
1.984374999999998
 50
59.010597476667272
 51
121.2458465232809
  0
ARC
  5
CCD
  8
0
 10
85.471309189312819
 20
86.827408869063618
 30
0.0
 40
1.587500000000007
 50
21.027888876295801
 51
118.3643950686531
  0
ARC
  5
CCE
  8
0
 10
71.452918435113133
 20
86.827408869063675
 30
0.0
 40
1.5874999999999879
 50
61.892265192559691
 51
159.05144207161979
  0
ARC
  5
CCF
  8
0
 10
75.576424312231552
 20
86.430533869063638
 30
0.0
 40
1.984375000000008
 50
75.42670003252843
 51
104.0892504306764
  0
ARC
  5
CD0
  8
0
 10
81.347768339621382
 20
86.430533869063623
 30
0.0
 40
1.9843750000000071
 50
76.119398809421128
 51
104.78998284184431
  0
ARC
  5
CD1
  8
0
 10
86.703438590037877
 20
86.827408869063618
 30
0.0
 40
1.5875000000000219
 50
17.788753240600862
 51
112.9474070738261
  0
ARC
  5
CD2
  8
0
 10
70.219554916993388
 20
86.827408869063675
 30
0.0
 40
1.587500000000011
 50
67.25396213765049
 51
161.90520075825589
  0
ARC
  5
CD3
  8
0
 10
73.129398216457844
 20
86.43053386906368
 30
0.0
 40
1.9843750000000071
 50
65.868887054902487
 51
92.754320834190281
  0
ARC
  5
CD4
  8
0
 10
83.793451460431356
 20
86.430533869063623
 30
0.0
 40
1.9843750000000191
 50
87.415854699089152
 51
114.3318404974826
  0
ARC
  5
CD5
  8
0
 10
78.461353913716152
 20
85.23990886906364
 30
0.0
 40
3.1750000000000078
 50
69.008324431586104
 51
111.1334115188707
  0
POLYLINE
  5
CD6
  8
0
 66
     1
 10
0.0
 20
0.0
 30
0.0
 70
   128
  0
VERTEX
  5
120C
  8
0
 10
75.236195254816494
 20
88.386511963595126
 30
0.0
  0
VERTEX
  5
120D
  8
0
 10
74.901678388683877
 20
88.413656291354854
 30
0.0
  0
VERTEX
  5
120E
  8
0
 10
74.724409518508992
 20
88.413686559338544
 30
0.0
  0
SEQEND
  5
120F
  8
0
  0
POLYLINE
  5
CD7
  8
0
 66
     1
 10
0.0
 20
0.0
 30
0.0
 70
   128
  0
VERTEX
  5
1210
  8
0
 10
74.328205570324144
 20
88.377755203087304
 30
0.0
  0
VERTEX
  5
1211
  8
0
 10
74.154915775849304
 20
88.346064624179576
 30
0.0
  0
VERTEX
  5
1212
  8
0
 10
73.867158520712323
 20
88.270906426746848
 30
0.0
  0
SEQEND
  5
1213
  8
0
  0
POLYLINE
  5
CD8
  8
0
 66
     1
 10
0.0
 20
0.0
 30
0.0
 70
   128
  0
VERTEX
  5
1214
  8
0
 10
83.050147652371606
 20
88.272200965125506
 30
0.0
  0
VERTEX
  5
1215
  8
0
 10
82.766677740706882
 20
88.346037615824883
 30
0.0
  0
VERTEX
  5
1216
  8
0
 10
82.608379911376915
 20
88.375384521473592
 30
0.0
  0
SEQEND
  5
1217
  8
0
  0
POLYLINE
  5
CD9
  8
0
 66
     1
 10
0.0
 20
0.0
 30
0.0
 70
   128
  0
VERTEX
  5
1218
  8
0
 10
82.190892681225023
 20
88.413851403434222
 30
0.0
  0
VERTEX
  5
1219
  8
0
 10
82.019639689220867
 20
88.413652100403255
 30
0.0
  0
VERTEX
  5
121A
  8
0
 10
81.680391704409203
 20
88.385851190228408
 30
0.0
  0
SEQEND
  5
121B
  8
0
  0
ARC
  5
CDA
  8
0
 10
87.618747849627653
 20
86.827408869063618
 30
0.0
 40
1.587499999999999
 50
12.661936023754469
 51
106.8406814365551
  0
ARC
  5
CDB
  8
0
 10
69.302837663024889
 20
86.827408869063675
 30
0.0
 40
1.5874999999999999
 50
73.303334265681684
 51
167.2225083445735
  0
ARC
  5
CDC
  8
0
 10
71.493791374386944
 20
86.43053386906368
 30
0.0
 40
1.984374999999984
 50
67.171628703554944
 51
90.034219216274082
  0
POLYLINE
  5
CDD
  8
0
 66
     1
 10
0.0
 20
0.0
 30
0.0
 70
   128
  0
VERTEX
  5
121C
  8
0
 10
71.110498182221136
 20
88.377539136250022
 30
0.0
  0
VERTEX
  5
121D
  8
0
 10
70.853498320772133
 20
88.30876934601784
 30
0.0
  0
VERTEX
  5
121E
  8
0
 10
70.817545544101677
 20
88.296126642067435
 30
0.0
  0
SEQEND
  5
121F
  8
0
  0
POLYLINE
  5
CDE
  8
0
 66
     1
 10
0.0
 20
0.0
 30
0.0
 70
   128
  0
VERTEX
  5
1220
  8
0
 10
86.099633503450832
 20
88.297449585784619
 30
0.0
  0
VERTEX
  5
1221
  8
0
 10
86.066711250438175
 20
88.308984015871232
 30
0.0
  0
VERTEX
  5
1222
  8
0
 10
85.841399173929176
 20
88.371167027194446
 30
0.0
  0
SEQEND
  5
1223
  8
0
  0
ARC
  5
CDF
  8
0
 10
85.427048398432476
 20
86.430533869063623
 30
0.0
 40
1.984375000000008
 50
89.413168250724894
 51
112.9808151935908
  0
ARC
  5
CE0
  8
0
 10
78.459234464659119
 20
82.064908869063629
 30
0.0
 40
6.3500000000000201
 50
78.246858385125108
 51
101.8030412564591
  0
ARC
  5
CE1
  8
0
 10
68.737995603176728
 20
86.827408869063675
 30
0.0
 40
1.587500000000019
 50
79.809508275076666
 51
174.31086697630491
  0
ARC
  5
CE2
  8
0
 10
88.182062146547253
 20
86.827408869063618
 30
0.0
 40
1.5875000000000119
 50
5.6954872766614724
 51
100.27677773034389
  0
ARC
  5
CE3
  8
0
 10
73.299859899989428
 20
85.239908869063655
 30
0.0
 40
3.1750000000000238
 50
76.246825589681507
 51
91.762449488397777
  0
ARC
  5
CE4
  8
0
 10
83.618609029328795
 20
85.239908869063612
 30
0.0
 40
3.175000000000018
 50
88.281725474298753
 51
103.7810193591522
  0
ARC
  5
CE5
  8
0
 10
70.91861010091111
 20
86.43053386906368
 30
0.0
 40
1.9843750000000111
 50
81.915055642663177
 51
100.7928122492734
  0
ARC
  5
CE6
  8
0
 10
85.999858828407113
 20
86.430533869063623
 30
0.0
 40
1.9843750000000211
 50
79.27749343246802
 51
98.173684985397784
  0
ARC
  5
CE7
  8
0
 10
68.546735301041736
 20
86.827408869063703
 30
0.0
 40
1.587499999999981
 50
86.575165470364354
 51
180.0
  0
ARC
  5
CE8
  8
0
 10
88.371733628276502
 20
86.827408869063618
 30
0.0
 40
1.5874999999999939
 50
0.0060897587092544
 51
93.453557977921548
  0
LINE
  5
CE9
  8
0
 10
68.737201880409202
 20
88.414908454556468
 30
0.0
 11
68.641570884479961
 21
88.412073508639338
 31
0.0
  0
POLYLINE
  5
CEA
  8
0
 66
     1
 10
0.0
 20
0.0
 30
0.0
 70
   128
  0
VERTEX
  5
1224
  8
0
 10
88.181270774199433
 20
88.414908454556411
 30
0.0
  0
VERTEX
  5
1225
  8
0
 10
88.064551841213174
 20
88.41067093684191
 30
0.0
  0
VERTEX
  5
1226
  8
0
 10
87.898051853968582
 20
88.389585328091329
 30
0.0
  0
SEQEND
  5
1227
  8
0
  0
LINE
  5
CEB
  8
0
 10
71.492606330408535
 20
88.414908454556468
 30
0.0
 11
71.468056667341671
 21
88.414771550137999
 31
0.0
  0
ARC
  5
CEC
  8
0
 10
85.424677554931293
 20
86.430533869063623
 30
0.0
 40
1.9843750000000031
 50
89.377031408236135
 51
112.94126450800179
  0
LINE
  5
CED
  8
0
 10
74.811005986972532
 20
88.414908454556425
 30
0.0
 11
74.723168298347673
 21
88.413734522451136
 31
0.0
  0
POLYLINE
  5
CEE
  8
0
 66
     1
 10
0.0
 20
0.0
 30
0.0
 70
   128
  0
VERTEX
  5
1228
  8
0
 10
74.335230536504454
 20
88.379285831738684
 30
0.0
  0
VERTEX
  5
1229
  8
0
 10
74.151791188611455
 20
88.346037615824898
 30
0.0
  0
VERTEX
  5
122A
  8
0
 10
74.054683580740175
 20
88.323878192145827
 30
0.0
  0
SEQEND
  5
122B
  8
0
  0
POLYLINE
  5
CEF
  8
0
 66
     1
 10
0.0
 20
0.0
 30
0.0
 70
   128
  0
VERTEX
  5
122C
  8
0
 10
82.107465969144187
 20
88.414908454556411
 30
0.0
  0
VERTEX
  5
122D
  8
0
 10
82.016790540634474
 20
88.41365629135484
 30
0.0
  0
VERTEX
  5
122E
  8
0
 10
81.679071321829042
 20
88.386078898597901
 30
0.0
  0
SEQEND
  5
122F
  8
0
  0
ARC
  5
CF0
  8
0
 10
69.299721079690698
 20
86.827408869063675
 30
0.0
 40
1.587499999999993
 50
89.943741541551304
 51
100.2196243214326
  0
ARC
  5
CF1
  8
0
 10
87.615631266293349
 20
86.827408869063618
 30
0.0
 40
1.5875000000000079
 50
89.943758318276352
 51
106.7819288971187
  0
POLYLINE
  5
CF2
  8
0
 66
     1
 10
0.0
 20
0.0
 30
0.0
 70
   128
  0
VERTEX
  5
1230
  8
0
 10
73.127207834019146
 20
88.414907523233893
 30
0.0
  0
VERTEX
  5
1231
  8
0
 10
73.097161970778174
 20
88.414713342477086
 30
0.0
  0
VERTEX
  5
1232
  8
0
 10
73.031974047167964
 20
88.412726365764144
 30
0.0
  0
SEQEND
  5
1233
  8
0
  0
LINE
  5
CF3
  8
0
 10
83.791261095299205
 20
88.414907523233836
 30
0.0
 11
83.713811378671593
 21
88.413481202710813
 31
0.0
  0
ARC
  5
CF4
  8
0
 10
70.215030339280361
 20
86.827408869063675
 30
0.0
 40
1.5874999999999999
 50
89.918345154343555
 51
106.7553919307686
  0
POLYLINE
  5
CF5
  8
0
 66
     1
 10
0.0
 20
0.0
 30
0.0
 70
   128
  0
VERTEX
  5
1234
  8
0
 10
86.701176617040105
 20
88.414907057572549
 30
0.0
  0
VERTEX
  5
1235
  8
0
 10
86.465604159726581
 20
88.39767107068414
 30
0.0
  0
VERTEX
  5
1236
  8
0
 10
86.369056742383904
 20
88.380261392135566
 30
0.0
  0
SEQEND
  5
1237
  8
0
  0
POLYLINE
  5
CF6
  8
0
 66
     1
 10
0.0
 20
0.0
 30
0.0
 70
   128
  0
VERTEX
  5
1238
  8
0
 10
75.573562666519365
 20
88.414906591911276
 30
0.0
  0
VERTEX
  5
1239
  8
0
 10
75.523244471966095
 20
88.414341279108484
 30
0.0
  0
VERTEX
  5
123A
  8
0
 10
75.234874872236333
 20
88.386285652209494
 30
0.0
  0
SEQEND
  5
123B
  8
0
  0
POLYLINE
  5
CF7
  8
0
 66
     1
 10
0.0
 20
0.0
 30
0.0
 70
   128
  0
VERTEX
  5
123C
  8
0
 10
81.344906262798986
 20
88.414906591911262
 30
0.0
  0
VERTEX
  5
123D
  8
0
 10
81.098978895439586
 20
88.399965849507993
 30
0.0
  0
VERTEX
  5
123E
  8
0
 10
80.838510323061413
 20
88.349960346509164
 30
0.0
  0
SEQEND
  5
123F
  8
0
  0
POLYLINE
  5
CF8
  8
0
 66
     1
 10
0.0
 20
0.0
 30
0.0
 70
   128
  0
VERTEX
  5
1240
  8
0
 10
71.468056667341671
 20
88.414771550137999
 30
0.0
  0
VERTEX
  5
1241
  8
0
 10
71.217943936331935
 20
88.398273636389973
 30
0.0
  0
VERTEX
  5
1242
  8
0
 10
71.197694655253372
 20
88.395185370732548
 30
0.0
  0
SEQEND
  5
1243
  8
0
  0
LINE
  5
CF9
  8
0
 10
85.468430094166465
 20
88.414906126249974
 30
0.0
 11
85.446252975358433
 21
88.414791573573297
 31
0.0
  0
ARC
  5
CFA
  8
0
 10
72.948759239982166
 20
86.827408869063675
 30
0.0
 40
1.5875000000000019
 50
89.877803595621614
 51
115.6103835915824
  0
LINE
  5
CFB
  8
0
 10
83.966323662294826
 20
88.4149051949274
 30
0.0
 11
83.880851998670764
 21
88.412785039086287
 31
0.0
  0
ARC
  5
CFC
  8
0
 10
74.662123212533118
 20
86.827408869063675
 30
0.0
 40
1.587499999999995
 50
89.864220193343513
 51
102.8120672916743
  0
LINE
  5
CFD
  8
0
 10
82.252583721398196
 20
88.414904263604825
 30
0.0
 11
82.18965122823306
 21
88.413805768628066
 31
0.0
  0
ARC
  5
CFE
  8
0
 10
76.521408041058748
 20
86.827408869063646
 30
0.0
 40
1.587500000000015
 50
89.855857192336615
 51
106.4058236247631
  0
ARC
  5
CFF
  8
0
 10
80.389073348688044
 20
86.827408869063646
 30
0.0
 40
1.5875000000000019
 50
89.855854723492087
 51
113.632252912637
  0
LINE
  5
D00
  8
0
 10
67.959234606220207
 20
85.398908772308829
 30
0.0
 11
69.442234489812336
 21
84.542698527489307
 31
0.0
  0
LINE
  5
D01
  8
0
 10
87.476234439506015
 20
84.54269852748925
 30
0.0
 11
88.959234323098144
 21
85.398908772308772
 31
0.0
  0
LINE
  5
D02
  8
0
 10
69.541738856329346
 20
82.680601345178189
 30
0.0
 11
69.411814700557613
 21
82.414908868063691
 31
0.0
  0
LINE
  5
D03
  8
0
 10
87.506654228760624
 20
82.414908868063634
 30
0.0
 11
87.376730072988892
 21
82.680601345178133
 31
0.0
  0
ARC
  5
D04
  8
0
 10
69.315234464659113
 20
84.322727967294213
 30
0.0
 40
0.2540000000000264
 50
0.0
 51
59.999999999994408
  0
ARC
  5
D05
  8
0
 10
87.603234464659124
 20
84.322727967294156
 30
0.0
 40
0.2540000000000191
 50
119.9999999999997
 51
180.0
  0
ARC
  5
D06
  8
0
 10
87.603234464659124
 20
82.795543775910403
 30
0.0
 40
0.2540000000000191
 50
180.0
 51
206.90607403242299
  0
ARC
  5
D07
  8
0
 10
69.315234464659113
 20
82.795543775910446
 30
0.0
 40
0.2540000000000191
 50
333.09392596757709
 51
0.0
  0
LINE
  5
D08
  8
0
 10
69.569234292699775
 20
84.322727935191693
 30
0.0
 11
69.569234292699718
 21
82.79554378035337
 31
0.0
  0
LINE
  5
D09
  8
0
 10
87.349234636618519
 20
82.795543780353313
 30
0.0
 11
87.349234636618576
 21
84.322727935191637
 31
0.0
  0
LINE
  5
D60
  8
0
 10
66.961332712068042
 20
86.827409055818322
 30
0.0
 11
66.961297321810207
 21
86.827409055818322
 31
0.0
  0
ARC
  5
D61
  8
0
 10
67.490484167102125
 20
86.807381052270898
 30
0.0
 40
0.5295303421814579
 50
119.0329039819979
 51
177.83243045446761
  0
ARC
  5
D62
  8
0
 10
67.601098838883388
 20
86.928603090913043
 30
0.0
 40
0.4454152585494752
 50
172.7446635717734
 51
193.131710363357
  0
LINE
  5
D63
  8
0
 10
67.198969911529502
 20
86.827409055818322
 30
0.0
 11
67.167331021024665
 21
86.827409055818322
 31
0.0
  0
ARC
  5
D64
  8
0
 10
68.035053177993291
 20
86.505611970832334
 30
0.0
 40
0.8958730894308082
 50
103.642031167794
 51
158.94896281572471
  0
ARC
  5
D65
  8
0
 10
68.231279798005843
 20
87.064681482229844
 30
0.0
 40
0.4858249151371878
 50
166.55847337559251
 51
209.2348693051886
  0
LINE
  5
D66
  8
0
 10
67.869333106769943
 20
86.827409055818322
 30
0.0
 11
67.80733682562294
 21
86.827409055818322
 31
0.0
  0
ARC
  5
D67
  8
0
 10
68.95378585520416
 20
86.12366442908916
 30
0.0
 40
1.292785466826075
 50
97.811001523674776
 51
147.0188532466706
  0
ARC
  5
D68
  8
0
 10
69.307217483177112
 20
87.229163524562864
 30
0.0
 40
0.6036406172302465
 50
171.33991900852149
 51
221.724718895395
  0
LINE
  5
D69
  8
0
 10
68.946660052730465
 20
86.827409055818322
 30
0.0
 11
68.856689635409737
 21
86.827409055818322
 31
0.0
  0
ARC
  5
D6A
  8
0
 10
70.229884490172878
 20
85.745578983898923
 30
0.0
 40
1.6783984215193211
 50
98.747364399784857
 51
139.86723542079829
  0
ARC
  5
D6B
  8
0
 10
70.765620447338506
 20
87.450799112162287
 30
0.0
 40
0.7932606795832353
 50
184.1304509299944
 51
231.80007979670651
  0
LINE
  5
D6C
  8
0
 10
70.389550667001629
 20
86.827409055818322
 30
0.0
 11
70.275062251581573
 21
86.827409055818322
 31
0.0
  0
ARC
  5
D6D
  8
0
 10
71.853074903783011
 20
85.36972190292704
 30
0.0
 40
2.0656125065827009
 50
99.919489659300879
 51
135.11448669125659
  0
ARC
  5
D6E
  8
0
 10
74.461361408079824
 20
89.513278165364284
 30
0.0
 40
3.637736590555019
 50
215.42996956926149
 51
227.5897957779334
  0
LINE
  5
D6F
  8
0
 10
72.142554003490829
 20
86.827409055818322
 30
0.0
 11
72.007948554797792
 21
86.827409055818322
 31
0.0
  0
ARC
  5
D70
  8
0
 10
73.766545686516054
 20
85.029647754064385
 30
0.0
 40
2.4226627261381419
 50
101.4070649442244
 51
132.09280010160751
  0
ARC
  5
D71
  8
0
 10
75.289776545365442
 20
89.123456972986034
 30
0.0
 40
2.6390331693918321
 50
220.64539762258079
 51
240.4625613702072
  0
LINE
  5
D72
  8
0
 10
74.138303775085831
 20
86.827409055818279
 30
0.0
 11
73.988753858699226
 21
86.827409055818322
 31
0.0
  0
ARC
  5
D73
  8
0
 10
75.909919921182222
 20
84.744242842392808
 30
0.0
 40
2.734630732268426
 50
103.3973352716187
 51
130.37930120174761
  0
ARC
  5
D74
  8
0
 10
72.565699087847577
 20
82.40401853288725
 30
0.0
 40
5.6878569248953861
 50
51.049575022675882
 51
61.539092642230237
  0
LINE
  5
D75
  8
0
 10
76.300104869275117
 20
86.827409055818279
 30
0.0
 11
76.141357443972254
 21
86.827409055818279
 31
0.0
  0
ARC
  5
D76
  8
0
 10
79.329079792385812
 20
82.43256749226606
 30
0.0
 40
5.3375388948053288
 50
111.3310228776688
 51
124.5750543900396
  0
ARC
  5
D77
  8
0
 10
75.989157927220845
 20
83.84475975497142
 30
0.0
 40
3.824506157103523
 50
51.249432596385653
 51
68.553515529955476
  0
LINE
  5
D78
  8
0
 10
78.54487989997881
 20
86.827409055818279
 30
0.0
 11
78.383035637940452
 21
86.827409055818279
 31
0.0
  0
ARC
  5
D79
  8
0
 10
80.736098926657291
 20
84.195357330219025
 30
0.0
 40
3.4247827827626929
 50
110.44264535447761
 51
129.77784370781981
  0
ARC
  5
D7A
  8
0
 10
77.603418213245732
 20
82.440511724905605
 30
0.0
 40
5.3283016506885543
 50
55.418533172456172
 51
68.688502291838518
  0
LINE
  5
D7B
  8
0
 10
80.786363709463501
 20
86.827409055818279
 30
0.0
 11
80.627642128362083
 21
86.827409055818279
 31
0.0
  0
ARC
  5
D7C
  8
0
 10
83.787597338212876
 20
83.267442338853684
 30
0.0
 40
4.6562609806830961
 50
117.3166550395454
 51
130.13259804840189
  0
ARC
  5
D7D
  8
0
 10
80.945194916484866
 20
84.601892591870779
 30
0.0
 40
2.8900240550165539
 50
50.360039712440937
 51
75.868222032094735
  0
LINE
  5
D7E
  8
0
 10
82.938416883094931
 20
86.827409055818265
 30
0.0
 11
82.78891818944993
 21
86.827409055818265
 31
0.0
  0
ARC
  5
D7F
  8
0
 10
77.539176282873541
 20
94.096660458830854
 30
0.0
 40
9.0550436232676006
 50
306.60313969086121
 51
312.34873940310177
  0
ARC
  5
D80
  8
0
 10
83.115474322616464
 20
84.941735892740553
 30
0.0
 40
2.5177560427653818
 50
48.499497601805643
 51
77.998051975913654
  0
LINE
  5
D81
  8
0
 10
84.918337896211767
 20
86.827409055818265
 30
0.0
 11
84.783806487663412
 21
86.827409055818265
 31
0.0
  0
ARC
  5
D82
  8
0
 10
81.680810220690773
 20
90.20176229581142
 30
0.0
 40
4.6763067946849377
 50
313.81449640395641
 51
323.25981994759638
  0
ARC
  5
D83
  8
0
 10
85.047501058723014
 20
85.322624177135793
 30
0.0
 40
2.1163531208242681
 50
45.318562146476417
 51
79.637017916651502
  0
LINE
  5
D84
  8
0
 10
86.650039557113075
 20
86.827409055818265
 30
0.0
 11
86.535645205273056
 21
86.827409055818265
 31
0.0
  0
ARC
  5
D85
  8
0
 10
86.213602504292794
 20
87.423174575375569
 30
0.0
 40
0.7385213980433162
 50
306.22520537537298
 51
357.90389857242258
  0
ARC
  5
D86
  8
0
 10
86.683472412059075
 20
85.727218777035844
 30
0.0
 40
1.698211290229718
 50
40.379877885191981
 51
80.985530686607376
  0
LINE
  5
D87
  8
0
 10
88.066972348584557
 20
86.827409055818265
 30
0.0
 11
87.977111827327633
 21
86.827409055818265
 31
0.0
  0
ARC
  5
D88
  8
0
 10
87.717255853215761
 20
87.186075208373666
 30
0.0
 40
0.5009421484781943
 50
314.27616761017748
 51
14.163258832541571
  0
ARC
  5
D89
  8
0
 10
87.967530830700625
 20
86.122536830163085
 30
0.0
 40
1.294094097917531
 50
33.003065398569881
 51
82.134169319946565
  0
LINE
  5
D8A
  8
0
 10
89.11468603064003
 20
86.827409055818265
 30
0.0
 11
89.052811752750301
 21
86.827409055818265
 31
0.0
  0
POLYLINE
  5
D8B
  8
0
 66
     1
 10
0.0
 20
0.0
 30
0.0
 70
   128
  0
VERTEX
  5
1244
  8
0
 10
89.154950830831012
 20
87.172008652974313
 30
0.0
  0
VERTEX
  5
1245
  8
0
 10
89.170180748893642
 20
86.996748179931586
 30
0.0
  0
VERTEX
  5
1246
  8
0
 10
89.11468603064003
 20
86.827409055818265
 30
0.0
  0
SEQEND
  5
1247
  8
0
  0
ARC
  5
D8C
  8
0
 10
88.913712006309879
 20
86.522531496191078
 30
0.0
 40
0.8633203404121875
 50
20.67981961305389
 51
78.069147240110425
  0
LINE
  5
D8D
  8
0
 10
89.752915803088626
 20
86.827409055818265
 30
0.0
 11
89.721407297744236
 21
86.827409055818265
 31
0.0
  0
ARC
  5
D8E
  8
0
 10
89.319229232014834
 20
86.928026769284031
 30
0.0
 40
0.4452055325271722
 50
346.9381444067983
 51
7.3119171279145521
  0
ARC
  5
D8F
  8
0
 10
89.368590729538937
 20
86.778804294398043
 30
0.0
 40
0.5906159060972814
 50
4.7204971425153222
 51
57.982469345248589
  0
LINE
  5
D90
  8
0
 10
89.957171607508144
 20
86.827409055818265
 30
0.0
 11
89.957203272475681
 21
86.827409055818265
 31
0.0
  0
ARC
  5
D91
  8
0
 10
77.921866685526993
 20
87.508775897006387
 30
0.0
 40
1.621419262563466
 50
356.31108900306288
 51
20.596946731150251
  0
ARC
  5
D92
  8
0
 10
79.015306246099215
 20
87.50909067952179
 30
0.0
 40
1.6311459110557329
 50
159.5408971222509
 51
183.6779633952444
  0
LINE
  5
D93
  8
0
 10
66.959234442307434
 20
85.398908772308829
 30
0.0
 11
89.959233555688343
 21
85.398908772308744
 31
0.0
  0
ARC
  5
D94
  8
0
 10
76.394788153949037
 20
87.356585178393544
 30
0.0
 40
1.1195133688098129
 50
141.86648624534851
 51
177.5493080023208
  0
ARC
  5
D95
  8
0
 10
80.533032578000928
 20
87.356089177160968
 30
0.0
 40
1.1188159856761171
 50
2.477644787492812
 51
38.180154927721539
  0
ARC
  5
D96
  8
0
 10
74.408707999338219
 20
87.201051072743951
 30
0.0
 40
1.13961146734606
 50
137.52152596088041
 51
169.7184466567968
  0
ARC
  5
D97
  8
0
 10
82.517652269442706
 20
87.200462011598219
 30
0.0
 40
1.1397801959472309
 50
10.31011089246376
 51
42.479055018927198
  0
ARC
  5
D98
  8
0
 10
72.708564428988439
 20
87.031178617850685
 30
0.0
 40
1.2675302338938259
 50
142.791169627388
 51
162.8729695808679
  0
ARC
  5
D99
  8
0
 10
84.216614890046117
 20
87.030561320953723
 30
0.0
 40
1.2679633560545669
 50
17.150189073553161
 51
37.166680105588192
  0
ARC
  5
D9A
  8
0
 10
84.252569487653645
 20
102.3430904892689
 30
0.0
 40
38.928729586279402
 50
270.30417354202041
 51
279.17419717728512
  0
ARC
  5
D9B
  8
0
 10
84.666689798466109
 20
102.3526226815567
 30
0.0
 40
38.938265846562437
 50
260.82689116259172
 51
269.6947381181015
  0
LINE
  5
D9C
  8
0
 10
78.459234464659005
 20
63.912330728758548
 30
0.0
 11
78.459234464659062
 21
81.917486279540185
 31
0.0
  0
ARC
  5
D9D
  8
0
 10
84.665903937416715
 20
43.486778320976242
 30
0.0
 40
38.928679147133813
 50
90.304180399616882
 51
99.174215713897226
  0
ARC
  5
D9E
  8
0
 10
84.251777306068561
 20
43.477275855679459
 30
0.0
 40
38.93818566781713
 50
80.826869235575671
 51
89.694734650911045
  0
ARC
  5
DA1
  8
0
 10
72.252570286767991
 20
102.3430795919965
 30
0.0
 40
38.928718684364398
 50
270.30417229751657
 51
279.1741984217889
  0
ARC
  5
DA2
  8
0
 10
72.251777241526781
 20
43.477276335348733
 30
0.0
 40
38.938185187942871
 50
80.826869180822527
 51
89.694734705663365
  0
ARC
  5
DA4
  8
0
 10
72.666689733922567
 20
102.3526231612082
 30
0.0
 40
38.938266326418898
 50
260.8268912173433
 51
269.69473806335247
  0
ARC
  5
DA6
  8
0
 10
72.665904736522407
 20
43.486767423839552
 30
0.0
 40
38.928690048913161
 50
90.304181644107587
 51
99.174214469408028
  0
LINE
  5
DA7
  8
0
 10
90.45923456896719
 20
82.414908868061644
 30
0.0
 11
90.45923456896719
 21
63.414909479011207
 31
0.0
  0
LINE
  5
DAB
  8
0
 10
66.459234360350933
 20
63.4149094790113
 30
0.0
 11
66.459234360350933
 21
82.414908868063691
 31
0.0
  0
LINE
  5
DAC
  8
0
 10
66.459234360350933
 20
63.4149094790113
 30
0.0
 11
90.45923456896719
 21
63.414909479011307
 31
0.0
  0
LINE
  5
DAE
  8
0
 10
66.45923436035099
 20
82.414908868063691
 30
0.0
 11
90.45923456896719
 21
82.414908868061644
 31
0.0
  0
LINE
  5
DD9
  8
0
 10
66.959234442307434
 20
86.779908810545209
 30
0.0
 11
89.959233555688343
 21
86.779908810545152
 31
0.0
  0
LINE
  5
DDB
  8
0
 10
69.442234489812336
 20
84.542698527489307
 30
0.0
 11
87.476234439506015
 21
84.54269852748925
 31
0.0
  0
LINE
  5
DDD
  8
0
 10
87.349234464659105
 20
84.322727935191637
 30
0.0
 11
69.569234292699775
 21
84.322727935191693
 31
0.0
  0
LINE
  5
DDF
  8
0
 10
69.569234292699718
 20
82.79554378035337
 30
0.0
 11
87.349234636618519
 21
82.795543780353313
 31
0.0
  0
LINE
  5
DE1
  8
1
 10
20.3311350171453
 20
10.41490910648225
 30
0.0
 11
20.331135017145328
 21
91.414908868063705
 31
0.0
  0
LINE
  5
DE2
  8
1
 10
37.187541340757043
 20
128.70974864756911
 30
0.0
 11
3.4747286935335628
 21
128.70974864756911
 31
0.0
  0
LINE
  5
DE3
  8
1
 10
78.459234464659062
 20
10.41490910648224
 30
0.0
 11
78.459234464659062
 21
91.414908868063691
 31
0.0
  0
LINE
  5
DEE
  8
1
 10
20.3311350171453
 20
113.709748543261
 30
0.0
 11
20.3311350171453
 21
143.70974875187721
 31
0.0
  0
CIRCLE
  5
DEF
  8
0
 10
20.3311350171453
 20
128.70974864756911
 30
0.0
 40
12.00000010430815
  0
LINE
  5
E04
  8
0
 10
13.80333501713727
 20
60.417709106482278
 30
0.0
 11
12.3311350171453
 21
57.867783907593058
 31
0.0
  0
LINE
  5
E05
  8
0
 10
28.3311350171453
 20
57.867783907565283
 30
0.0
 11
26.858935017137298
 21
60.417709106482278
 31
0.0
  0
LINE
  5
E06
  8
0
 10
12.3311350171453
 20
15.41490910648224
 30
0.0
 11
28.3311350171453
 21
15.41490910648224
 31
0.0
  0
LINE
  5
E07
  8
0
 10
26.3311350171453
 20
13.41490910648224
 30
0.0
 11
28.3311350171453
 21
15.41490910648224
 31
0.0
  0
LINE
  5
E08
  8
0
 10
12.3311350171453
 20
15.41490910648224
 30
0.0
 11
14.3311350171453
 21
13.41490910648224
 31
0.0
  0
LINE
  5
E09
  8
0
 10
12.3311350171453
 20
15.41490910648224
 30
0.0
 11
12.3311350171453
 21
57.867783907593129
 31
0.0
  0
LINE
  5
E0A
  8
3
 10
13.41363501714528
 20
14.33240910648224
 30
0.0
 11
13.41363501714528
 21
59.742728906786553
 31
0.0
  0
LINE
  5
E0B
  8
3
 10
27.248635017145322
 20
14.33240910648224
 30
0.0
 11
27.248635017145322
 21
59.742728906758678
 31
0.0
  0
LINE
  5
E0C
  8
0
 10
28.3311350171453
 20
15.41490910648224
 30
0.0
 11
28.3311350171453
 21
57.867783907565233
 31
0.0
  0
LINE
  5
E0D
  8
0
 10
14.3311350171453
 20
13.41490910648224
 30
0.0
 11
26.3311350171453
 21
13.41490910648224
 31
0.0
  0
LINE
  5
E0E
  8
0
 10
12.90554717778752
 20
58.862694954310967
 30
0.0
 11
27.756722856486991
 21
58.862694954310967
 31
0.0
  0
ARC
  5
E0F
  8
0
 10
12.279335017137271
 20
61.890909106482241
 30
0.0
 40
1.5240000000000291
 50
0.0
 51
89.999999999999986
  0
ARC
  5
E10
  8
0
 10
28.382935017137299
 20
61.890909106482241
 30
0.0
 40
1.5240000000000291
 50
89.999999999999986
 51
180.0
  0
LINE
  5
E11
  8
0
 10
13.80333501713727
 20
61.890909106482241
 30
0.0
 11
13.80333501713727
 21
60.417709106482278
 31
0.0
  0
LINE
  5
E12
  8
0
 10
26.858935017137298
 20
60.417709106482278
 30
0.0
 11
26.858935017137298
 21
61.890909106482241
 31
0.0
  0
LINE
  5
E13
  8
0
 10
13.80333501713727
 20
60.417709106482278
 30
0.0
 11
26.858935017137298
 21
60.417709106482278
 31
0.0
  0
LINE
  5
E14
  8
0
 10
26.858935017137298
 20
61.890909106482241
 30
0.0
 11
13.80333501713727
 21
61.890909106482241
 31
0.0
  0
LINE
  5
E15
  8
0
 10
71.931434464651034
 20
60.417709106482278
 30
0.0
 11
70.459234464659062
 21
57.867783907593058
 31
0.0
  0
LINE
  5
E16
  8
0
 10
86.459234464659048
 20
57.867783907565283
 30
0.0
 11
84.987034464651046
 21
60.417709106482278
 31
0.0
  0
LINE
  5
E17
  8
0
 10
70.459234464659062
 20
15.41490910648224
 30
0.0
 11
86.459234464659048
 21
15.41490910648224
 31
0.0
  0
LINE
  5
E18
  8
0
 10
84.459234464659062
 20
13.41490910648224
 30
0.0
 11
86.459234464659048
 21
15.41490910648224
 31
0.0
  0
LINE
  5
E19
  8
0
 10
70.459234464659062
 20
15.41490910648224
 30
0.0
 11
72.459234464659062
 21
13.41490910648224
 31
0.0
  0
LINE
  5
E1A
  8
0
 10
70.459234464659062
 20
15.41490910648224
 30
0.0
 11
70.459234464659062
 21
57.867783907593129
 31
0.0
  0
LINE
  5
E1B
  8
3
 10
71.541734464659044
 20
14.33240910648224
 30
0.0
 11
71.541734464659044
 21
59.742728906786553
 31
0.0
  0
LINE
  5
E1C
  8
3
 10
85.376734464659066
 20
14.33240910648224
 30
0.0
 11
85.376734464659066
 21
59.742728906758678
 31
0.0
  0
LINE
  5
E1D
  8
0
 10
86.459234464659048
 20
15.41490910648224
 30
0.0
 11
86.459234464659048
 21
57.867783907565233
 31
0.0
  0
LINE
  5
E1E
  8
0
 10
72.459234464659062
 20
13.41490910648224
 30
0.0
 11
84.459234464659062
 21
13.41490910648224
 31
0.0
  0
LINE
  5
E1F
  8
0
 10
71.033646625301287
 20
58.862694954310967
 30
0.0
 11
85.884822304000735
 21
58.862694954310967
 31
0.0
  0
ARC
  5
E20
  8
0
 10
70.407434464651033
 20
61.890909106482241
 30
0.0
 40
1.5240000000000291
 50
0.0
 51
89.999999999999986
  0
ARC
  5
E21
  8
0
 10
86.511034464651047
 20
61.890909106482241
 30
0.0
 40
1.5240000000000291
 50
89.999999999999986
 51
180.0
  0
LINE
  5
E22
  8
0
 10
71.931434464651034
 20
61.890909106482241
 30
0.0
 11
71.931434464651034
 21
60.417709106482278
 31
0.0
  0
LINE
  5
E23
  8
0
 10
84.987034464651046
 20
60.417709106482278
 30
0.0
 11
84.987034464651046
 21
61.890909106482241
 31
0.0
  0
LINE
  5
E24
  8
0
 10
71.931434464651034
 20
60.417709106482278
 30
0.0
 11
84.987034464651046
 21
60.417709106482278
 31
0.0
  0
LINE
  5
E25
  8
0
 10
84.987034464651046
 20
61.890909106482241
 30
0.0
 11
71.931434464651034
 21
61.890909106482241
 31
0.0
  0
TEXT
  5
EF1
  8
0
 62
     3
 10
0.0
 20
0.0
 30
0.0
 40
5.0
  1
MBUH-16050-80UR
  7
STANDARD1
  0
ENDSEC
  0
EOF
