  0
SECTION
  2
HEADER
  9
$ACADVER
  1
AC1009
  9
$INSBASE
 10
0.0
 20
0.0
 30
0.0
  9
$EXTMIN
 10
0.0
 20
-2.960436562073669
 30
0.0
  9
$EXTMAX
 10
232.0
 20
98.000000000000014
 30
0.0
  9
$LIMMIN
 10
0.0
 20
0.0
  9
$LIMMAX
 10
8410.0
 20
5940.0
  9
$ORTHOMODE
 70
     1
  9
$REGENMODE
 70
     1
  9
$FILLMODE
 70
     1
  9
$QTEXTMODE
 70
     0
  9
$MIRRTEXT
 70
     0
  9
$DRAGMODE
 70
     2
  9
$LTSCALE
 40
10.0
  9
$OSMODE
 70
    37
  9
$ATTMODE
 70
     1
  9
$TEXTSIZE
 40
3.0
  9
$TRACEWID
 40
0.05
  9
$TEXTSTYLE
  7
STANDARD
  9
$CLAYER
  8
0
  9
$CELTYPE
  6
BYLAYER
  9
$CECOLOR
 62
   256
  9
$DIMSCALE
 40
1.0
  9
$DIMASZ
 40
3.0
  9
$DIMEXO
 40
2.0
  9
$DIMDLI
 40
10.0
  9
$DIMRND
 40
0.0
  9
$DIMDLE
 40
0.0
  9
$DIMEXE
 40
2.0
  9
$DIMTP
 40
0.0
  9
$DIMTM
 40
0.0
  9
$DIMTXT
 40
3.0
  9
$DIMCEN
 40
0.0
  9
$DIMTSZ
 40
0.0
  9
$DIMTOL
 70
     0
  9
$DIMLIM
 70
     0
  9
$DIMTIH
 70
     0
  9
$DIMTOH
 70
     0
  9
$DIMSE1
 70
     0
  9
$DIMSE2
 70
     0
  9
$DIMTAD
 70
     1
  9
$DIMZIN
 70
     0
  9
$DIMBLK
  1

  9
$DIMASO
 70
     0
  9
$DIMSHO
 70
     0
  9
$DIMPOST
  1

  9
$DIMAPOST
  1

  9
$DIMALT
 70
     0
  9
$DIMALTD
 70
     2
  9
$DIMALTF
 40
25.399999999999999
  9
$DIMLFAC
 40
1.0
  9
$DIMTOFL
 70
     1
  9
$DIMTVP
 40
1.6000000000000001
  9
$DIMTIX
 70
     1
  9
$DIMSOXD
 70
     0
  9
$DIMSAH
 70
     0
  9
$DIMBLK1
  1

  9
$DIMBLK2
  1

  9
$DIMSTYLE
  2
STANDARD
  9
$DIMCLRD
 70
     0
  9
$DIMCLRE
 70
     0
  9
$DIMCLRT
 70
     0
  9
$DIMTFAC
 40
1.0
  9
$DIMGAP
 40
0.09
  9
$LUNITS
 70
     2
  9
$LUPREC
 70
     2
  9
$SKETCHINC
 40
0.1
  9
$FILLETRAD
 40
2.0
  9
$AUNITS
 70
     0
  9
$AUPREC
 70
     2
  9
$MENU
  1
ME
  9
$ELEVATION
 40
0.0
  9
$PELEVATION
 40
0.0
  9
$THICKNESS
 40
0.0
  9
$LIMCHECK
 70
     0
  9
$BLIPMODE
 70
     0
  9
$CHAMFERA
 40
0.0
  9
$CHAMFERB
 40
0.0
  9
$SKPOLY
 70
     0
  9
$TDCREATE
 40
2451920.3634869209
  9
$TDUPDATE
 40
2456598.7238947572
  9
$TDINDWG
 40
1.1576733796000001
  9
$TDUSRTIMER
 40
2456598.0898020598
  9
$USRTIMER
 70
     1
  9
$ANGBASE
 50
0.0
  9
$ANGDIR
 70
     0
  9
$PDMODE
 70
     0
  9
$PDSIZE
 40
0.0
  9
$PLINEWID
 40
0.0
  9
$COORDS
 70
     1
  9
$SPLFRAME
 70
     0
  9
$SPLINETYPE
 70
     6
  9
$SPLINESEGS
 70
     8
  9
$ATTDIA
 70
     0
  9
$ATTREQ
 70
     1
  9
$HANDLING
 70
     1
  9
$HANDSEED
  5
477
  9
$SURFTAB1
 70
     6
  9
$SURFTAB2
 70
     6
  9
$SURFTYPE
 70
     6
  9
$SURFU
 70
     6
  9
$SURFV
 70
     6
  9
$UCSNAME
  2

  9
$UCSORG
 10
0.0
 20
0.0
 30
0.0
  9
$UCSXDIR
 10
1.0
 20
0.0
 30
0.0
  9
$UCSYDIR
 10
0.0
 20
1.0
 30
0.0
  9
$PUCSNAME
  2

  9
$PUCSORG
 10
0.0
 20
0.0
 30
0.0
  9
$PUCSXDIR
 10
1.0
 20
0.0
 30
0.0
  9
$PUCSYDIR
 10
0.0
 20
1.0
 30
0.0
  9
$USERI1
 70
     1
  9
$USERI2
 70
     1
  9
$USERI3
 70
    10
  9
$USERI4
 70
     1
  9
$USERI5
 70
     0
  9
$USERR1
 40
10.0
  9
$USERR2
 40
3.0
  9
$USERR3
 40
1.5
  9
$USERR4
 40
1.5
  9
$USERR5
 40
10.0
  9
$WORLDVIEW
 70
     1
  9
$SHADEDGE
 70
     3
  9
$SHADEDIF
 70
    70
  9
$TILEMODE
 70
     1
  9
$MAXACTVP
 70
    16
  9
$PLIMCHECK
 70
     0
  9
$PEXTMIN
 10
1.0000000000000000E+020
 20
1.0000000000000000E+020
 30
1.0000000000000000E+020
  9
$PEXTMAX
 10
-1.0000000000000000E+020
 20
-1.0000000000000000E+020
 30
-1.0000000000000000E+020
  9
$PLIMMIN
 10
0.0
 20
0.0
  9
$PLIMMAX
 10
12.0
 20
9.0
  9
$UNITMODE
 70
     0
  9
$VISRETAIN
 70
     0
  9
$PLINEGEN
 70
     0
  9
$PSLTSCALE
 70
     0
  0
ENDSEC
  0
SECTION
  2
TABLES
  0
TABLE
  2
VPORT
 70
     1
  0
VPORT
  2
*ACTIVE
 70
     0
 10
0.0
 20
0.0
 11
1.0
 21
1.0
 12
217.37095518507459
 22
48.914999999999999
 13
0.0
 23
0.0
 14
5.0
 24
5.0
 15
10.0
 25
10.0
 16
0.0
 26
0.0
 36
1.0
 17
0.0
 27
0.0
 37
0.0
 40
249.12828200371061
 41
1.755244755244755
 42
50.0
 43
0.0
 44
0.0
 50
0.0
 51
0.0
 71
    16
 72
   500
 73
     1
 74
     0
 75
     0
 76
     0
 77
     0
 78
     1
  0
ENDTAB
  0
TABLE
  2
LTYPE
 70
     4
  0
LTYPE
  2
CONTINUOUS
 70
     0
  3
Solid Line
 72
    65
 73
     0
 40
0.0
  0
LTYPE
  2
CENTER
 70
     0
  3
____ _ ____ _ ____ _ ____ _ ____ _ ____ _ ____
 72
    65
 73
     4
 40
2.0
 49
1.25
 49
-0.25
 49
0.25
 49
-0.25
  0
LTYPE
  2
HIDDEN
 70
     0
  3
_ _ _ _ _ _ _ _ _ _ _ _ _ _ _ _ _ _ _ _ _ _ _
 72
    65
 73
     2
 40
0.375
 49
0.25
 49
-0.125
  0
LTYPE
  2
PHANTOM2
 70
     0
  3
___ _ _ ___ _ _ ___ _ _ ___ _ _
 72
    65
 73
     6
 40
1.25
 49
0.625
 49
-0.125
 49
0.125
 49
-0.125
 49
0.125
 49
-0.125
  0
ENDTAB
  0
TABLE
  2
LAYER
 70
     4
  0
LAYER
  2
0
 70
     0
 62
     7
  6
CONTINUOUS
  0
LAYER
  2
1
 70
     0
 62
     1
  6
CENTER
  0
LAYER
  2
2
 70
     0
 62
     2
  6
HIDDEN
  0
LAYER
  2
3
 70
     0
 62
     3
  6
CONTINUOUS
  0
ENDTAB
  0
TABLE
  2
STYLE
 70
     2
  0
STYLE
  2
STANDARD
 70
     0
 40
0.0
 41
1.0
 50
0.0
 71
     0
 42
3.0
  3
C:/r13/com/fonts/Romans
  4
C:/r13/com/fonts/Extfont
  0
STYLE
  2
STANDARD1
 70
     0
 40
0.0
 41
1.0
 50
0.0
 71
     0
 42
3.0
  3
txt
  4

  0
ENDTAB
  0
TABLE
  2
VIEW
 70
     0
  0
ENDTAB
  0
TABLE
  2
UCS
 70
     0
  0
ENDTAB
  0
TABLE
  2
APPID
 70
     7
  0
APPID
  2
ACAD
 70
     0
  0
APPID
  2
ACAD_PSEXT
 70
     0
  0
APPID
  2
ACAD_EXEMPT_FROM_CAD_STANDARDS
 70
     0
  0
APPID
  2
ACAD_DSTYLE_DIMJAG
 70
     0
  0
APPID
  2
ACAD_DSTYLE_DIMTALN
 70
     0
  0
APPID
  2
ACAD_MLEADERVER
 70
     0
  0
APPID
  2
ACAD_NAV_VCDISPLAY
 70
     0
  0
ENDTAB
  0
TABLE
  2
DIMSTYLE
 70
     1
  0
DIMSTYLE
  2
STANDARD
 70
     0
  3

  4

  5

  6

  7

 40
1.0
 41
0.18
 42
0.0625
 43
0.38
 44
0.18
 45
0.0
 46
0.0
 47
0.0
 48
0.0
140
0.18
141
0.09
142
0.0
143
25.399999999999999
144
1.0
145
0.0
146
1.0
147
0.09
 71
     0
 72
     0
 73
     1
 74
     1
 75
     0
 76
     0
 77
     0
 78
     0
170
     0
171
     2
172
     0
173
     0
174
     0
175
     0
176
     0
177
     0
178
     0
  0
ENDTAB
  0
ENDSEC
  0
SECTION
  2
BLOCKS
  0
BLOCK
  8
0
  2
$MODEL_SPACE
 70
     0
 10
0.0
 20
0.0
 30
0.0
  3
$MODEL_SPACE
  1

  0
ENDBLK
  5
AC
  8
0
  0
BLOCK
 67
     1
  8
0
  2
$PAPER_SPACE
 70
     0
 10
0.0
 20
0.0
 30
0.0
  3
$PAPER_SPACE
  1

  0
ENDBLK
  5
AA
 67
     1
  8
0
  0
ENDSEC
  0
SECTION
  2
ENTITIES
  0
LINE
  5
3C
  8
0
 10
81.5
 20
60.0
 30
0.0
 11
81.0
 21
59.499999999999993
 31
0.0
  0
LINE
  5
3D
  8
0
 10
100.5
 20
60.0
 30
0.0
 11
101.0
 21
59.499999999999993
 31
0.0
  0
LINE
  5
3E
  8
0
 10
81.5
 20
60.0
 30
0.0
 11
100.5
 21
60.0
 31
0.0
  0
LINE
  5
3F
  8
0
 10
101.0
 20
50.499999999999993
 30
0.0
 11
100.5
 21
50.0
 31
0.0
  0
LINE
  5
40
  8
0
 10
101.0
 20
59.499999999999993
 30
0.0
 11
101.0
 21
50.499999999999993
 31
0.0
  0
LINE
  5
41
  8
0
 10
101.0
 20
53.499999999999993
 30
0.0
 11
81.0
 21
53.499999999999993
 31
0.0
  0
LINE
  5
42
  8
0
 10
81.0
 20
54.499999999999993
 30
0.0
 11
101.0
 21
54.499999999999993
 31
0.0
  0
LINE
  5
43
  8
0
 10
81.0
 20
59.499999999999993
 30
0.0
 11
81.0
 21
50.499999999999993
 31
0.0
  0
LINE
  5
44
  8
0
 10
81.0
 20
50.499999999999993
 30
0.0
 11
81.5
 21
50.0
 31
0.0
  0
LINE
  5
48
  8
0
 10
81.5
 20
50.0
 30
0.0
 11
100.5
 21
50.0
 31
0.0
  0
LINE
  5
49
  8
0
 10
100.5
 20
93.000000000000014
 30
0.0
 11
81.499999999999986
 21
93.000000000000014
 31
0.0
  0
LINE
  5
4A
  8
0
 10
80.999999999999986
 20
92.500000000000014
 30
0.0
 11
80.999999999999986
 21
77.499999999999986
 31
0.0
  0
LINE
  5
4B
  8
0
 10
81.499999999999986
 20
76.999999999999986
 30
0.0
 11
100.5
 21
76.999999999999986
 31
0.0
  0
LINE
  5
4C
  8
0
 10
101.0
 20
77.499999999999986
 30
0.0
 11
101.0
 21
92.500000000000014
 31
0.0
  0
LINE
  5
4D
  8
1
 10
106.0
 20
84.999999999999986
 30
0.0
 11
75.999999999999986
 21
84.999999999999986
 31
0.0
  0
LINE
  5
4E
  8
1
 10
91.0
 20
98.000000000000014
 30
0.0
 11
91.0
 21
71.999999999999986
 31
0.0
  0
LINE
  5
51
  8
0
 10
81.499999999999986
 20
76.999999999999986
 30
0.0
 11
80.999999999999986
 21
77.499999999999986
 31
0.0
  0
LINE
  5
52
  8
0
 10
100.5
 20
76.999999999999986
 30
0.0
 11
101.0
 21
77.499999999999986
 31
0.0
  0
LINE
  5
53
  8
0
 10
101.0
 20
92.500000000000014
 30
0.0
 11
100.5
 21
93.000000000000014
 31
0.0
  0
LINE
  5
54
  8
0
 10
81.499999999999986
 20
93.000000000000014
 30
0.0
 11
80.999999999999986
 21
92.500000000000014
 31
0.0
  0
LINE
  5
59
  8
0
 10
50.5
 20
60.0
 30
0.0
 11
65.5
 21
60.0
 31
0.0
  0
LINE
  5
5A
  8
1
 10
58.0
 20
37.599999999999902
 30
0.0
 11
58.0
 21
65.000000000000455
 31
0.0
  0
LINE
  5
5B
  8
0
 10
50.0
 20
59.500000000000007
 30
0.0
 11
50.5
 21
60.0
 31
0.0
  0
LINE
  5
5C
  8
0
 10
50.0
 20
54.500000000000007
 30
0.0
 11
50.0
 21
59.500000000000007
 31
0.0
  0
LINE
  5
5D
  8
0
 10
52.5
 20
50.0
 30
0.0
 11
52.0
 21
50.5
 31
0.0
  0
LINE
  5
5E
  8
0
 10
52.5
 20
53.500000000000007
 30
0.0
 11
52.5
 21
54.500000000000007
 31
0.0
  0
LINE
  5
5F
  8
0
 10
52.0
 20
53.500000000000007
 30
0.0
 11
52.5
 21
53.500000000000007
 31
0.0
  0
LINE
  5
60
  8
0
 10
52.5
 20
54.500000000000007
 30
0.0
 11
50.0
 21
54.500000000000007
 31
0.0
  0
LINE
  5
61
  8
0
 10
52.0
 20
50.5
 30
0.0
 11
52.0
 21
53.500000000000007
 31
0.0
  0
LINE
  5
62
  8
0
 10
63.5
 20
54.500000000000007
 30
0.0
 11
66.0
 21
54.500000000000007
 31
0.0
  0
LINE
  5
63
  8
0
 10
63.5
 20
53.500000000000007
 30
0.0
 11
63.5
 21
54.500000000000007
 31
0.0
  0
LINE
  5
64
  8
0
 10
64.0
 20
53.500000000000007
 30
0.0
 11
63.5
 21
53.500000000000007
 31
0.0
  0
LINE
  5
65
  8
0
 10
63.5
 20
50.0
 30
0.0
 11
64.0
 21
50.5
 31
0.0
  0
LINE
  5
66
  8
0
 10
64.0
 20
50.5
 30
0.0
 11
64.0
 21
53.500000000000007
 31
0.0
  0
LINE
  5
67
  8
0
 10
66.0
 20
54.500000000000007
 30
0.0
 11
66.0
 21
59.500000000000007
 31
0.0
  0
LINE
  5
68
  8
0
 10
66.0
 20
59.500000000000007
 30
0.0
 11
65.5
 21
60.0
 31
0.0
  0
LINE
  5
69
  8
0
 10
52.5
 20
50.0
 30
0.0
 11
63.5
 21
50.0
 31
0.0
  0
CIRCLE
  5
18B
  8
0
 10
91.0
 20
84.999999999999986
 30
0.0
 40
4.75
  0
LINE
  5
194
  8
2
 10
95.750000000000014
 20
54.599999999999902
 30
0.0
 11
95.750000000000014
 21
60.0
 31
0.0
  0
LINE
  5
195
  8
2
 10
93.75
 20
54.599999999999902
 30
0.0
 11
93.75
 21
50.0
 31
0.0
  0
LINE
  5
196
  8
2
 10
88.250000000000014
 20
54.599999999999902
 30
0.0
 11
88.250000000000014
 21
50.0
 31
0.0
  0
LINE
  5
197
  8
2
 10
86.25
 20
54.599999999999902
 30
0.0
 11
86.25
 21
60.0
 31
0.0
  0
LINE
  5
198
  8
2
 10
95.750000000000014
 20
54.599999999999902
 30
0.0
 11
86.25
 21
54.599999999999902
 31
0.0
  0
LINE
  5
199
  8
2
 10
62.75
 20
54.599999999999909
 30
0.0
 11
53.25
 21
54.599999999999909
 31
0.0
  0
LINE
  5
19A
  8
2
 10
53.25
 20
54.599999999999909
 30
0.0
 11
53.25
 21
60.0
 31
0.0
  0
LINE
  5
19B
  8
2
 10
55.25
 20
54.599999999999909
 30
0.0
 11
55.25
 21
50.0
 31
0.0
  0
LINE
  5
19C
  8
2
 10
60.75
 20
54.599999999999909
 30
0.0
 11
60.75
 21
50.0
 31
0.0
  0
LINE
  5
19D
  8
2
 10
62.75
 20
54.599999999999909
 30
0.0
 11
62.75
 21
60.0
 31
0.0
  0
LINE
  5
26D
  8
0
 10
89.000000000000227
 20
83.845299461620954
 30
0.0
 11
91.000000000000213
 21
82.690598923241623
 31
0.0
  0
LINE
  5
26E
  8
0
 10
91.000000000000213
 20
82.690598923241623
 30
0.0
 11
93.0
 21
83.845299461620954
 31
0.0
  0
LINE
  5
26F
  8
0
 10
93.0
 20
83.845299461620954
 30
0.0
 11
93.0
 21
86.154700538379771
 31
0.0
  0
LINE
  5
270
  8
0
 10
93.0
 20
86.154700538379771
 30
0.0
 11
91.0
 21
87.309401076758604
 31
0.0
  0
LINE
  5
271
  8
0
 10
91.0
 20
87.309401076758604
 30
0.0
 11
88.999999999999773
 21
86.154700538379075
 31
0.0
  0
LINE
  5
272
  8
0
 10
88.999999999999773
 20
86.154700538379075
 30
0.0
 11
89.000000000000227
 21
83.845299461620954
 31
0.0
  0
CIRCLE
  5
273
  8
0
 10
91.0
 20
85.000000000000014
 30
0.0
 40
4.25
  0
LINE
  5
29A
  8
2
 10
88.932999999999822
 20
52.199999999999889
 30
0.0
 11
88.499999999999986
 21
52.94997799967684
 31
0.0
  0
LINE
  5
29B
  8
2
 10
93.067000000000178
 20
52.199999999999889
 30
0.0
 11
93.499999999999986
 21
52.94997799967684
 31
0.0
  0
LINE
  5
29C
  8
2
 10
93.499999999999986
 20
52.199999999999889
 30
0.0
 11
88.499999999999986
 21
52.199999999999889
 31
0.0
  0
LINE
  5
29D
  8
2
 10
93.499999999999986
 20
54.599999999999902
 30
0.0
 11
93.499999999999972
 21
49.999999999999957
 31
0.0
  0
LINE
  5
29E
  8
2
 10
93.067000000000178
 20
52.19999999999991
 30
0.0
 11
93.067000000000178
 21
49.999999999999979
 31
0.0
  0
LINE
  5
29F
  8
2
 10
88.932999999999794
 20
52.199999999999889
 30
0.0
 11
88.932999999999794
 21
49.999999999999979
 31
0.0
  0
LINE
  5
2A0
  8
2
 10
88.499999999999986
 20
54.599999999999902
 30
0.0
 11
88.499999999999972
 21
49.999999999999957
 31
0.0
  0
LINE
  5
2A1
  8
2
 10
86.75
 20
59.299999999999919
 30
0.0
 11
87.269615242270618
 21
59.599999999999902
 31
0.0
  0
LINE
  5
2A2
  8
2
 10
95.25
 20
59.299999999999891
 30
0.0
 11
94.730384757729325
 21
59.599999999999902
 31
0.0
  0
LINE
  5
2A3
  8
2
 10
86.75
 20
59.299999999999891
 30
0.0
 11
95.25
 21
59.299999999999898
 31
0.0
  0
LINE
  5
2A4
  8
2
 10
87.269615242270618
 20
59.599999999999902
 30
0.0
 11
94.730384757729325
 21
59.599999999999902
 31
0.0
  0
LINE
  5
2A5
  8
2
 10
86.75
 20
54.599999999999902
 30
0.0
 11
86.75
 21
59.299999999999891
 31
0.0
  0
LINE
  5
2A6
  8
2
 10
95.25
 20
59.299999999999898
 30
0.0
 11
95.25
 21
54.599999999999902
 31
0.0
  0
LINE
  5
2A7
  8
0
 10
93.499999999999972
 20
43.499999999999929
 30
0.0
 11
88.499999999999972
 21
43.499999999999929
 31
0.0
  0
LINE
  5
2A8
  8
0
 10
89.399999999999963
 20
42.599999999999902
 30
0.0
 11
88.499999999999972
 21
43.499999999999901
 31
0.0
  0
LINE
  5
2A9
  8
0
 10
93.499999999999972
 20
43.499999999999901
 30
0.0
 11
92.599999999999966
 21
42.599999999999902
 31
0.0
  0
LINE
  5
2AA
  8
0
 10
92.599999999999966
 20
42.599999999999902
 30
0.0
 11
89.399999999999963
 21
42.599999999999902
 31
0.0
  0
LINE
  5
2AB
  8
0
 10
93.499999999999972
 20
49.999999999999957
 30
0.0
 11
93.499999999999972
 21
43.499999999999901
 31
0.0
  0
LINE
  5
2AC
  8
3
 10
93.067000000000206
 20
49.999999999999979
 30
0.0
 11
93.067000000000178
 21
43.067000000000142
 31
0.0
  0
LINE
  5
2AD
  8
3
 10
88.932999999999794
 20
49.999999999999979
 30
0.0
 11
88.932999999999765
 21
43.067000000000093
 31
0.0
  0
LINE
  5
2AE
  8
0
 10
88.499999999999943
 20
49.999999999999957
 30
0.0
 11
88.499999999999972
 21
43.499999999999901
 31
0.0
  0
LINE
  5
2AF
  8
2
 10
55.932999999999822
 20
52.19999999999991
 30
0.0
 11
55.5
 21
52.949977999676847
 31
0.0
  0
LINE
  5
2B0
  8
2
 10
60.067000000000178
 20
52.19999999999991
 30
0.0
 11
60.5
 21
52.949977999676847
 31
0.0
  0
LINE
  5
2B1
  8
2
 10
60.5
 20
52.19999999999991
 30
0.0
 11
55.5
 21
52.19999999999991
 31
0.0
  0
LINE
  5
2B2
  8
2
 10
60.5
 20
54.599999999999909
 30
0.0
 11
60.499999999999972
 21
49.999999999999979
 31
0.0
  0
LINE
  5
2B3
  8
2
 10
60.067000000000178
 20
52.199999999999918
 30
0.0
 11
60.067000000000178
 21
50.0
 31
0.0
  0
LINE
  5
2B4
  8
2
 10
55.932999999999787
 20
52.19999999999991
 30
0.0
 11
55.932999999999787
 21
50.0
 31
0.0
  0
LINE
  5
2B5
  8
2
 10
55.5
 20
54.599999999999909
 30
0.0
 11
55.499999999999972
 21
49.999999999999979
 31
0.0
  0
LINE
  5
2B6
  8
2
 10
53.75
 20
59.299999999999933
 30
0.0
 11
54.269615242270618
 21
59.599999999999909
 31
0.0
  0
LINE
  5
2B7
  8
2
 10
62.25
 20
59.299999999999898
 30
0.0
 11
61.730384757729333
 21
59.599999999999909
 31
0.0
  0
LINE
  5
2B8
  8
2
 10
53.75
 20
59.299999999999898
 30
0.0
 11
62.25
 21
59.299999999999919
 31
0.0
  0
LINE
  5
2B9
  8
2
 10
54.269615242270618
 20
59.599999999999909
 30
0.0
 11
61.730384757729333
 21
59.599999999999909
 31
0.0
  0
LINE
  5
2BA
  8
2
 10
53.75
 20
54.599999999999909
 30
0.0
 11
53.75
 21
59.299999999999898
 31
0.0
  0
LINE
  5
2BB
  8
2
 10
62.25
 20
59.299999999999919
 30
0.0
 11
62.25
 21
54.599999999999909
 31
0.0
  0
LINE
  5
2BC
  8
0
 10
60.499999999999972
 20
43.499999999999929
 30
0.0
 11
55.499999999999972
 21
43.499999999999929
 31
0.0
  0
LINE
  5
2BD
  8
0
 10
56.39999999999997
 20
42.599999999999902
 30
0.0
 11
55.499999999999972
 21
43.499999999999901
 31
0.0
  0
LINE
  5
2BE
  8
0
 10
60.499999999999972
 20
43.499999999999901
 30
0.0
 11
59.599999999999973
 21
42.599999999999902
 31
0.0
  0
LINE
  5
2BF
  8
0
 10
59.599999999999973
 20
42.599999999999902
 30
0.0
 11
56.39999999999997
 21
42.599999999999902
 31
0.0
  0
LINE
  5
2C0
  8
0
 10
60.499999999999972
 20
49.999999999999979
 30
0.0
 11
60.499999999999972
 21
43.499999999999901
 31
0.0
  0
LINE
  5
2C1
  8
3
 10
60.067000000000199
 20
50.0
 30
0.0
 11
60.067000000000178
 21
43.067000000000142
 31
0.0
  0
LINE
  5
2C2
  8
3
 10
55.932999999999787
 20
50.0
 30
0.0
 11
55.932999999999772
 21
43.067000000000107
 31
0.0
  0
LINE
  5
2C3
  8
0
 10
55.499999999999943
 20
49.999999999999979
 30
0.0
 11
55.499999999999972
 21
43.499999999999901
 31
0.0
  0
LINE
  5
2DD
  8
1
 10
91.0
 20
37.599999999999888
 30
0.0
 11
91.0
 21
65.000000000000441
 31
0.0
  0
LINE
  5
2DF
  8
0
 10
200.5
 20
59.999999999999993
 30
0.0
 11
201.0
 21
59.499999999999993
 31
0.0
  0
LINE
  5
2E0
  8
0
 10
181.5
 20
59.999999999999993
 30
0.0
 11
181.0
 21
59.499999999999993
 31
0.0
  0
LINE
  5
2E1
  8
0
 10
200.5
 20
59.999999999999993
 30
0.0
 11
181.5
 21
59.999999999999993
 31
0.0
  0
LINE
  5
2E2
  8
0
 10
181.0
 20
50.499999999999979
 30
0.0
 11
181.5
 21
49.999999999999993
 31
0.0
  0
LINE
  5
2E3
  8
0
 10
181.0
 20
59.499999999999993
 30
0.0
 11
181.0
 21
50.499999999999979
 31
0.0
  0
LINE
  5
2E4
  8
0
 10
181.0
 20
53.499999999999979
 30
0.0
 11
201.0
 21
53.499999999999979
 31
0.0
  0
LINE
  5
2E5
  8
0
 10
201.0
 20
54.499999999999993
 30
0.0
 11
181.0
 21
54.499999999999993
 31
0.0
  0
LINE
  5
2E6
  8
0
 10
201.0
 20
59.499999999999993
 30
0.0
 11
201.0
 21
50.499999999999979
 31
0.0
  0
LINE
  5
2E7
  8
0
 10
201.0
 20
50.499999999999979
 30
0.0
 11
200.5
 21
49.999999999999993
 31
0.0
  0
LINE
  5
2E8
  8
0
 10
200.5
 20
49.999999999999993
 30
0.0
 11
181.5
 21
50.0
 31
0.0
  0
LINE
  5
2E9
  8
0
 10
181.5
 20
93.0
 30
0.0
 11
200.5
 21
93.0
 31
0.0
  0
LINE
  5
2EA
  8
0
 10
201.0
 20
92.5
 30
0.0
 11
201.0
 21
77.499999999999972
 31
0.0
  0
LINE
  5
2EB
  8
0
 10
200.5
 20
76.999999999999972
 30
0.0
 11
181.5
 21
76.999999999999972
 31
0.0
  0
LINE
  5
2EC
  8
0
 10
181.0
 20
77.499999999999972
 30
0.0
 11
181.0
 21
92.5
 31
0.0
  0
LINE
  5
2ED
  8
1
 10
176.0
 20
84.999999999999986
 30
0.0
 11
206.0
 21
84.999999999999986
 31
0.0
  0
LINE
  5
2EE
  8
1
 10
191.0
 20
98.0
 30
0.0
 11
191.0
 21
71.999999999999972
 31
0.0
  0
LINE
  5
2EF
  8
0
 10
200.5
 20
76.999999999999972
 30
0.0
 11
201.0
 21
77.499999999999972
 31
0.0
  0
LINE
  5
2F0
  8
0
 10
181.5
 20
76.999999999999972
 30
0.0
 11
181.0
 21
77.499999999999972
 31
0.0
  0
LINE
  5
2F1
  8
0
 10
181.0
 20
92.5
 30
0.0
 11
181.5
 21
93.0
 31
0.0
  0
LINE
  5
2F2
  8
0
 10
200.5
 20
93.0
 30
0.0
 11
201.0
 21
92.5
 31
0.0
  0
LINE
  5
2F3
  8
0
 10
231.5
 20
60.0
 30
0.0
 11
216.5
 21
60.0
 31
0.0
  0
LINE
  5
2F4
  8
1
 10
224.0
 20
37.599999999999902
 30
0.0
 11
224.0
 21
65.000000000000455
 31
0.0
  0
LINE
  5
2F5
  8
0
 10
232.0
 20
59.5
 30
0.0
 11
231.5
 21
60.0
 31
0.0
  0
LINE
  5
2F6
  8
0
 10
232.0
 20
54.5
 30
0.0
 11
232.0
 21
59.5
 31
0.0
  0
LINE
  5
2F7
  8
0
 10
229.5
 20
50.0
 30
0.0
 11
230.0
 21
50.5
 31
0.0
  0
LINE
  5
2F8
  8
0
 10
229.5
 20
53.5
 30
0.0
 11
229.5
 21
54.5
 31
0.0
  0
LINE
  5
2F9
  8
0
 10
230.0
 20
53.5
 30
0.0
 11
229.5
 21
53.5
 31
0.0
  0
LINE
  5
2FA
  8
0
 10
229.5
 20
54.5
 30
0.0
 11
232.0
 21
54.5
 31
0.0
  0
LINE
  5
2FB
  8
0
 10
230.0
 20
50.5
 30
0.0
 11
230.0
 21
53.5
 31
0.0
  0
LINE
  5
2FC
  8
0
 10
218.5
 20
54.5
 30
0.0
 11
216.0
 21
54.5
 31
0.0
  0
LINE
  5
2FD
  8
0
 10
218.5
 20
53.5
 30
0.0
 11
218.5
 21
54.5
 31
0.0
  0
LINE
  5
2FE
  8
0
 10
218.0
 20
53.5
 30
0.0
 11
218.5
 21
53.5
 31
0.0
  0
LINE
  5
2FF
  8
0
 10
218.5
 20
50.0
 30
0.0
 11
218.0
 21
50.5
 31
0.0
  0
LINE
  5
300
  8
0
 10
218.0
 20
50.5
 30
0.0
 11
218.0
 21
53.5
 31
0.0
  0
LINE
  5
301
  8
0
 10
216.0
 20
54.5
 30
0.0
 11
216.0
 21
59.5
 31
0.0
  0
LINE
  5
302
  8
0
 10
216.0
 20
59.5
 30
0.0
 11
216.5
 21
60.0
 31
0.0
  0
LINE
  5
303
  8
0
 10
229.5
 20
50.0
 30
0.0
 11
218.5
 21
50.0
 31
0.0
  0
CIRCLE
  5
304
  8
0
 10
191.0
 20
84.999999999999986
 30
0.0
 40
4.75
  0
LINE
  5
305
  8
2
 10
186.25
 20
54.599999999999902
 30
0.0
 11
186.25
 21
59.999999999999993
 31
0.0
  0
LINE
  5
306
  8
2
 10
188.25
 20
54.599999999999902
 30
0.0
 11
188.25
 21
49.999999999999993
 31
0.0
  0
LINE
  5
307
  8
2
 10
193.75
 20
54.599999999999902
 30
0.0
 11
193.75
 21
49.999999999999993
 31
0.0
  0
LINE
  5
308
  8
2
 10
195.75
 20
54.599999999999902
 30
0.0
 11
195.75
 21
59.999999999999993
 31
0.0
  0
LINE
  5
309
  8
2
 10
186.25
 20
54.599999999999902
 30
0.0
 11
195.75
 21
54.599999999999902
 31
0.0
  0
LINE
  5
30A
  8
2
 10
219.25
 20
54.599999999999909
 30
0.0
 11
228.75
 21
54.599999999999909
 31
0.0
  0
LINE
  5
30B
  8
2
 10
228.75
 20
54.599999999999909
 30
0.0
 11
228.75
 21
60.0
 31
0.0
  0
LINE
  5
30C
  8
2
 10
226.75
 20
54.599999999999909
 30
0.0
 11
226.75
 21
50.0
 31
0.0
  0
LINE
  5
30D
  8
2
 10
221.25
 20
54.599999999999909
 30
0.0
 11
221.25
 21
50.0
 31
0.0
  0
LINE
  5
30E
  8
2
 10
219.25
 20
54.599999999999909
 30
0.0
 11
219.25
 21
60.0
 31
0.0
  0
LINE
  5
30F
  8
0
 10
192.99999999999969
 20
83.845299461620925
 30
0.0
 11
190.9999999999998
 21
82.690598923241623
 31
0.0
  0
LINE
  5
310
  8
0
 10
190.9999999999998
 20
82.690598923241623
 30
0.0
 11
189.0
 21
83.845299461620925
 31
0.0
  0
LINE
  5
311
  8
0
 10
189.0
 20
83.845299461620925
 30
0.0
 11
189.0
 21
86.154700538379757
 31
0.0
  0
LINE
  5
312
  8
0
 10
189.0
 20
86.154700538379757
 30
0.0
 11
191.0
 21
87.309401076758604
 31
0.0
  0
LINE
  5
313
  8
0
 10
191.0
 20
87.309401076758604
 30
0.0
 11
193.0000000000002
 21
86.154700538379075
 31
0.0
  0
LINE
  5
314
  8
0
 10
193.0000000000002
 20
86.154700538379075
 30
0.0
 11
192.99999999999969
 21
83.845299461620925
 31
0.0
  0
CIRCLE
  5
315
  8
0
 10
191.0
 20
85.0
 30
0.0
 40
4.25
  0
LINE
  5
316
  8
2
 10
193.06700000000021
 20
52.199999999999889
 30
0.0
 11
193.5
 21
52.949977999676832
 31
0.0
  0
LINE
  5
317
  8
2
 10
188.93299999999979
 20
52.199999999999889
 30
0.0
 11
188.5
 21
52.949977999676832
 31
0.0
  0
LINE
  5
318
  8
2
 10
188.5
 20
52.199999999999889
 30
0.0
 11
193.5
 21
52.199999999999889
 31
0.0
  0
LINE
  5
319
  8
2
 10
188.5
 20
54.599999999999902
 30
0.0
 11
188.5
 21
49.999999999999957
 31
0.0
  0
LINE
  5
31A
  8
2
 10
188.93299999999979
 20
52.199999999999903
 30
0.0
 11
188.93299999999979
 21
49.999999999999972
 31
0.0
  0
LINE
  5
31B
  8
2
 10
193.06700000000021
 20
52.199999999999889
 30
0.0
 11
193.06700000000021
 21
49.999999999999972
 31
0.0
  0
LINE
  5
31C
  8
2
 10
193.5
 20
54.599999999999902
 30
0.0
 11
193.5
 21
49.999999999999957
 31
0.0
  0
LINE
  5
31D
  8
2
 10
195.25
 20
59.299999999999912
 30
0.0
 11
194.73038475772941
 21
59.599999999999902
 31
0.0
  0
LINE
  5
31E
  8
2
 10
186.75
 20
59.299999999999891
 30
0.0
 11
187.26961524227059
 21
59.599999999999902
 31
0.0
  0
LINE
  5
31F
  8
2
 10
195.25
 20
59.299999999999891
 30
0.0
 11
186.75
 21
59.299999999999891
 31
0.0
  0
LINE
  5
320
  8
2
 10
194.73038475772941
 20
59.599999999999902
 30
0.0
 11
187.26961524227059
 21
59.599999999999902
 31
0.0
  0
LINE
  5
321
  8
2
 10
195.25
 20
54.599999999999902
 30
0.0
 11
195.25
 21
59.299999999999891
 31
0.0
  0
LINE
  5
322
  8
2
 10
186.75
 20
59.299999999999891
 30
0.0
 11
186.75
 21
54.599999999999902
 31
0.0
  0
LINE
  5
323
  8
0
 10
188.5
 20
43.499999999999929
 30
0.0
 11
193.5
 21
43.499999999999929
 31
0.0
  0
LINE
  5
324
  8
0
 10
192.59999999999999
 20
42.599999999999902
 30
0.0
 11
193.5
 21
43.499999999999893
 31
0.0
  0
LINE
  5
325
  8
0
 10
188.5
 20
43.499999999999893
 30
0.0
 11
189.40000000000001
 21
42.599999999999902
 31
0.0
  0
LINE
  5
326
  8
0
 10
189.40000000000001
 20
42.599999999999902
 30
0.0
 11
192.59999999999999
 21
42.599999999999902
 31
0.0
  0
LINE
  5
327
  8
0
 10
188.5
 20
49.999999999999957
 30
0.0
 11
188.5
 21
43.499999999999893
 31
0.0
  0
LINE
  5
328
  8
3
 10
188.93299999999979
 20
49.999999999999972
 30
0.0
 11
188.93299999999979
 21
43.067000000000128
 31
0.0
  0
LINE
  5
329
  8
3
 10
193.06700000000021
 20
49.999999999999972
 30
0.0
 11
193.06700000000021
 21
43.067000000000078
 31
0.0
  0
LINE
  5
32A
  8
0
 10
193.5
 20
49.999999999999957
 30
0.0
 11
193.5
 21
43.499999999999893
 31
0.0
  0
LINE
  5
32B
  8
2
 10
226.06700000000021
 20
52.199999999999903
 30
0.0
 11
226.5
 21
52.949977999676847
 31
0.0
  0
LINE
  5
32C
  8
2
 10
221.93299999999979
 20
52.199999999999903
 30
0.0
 11
221.5
 21
52.949977999676847
 31
0.0
  0
LINE
  5
32D
  8
2
 10
221.5
 20
52.199999999999903
 30
0.0
 11
226.5
 21
52.199999999999903
 31
0.0
  0
LINE
  5
32E
  8
2
 10
221.5
 20
54.599999999999909
 30
0.0
 11
221.5
 21
49.999999999999972
 31
0.0
  0
LINE
  5
32F
  8
2
 10
221.93299999999979
 20
52.19999999999991
 30
0.0
 11
221.93299999999979
 21
49.999999999999993
 31
0.0
  0
LINE
  5
330
  8
2
 10
226.06700000000021
 20
52.199999999999903
 30
0.0
 11
226.06700000000021
 21
49.999999999999993
 31
0.0
  0
LINE
  5
331
  8
2
 10
226.5
 20
54.599999999999909
 30
0.0
 11
226.5
 21
49.999999999999972
 31
0.0
  0
LINE
  5
332
  8
2
 10
228.25
 20
59.299999999999919
 30
0.0
 11
227.73038475772941
 21
59.599999999999909
 31
0.0
  0
LINE
  5
333
  8
2
 10
219.75
 20
59.299999999999891
 30
0.0
 11
220.2696152422707
 21
59.599999999999909
 31
0.0
  0
LINE
  5
334
  8
2
 10
228.25
 20
59.299999999999891
 30
0.0
 11
219.75
 21
59.299999999999912
 31
0.0
  0
LINE
  5
335
  8
2
 10
227.73038475772941
 20
59.599999999999909
 30
0.0
 11
220.2696152422707
 21
59.599999999999909
 31
0.0
  0
LINE
  5
336
  8
2
 10
228.25
 20
54.599999999999909
 30
0.0
 11
228.25
 21
59.299999999999891
 31
0.0
  0
LINE
  5
337
  8
2
 10
219.75
 20
59.299999999999912
 30
0.0
 11
219.75
 21
54.599999999999909
 31
0.0
  0
LINE
  5
338
  8
0
 10
221.5
 20
43.499999999999929
 30
0.0
 11
226.5
 21
43.499999999999929
 31
0.0
  0
LINE
  5
339
  8
0
 10
225.59999999999999
 20
42.599999999999902
 30
0.0
 11
226.5
 21
43.499999999999893
 31
0.0
  0
LINE
  5
33A
  8
0
 10
221.5
 20
43.499999999999893
 30
0.0
 11
222.40000000000001
 21
42.599999999999902
 31
0.0
  0
LINE
  5
33B
  8
0
 10
222.40000000000001
 20
42.599999999999902
 30
0.0
 11
225.59999999999999
 21
42.599999999999902
 31
0.0
  0
LINE
  5
33C
  8
0
 10
221.5
 20
49.999999999999972
 30
0.0
 11
221.5
 21
43.499999999999893
 31
0.0
  0
LINE
  5
33D
  8
3
 10
221.93299999999979
 20
49.999999999999993
 30
0.0
 11
221.93299999999979
 21
43.067000000000128
 31
0.0
  0
LINE
  5
33E
  8
3
 10
226.06700000000021
 20
49.999999999999993
 30
0.0
 11
226.06700000000021
 21
43.0670000000001
 31
0.0
  0
LINE
  5
33F
  8
0
 10
226.50000000000011
 20
49.999999999999972
 30
0.0
 11
226.5
 21
43.499999999999893
 31
0.0
  0
LINE
  5
340
  8
1
 10
191.0
 20
37.599999999999881
 30
0.0
 11
191.0
 21
65.000000000000426
 31
0.0
  0
TEXT
  5
3BD
  8
0
 62
     3
 10
0.0
 20
0.0
 30
0.0
 40
10.0
  1
MCAC12SK16
  7
STANDARD1
  0
ENDSEC
  0
EOF
