  0
SECTION
  2
HEADER
  9
$ACADVER
  1
AC1009
  9
$INSBASE
 10
0.0
 20
0.0
 30
0.0
  9
$EXTMIN
 10
0.0
 20
-2.960436562073669
 30
0.0
  9
$EXTMAX
 10
190.25894461980141
 20
163.4376736352491
 30
0.0
  9
$LIMMIN
 10
0.0
 20
0.0
  9
$LIMMAX
 10
375.0
 20
270.0
  9
$ORTHOMODE
 70
     1
  9
$REGENMODE
 70
     1
  9
$FILLMODE
 70
     1
  9
$QTEXTMODE
 70
     0
  9
$MIRRTEXT
 70
     0
  9
$DRAGMODE
 70
     2
  9
$LTSCALE
 40
10.0
  9
$OSMODE
 70
  3071
  9
$ATTMODE
 70
     1
  9
$TEXTSIZE
 40
2.0
  9
$TRACEWID
 40
0.05
  9
$TEXTSTYLE
  7
STANDARD
  9
$CLAYER
  8
0
  9
$CELTYPE
  6
BYLAYER
  9
$CECOLOR
 62
   256
  9
$DIMSCALE
 40
1.0
  9
$DIMASZ
 40
2.5
  9
$DIMEXO
 40
2.0
  9
$DIMDLI
 40
0.38
  9
$DIMRND
 40
0.0
  9
$DIMDLE
 40
0.0
  9
$DIMEXE
 40
2.0
  9
$DIMTP
 40
0.0
  9
$DIMTM
 40
0.0
  9
$DIMTXT
 40
3.0
  9
$DIMCEN
 40
0.09
  9
$DIMTSZ
 40
0.0
  9
$DIMTOL
 70
     0
  9
$DIMLIM
 70
     0
  9
$DIMTIH
 70
     0
  9
$DIMTOH
 70
     0
  9
$DIMSE1
 70
     0
  9
$DIMSE2
 70
     0
  9
$DIMTAD
 70
     1
  9
$DIMZIN
 70
     0
  9
$DIMBLK
  1

  9
$DIMASO
 70
     1
  9
$DIMSHO
 70
     0
  9
$DIMPOST
  1

  9
$DIMAPOST
  1

  9
$DIMALT
 70
     0
  9
$DIMALTD
 70
     2
  9
$DIMALTF
 40
25.399999999999999
  9
$DIMLFAC
 40
1.0
  9
$DIMTOFL
 70
     0
  9
$DIMTVP
 40
1.6000000000000001
  9
$DIMTIX
 70
     1
  9
$DIMSOXD
 70
     0
  9
$DIMSAH
 70
     0
  9
$DIMBLK1
  1

  9
$DIMBLK2
  1

  9
$DIMSTYLE
  2
STANDARD
  9
$DIMCLRD
 70
     0
  9
$DIMCLRE
 70
     0
  9
$DIMCLRT
 70
     0
  9
$DIMTFAC
 40
1.0
  9
$DIMGAP
 40
0.09
  9
$LUNITS
 70
     2
  9
$LUPREC
 70
     4
  9
$SKETCHINC
 40
0.1
  9
$FILLETRAD
 40
2.5
  9
$AUNITS
 70
     0
  9
$AUPREC
 70
     0
  9
$MENU
  1
E:\r13\win\SUPPORT\ACAD
  9
$ELEVATION
 40
0.0
  9
$PELEVATION
 40
0.0
  9
$THICKNESS
 40
0.0
  9
$LIMCHECK
 70
     0
  9
$BLIPMODE
 70
     0
  9
$CHAMFERA
 40
0.0
  9
$CHAMFERB
 40
0.0
  9
$SKPOLY
 70
     0
  9
$TDCREATE
 40
2448650.5678784722
  9
$TDUPDATE
 40
2456597.6507693981
  9
$TDINDWG
 40
0.022822338
  9
$TDUSRTIMER
 40
0.022822338
  9
$USRTIMER
 70
     1
  9
$ANGBASE
 50
0.0
  9
$ANGDIR
 70
     0
  9
$PDMODE
 70
     0
  9
$PDSIZE
 40
0.0
  9
$PLINEWID
 40
0.0
  9
$COORDS
 70
     1
  9
$SPLFRAME
 70
     0
  9
$SPLINETYPE
 70
     6
  9
$SPLINESEGS
 70
     8
  9
$ATTDIA
 70
     0
  9
$ATTREQ
 70
     1
  9
$HANDLING
 70
     1
  9
$HANDSEED
  5
7EF
  9
$SURFTAB1
 70
     6
  9
$SURFTAB2
 70
     6
  9
$SURFTYPE
 70
     6
  9
$SURFU
 70
     6
  9
$SURFV
 70
     6
  9
$UCSNAME
  2

  9
$UCSORG
 10
0.0
 20
0.0
 30
0.0
  9
$UCSXDIR
 10
1.0
 20
0.0
 30
0.0
  9
$UCSYDIR
 10
0.0
 20
1.0
 30
0.0
  9
$PUCSNAME
  2

  9
$PUCSORG
 10
0.0
 20
0.0
 30
0.0
  9
$PUCSXDIR
 10
1.0
 20
0.0
 30
0.0
  9
$PUCSYDIR
 10
0.0
 20
1.0
 30
0.0
  9
$USERI1
 70
     0
  9
$USERI2
 70
     1
  9
$USERI3
 70
     1
  9
$USERI4
 70
     0
  9
$USERI5
 70
     0
  9
$USERR1
 40
0.0
  9
$USERR2
 40
0.0
  9
$USERR3
 40
0.0
  9
$USERR4
 40
0.0
  9
$USERR5
 40
0.0
  9
$WORLDVIEW
 70
     1
  9
$SHADEDGE
 70
     3
  9
$SHADEDIF
 70
    70
  9
$TILEMODE
 70
     1
  9
$MAXACTVP
 70
    16
  9
$PLIMCHECK
 70
     0
  9
$PEXTMIN
 10
1.0000000000000000E+020
 20
1.0000000000000000E+020
 30
1.0000000000000000E+020
  9
$PEXTMAX
 10
-1.0000000000000000E+020
 20
-1.0000000000000000E+020
 30
-1.0000000000000000E+020
  9
$PLIMMIN
 10
0.0
 20
0.0
  9
$PLIMMAX
 10
12.0
 20
9.0
  9
$UNITMODE
 70
     0
  9
$VISRETAIN
 70
     0
  9
$PLINEGEN
 70
     1
  9
$PSLTSCALE
 70
     0
  0
ENDSEC
  0
SECTION
  2
TABLES
  0
TABLE
  2
VPORT
 70
     1
  0
VPORT
  2
*ACTIVE
 70
     0
 10
0.0
 20
0.0
 11
1.0
 21
1.0
 12
187.49427839065231
 22
134.10366293909439
 13
0.0
 23
0.0
 14
10.0
 24
10.0
 15
10.0
 25
10.0
 16
0.0
 26
0.0
 36
1.0
 17
0.0
 27
0.0
 37
0.0
 40
277.29405978699532
 41
2.304913294797688
 42
50.0
 43
0.0
 44
0.0
 50
0.0
 51
0.0
 71
     0
 72
   500
 73
     1
 74
     0
 75
     0
 76
     0
 77
     0
 78
     2
  0
ENDTAB
  0
TABLE
  2
LTYPE
 70
     4
  0
LTYPE
  2
CONTINUOUS
 70
     0
  3
Solid Line
 72
    65
 73
     0
 40
0.0
  0
LTYPE
  2
CENTER
 70
     0
  3
____ _ ____ _ ____ _ ____ _ ____ _ ____ _ ____
 72
    65
 73
     4
 40
2.0
 49
1.25
 49
-0.25
 49
0.25
 49
-0.25
  0
LTYPE
  2
HIDDEN
 70
     0
  3
_ _ _ _ _ _ _ _ _ _ _ _ _ _ _ _ _ _ _ _ _ _ _
 72
    65
 73
     2
 40
0.375
 49
0.25
 49
-0.125
  0
LTYPE
  2
PHANTOM2
 70
     0
  3
___ _ _ ___ _ _ ___ _ _ ___ _ _
 72
    65
 73
     6
 40
1.25
 49
0.625
 49
-0.125
 49
0.125
 49
-0.125
 49
0.125
 49
-0.125
  0
ENDTAB
  0
TABLE
  2
LAYER
 70
     3
  0
LAYER
  2
0
 70
     0
 62
     7
  6
CONTINUOUS
  0
LAYER
  2
1
 70
     0
 62
     1
  6
CENTER
  0
LAYER
  2
2
 70
     0
 62
     2
  6
HIDDEN
  0
ENDTAB
  0
TABLE
  2
STYLE
 70
     2
  0
STYLE
  2
STANDARD
 70
     0
 40
0.0
 41
1.0
 50
0.0
 71
     0
 42
2.0
  3
TXT
  4
BIGFONT
  0
STYLE
  2
STANDARD1
 70
     0
 40
0.0
 41
1.0
 50
0.0
 71
     0
 42
3.0
  3
txt
  4

  0
ENDTAB
  0
TABLE
  2
VIEW
 70
     1
  0
VIEW
  2
ALL
 70
     0
 40
270.0
 10
220.99159663865549
 20
135.0
 41
0.0
 11
0.0
 21
0.0
 31
1.0
 12
0.0
 22
0.0
 32
0.0
 42
0.0
 43
0.0
 44
0.0
 50
0.0
 71
     0
  0
ENDTAB
  0
TABLE
  2
UCS
 70
     0
  0
ENDTAB
  0
TABLE
  2
APPID
 70
     3
  0
APPID
  2
ACAD
 70
     0
  0
APPID
  2
ACAD_MLEADERVER
 70
     0
  0
APPID
  2
ACAD_NAV_VCDISPLAY
 70
     0
  0
ENDTAB
  0
TABLE
  2
DIMSTYLE
 70
     1
  0
DIMSTYLE
  2
STANDARD
 70
     0
  3

  4

  5

  6

  7

 40
1.0
 41
0.18
 42
0.0625
 43
0.38
 44
0.18
 45
0.0
 46
0.0
 47
0.0
 48
0.0
140
0.18
141
0.09
142
0.0
143
25.399999999999999
144
1.0
145
0.0
146
1.0
147
0.09
 71
     0
 72
     0
 73
     1
 74
     1
 75
     0
 76
     0
 77
     0
 78
     0
170
     0
171
     2
172
     0
173
     0
174
     0
175
     0
176
     0
177
     0
178
     0
  0
ENDTAB
  0
ENDSEC
  0
SECTION
  2
BLOCKS
  0
BLOCK
  8
0
  2
$MODEL_SPACE
 70
     0
 10
0.0
 20
0.0
 30
0.0
  3
$MODEL_SPACE
  1

  0
ENDBLK
  5
217
  8
0
  0
BLOCK
 67
     1
  8
0
  2
$PAPER_SPACE
 70
     0
 10
0.0
 20
0.0
 30
0.0
  3
$PAPER_SPACE
  1

  0
ENDBLK
  5
215
 67
     1
  8
0
  0
ENDSEC
  0
SECTION
  2
ENTITIES
  0
LINE
  5
616
  8
1
 10
52.758944619800957
 20
50.437673635249041
 30
0.0
 11
52.758944619801007
 21
37.937673635249041
 31
0.0
  0
LINE
  5
617
  8
0
 10
135.2589446198009
 20
40.437673635249041
 30
0.0
 11
190.25894461980141
 21
40.437673635249041
 31
0.0
  0
LINE
  5
618
  8
1
 10
162.75894461980121
 20
68.437673635249041
 30
0.0
 11
162.75894461980121
 21
35.437673635249041
 31
0.0
  0
ARC
  5
619
  8
0
 10
74.258944619801127
 20
49.229469702749668
 30
0.0
 40
1.000000000000008
 50
48.189685104222491
 51
180.0
  0
ARC
  5
61A
  8
0
 10
80.258944619801127
 20
55.937673635249041
 30
0.0
 40
8.0
 50
180.0
 51
270.0
  0
LINE
  5
61B
  8
0
 10
58.258944619801177
 20
148.9376736352491
 30
0.0
 11
58.358944619800859
 21
148.9376736352491
 31
0.0
  0
LINE
  5
61C
  8
0
 10
58.258944619801241
 20
112.9376736352491
 30
0.0
 11
58.358944619800859
 21
112.9376736352491
 31
0.0
  0
ARC
  5
61D
  8
0
 10
55.258944619801071
 20
50.937673635249041
 30
0.0
 40
3.0
 50
270.0
 51
359.99999999999937
  0
LINE
  5
61E
  8
0
 10
42.258944619801127
 20
40.437673635249041
 30
0.0
 11
100.2589446198011
 21
40.437673635249041
 31
0.0
  0
LINE
  5
61F
  8
2
 10
63.008944619801127
 20
40.937673635249041
 30
0.0
 11
44.258944619801127
 21
40.937673635249041
 31
0.0
  0
LINE
  5
620
  8
2
 10
45.508944619801127
 20
43.937673635249027
 30
0.0
 11
60.008944619801127
 21
43.937673635249027
 31
0.0
  0
LINE
  5
621
  8
2
 10
81.758944619801113
 20
40.937673635249041
 30
0.0
 11
98.258944619801113
 21
40.937673635249041
 31
0.0
  0
LINE
  5
622
  8
2
 10
83.008944619801113
 20
43.937673635249027
 30
0.0
 11
92.508944619801127
 21
43.937673635249027
 31
0.0
  0
LINE
  5
623
  8
1
 10
97.508944619801184
 20
118.4376736352491
 30
0.0
 11
78.008944619801127
 21
118.4376736352491
 31
0.0
  0
LINE
  5
624
  8
1
 10
80.508944619801113
 20
120.9376736352491
 30
0.0
 11
95.008944619801184
 21
120.9376736352491
 31
0.0
  0
LINE
  5
625
  8
1
 10
80.508944619801113
 20
115.9376736352491
 30
0.0
 11
95.008944619801184
 21
115.9376736352491
 31
0.0
  0
LINE
  5
626
  8
1
 10
87.758944619800957
 20
128.1876736352491
 30
0.0
 11
87.758944619800957
 21
108.6876736352491
 31
0.0
  0
LINE
  5
627
  8
1
 10
62.508944619801177
 20
118.4376736352491
 30
0.0
 11
43.00894461980095
 21
118.4376736352491
 31
0.0
  0
LINE
  5
628
  8
1
 10
62.508944619801177
 20
143.4376736352491
 30
0.0
 11
43.00894461980095
 21
143.4376736352491
 31
0.0
  0
LINE
  5
629
  8
1
 10
52.758944619801007
 20
128.1876736352491
 30
0.0
 11
52.758944619800957
 21
108.6876736352491
 31
0.0
  0
LINE
  5
62A
  8
1
 10
50.258944619800843
 20
125.6876736352491
 30
0.0
 11
50.258944619800843
 21
111.1876736352491
 31
0.0
  0
LINE
  5
62B
  8
1
 10
55.258944619801007
 20
125.6876736352491
 30
0.0
 11
55.25894461980112
 21
111.1876736352491
 31
0.0
  0
LINE
  5
62C
  8
0
 10
74.258944619801184
 20
158.4376736352491
 30
0.0
 11
97.258944619801184
 21
158.4376736352491
 31
0.0
  0
LINE
  5
62D
  8
0
 10
73.258944619801184
 20
112.4376736352491
 30
0.0
 11
73.258944619801184
 21
104.437673635249
 31
0.0
  0
LINE
  5
62E
  8
0
 10
74.258944619801184
 20
103.437673635249
 30
0.0
 11
97.258944619801184
 21
103.437673635249
 31
0.0
  0
LINE
  5
62F
  8
0
 10
45.258944619801177
 20
103.437673635249
 30
0.0
 11
71.258944619801184
 21
103.437673635249
 31
0.0
  0
LINE
  5
630
  8
0
 10
72.158944619801048
 20
111.9376736352491
 30
0.0
 11
58.358944619800859
 21
111.9376736352491
 31
0.0
  0
LINE
  5
631
  8
0
 10
72.158944619801048
 20
149.9376736352491
 30
0.0
 11
58.358944619800859
 21
149.9376736352491
 31
0.0
  0
LINE
  5
632
  8
0
 10
58.258944619801177
 20
157.4376736352491
 30
0.0
 11
58.258944619801177
 21
104.437673635249
 31
0.0
  0
LINE
  5
633
  8
0
 10
45.258944619801177
 20
158.4376736352491
 30
0.0
 11
71.258944619801184
 21
158.4376736352491
 31
0.0
  0
LINE
  5
634
  8
0
 10
72.258944619801184
 20
148.4376736352491
 30
0.0
 11
58.358944619800859
 21
148.4376736352491
 31
0.0
  0
LINE
  5
635
  8
0
 10
143.75894461980101
 20
51.392267163960518
 30
0.0
 11
181.75894461980121
 21
51.392267163960518
 31
0.0
  0
LINE
  5
636
  8
2
 10
180.00894461980141
 20
43.937673635249027
 30
0.0
 11
180.00894461980141
 21
47.937673635249041
 31
0.0
  0
LINE
  5
637
  8
2
 10
178.00894461980141
 20
43.937673635249027
 30
0.0
 11
178.00894461980141
 21
40.437673635249041
 31
0.0
  0
LINE
  5
638
  8
2
 10
170.50894461980141
 20
43.937673635249027
 30
0.0
 11
180.00894461980141
 21
43.937673635249027
 31
0.0
  0
LINE
  5
639
  8
2
 10
172.50894461980141
 20
40.437673635249041
 30
0.0
 11
172.50894461980141
 21
43.937673635249027
 31
0.0
  0
LINE
  5
63A
  8
2
 10
170.50894461980141
 20
47.937673635249041
 30
0.0
 11
170.50894461980141
 21
43.937673635249027
 31
0.0
  0
LINE
  5
63B
  8
2
 10
155.00894461980121
 20
43.937673635249027
 30
0.0
 11
155.00894461980121
 21
47.937673635249041
 31
0.0
  0
LINE
  5
63C
  8
2
 10
153.00894461980121
 20
43.937673635249027
 30
0.0
 11
153.00894461980121
 21
40.437673635249041
 31
0.0
  0
LINE
  5
63D
  8
2
 10
145.50894461980121
 20
43.937673635249027
 30
0.0
 11
155.00894461980121
 21
43.937673635249027
 31
0.0
  0
LINE
  5
63E
  8
2
 10
147.50894461980121
 20
40.437673635249148
 30
0.0
 11
147.50894461980121
 21
43.937673635249027
 31
0.0
  0
LINE
  5
63F
  8
2
 10
145.50894461980121
 20
47.937673635249041
 30
0.0
 11
145.50894461980121
 21
43.937673635249027
 31
0.0
  0
LINE
  5
640
  8
1
 10
175.2589446198013
 20
50.437673635249041
 30
0.0
 11
175.2589446198013
 21
37.937673635249041
 31
0.0
  0
LINE
  5
641
  8
1
 10
150.25894461980121
 20
50.437673635249041
 30
0.0
 11
150.25894461980121
 21
37.937673635249041
 31
0.0
  0
LINE
  5
642
  8
0
 10
181.7589446198011
 20
51.392267163960518
 30
0.0
 11
181.7589446198011
 21
63.437673635249041
 31
0.0
  0
LINE
  5
643
  8
0
 10
143.7589446198009
 20
51.392267163960518
 30
0.0
 11
143.75894461980121
 21
63.437673635249041
 31
0.0
  0
LINE
  5
644
  8
0
 10
180.2589446198009
 20
51.392267163960518
 30
0.0
 11
180.2589446198009
 21
63.437673635249041
 31
0.0
  0
LINE
  5
645
  8
0
 10
145.25894461980121
 20
51.392267163960518
 30
0.0
 11
145.25894461980121
 21
63.437673635249041
 31
0.0
  0
LINE
  5
646
  8
0
 10
135.2589446198009
 20
47.937673635249041
 30
0.0
 11
190.25894461980121
 21
47.937673635249041
 31
0.0
  0
LINE
  5
647
  8
0
 10
190.25894461980141
 20
40.437673635249041
 30
0.0
 11
190.25894461980121
 21
63.437673635249041
 31
0.0
  0
LINE
  5
648
  8
0
 10
135.2589446198009
 20
40.437673635249041
 30
0.0
 11
135.2589446198009
 21
63.437673635249041
 31
0.0
  0
LINE
  5
649
  8
0
 10
135.2589446198009
 20
63.437673635249041
 30
0.0
 11
190.25894461980141
 21
63.437673635249041
 31
0.0
  0
LINE
  5
64A
  8
1
 10
87.758944619801127
 20
37.937673635249041
 30
0.0
 11
87.758944619801127
 21
50.437673635249048
 31
0.0
  0
LINE
  5
64B
  8
1
 10
50.25894461980112
 20
37.937673635249041
 30
0.0
 11
50.258944619801071
 21
50.437673635249041
 31
0.0
  0
LINE
  5
64C
  8
1
 10
55.25894461980112
 20
37.937673635249041
 30
0.0
 11
55.25894461980112
 21
50.437673635249041
 31
0.0
  0
LINE
  5
64D
  8
2
 10
98.258944619801113
 20
40.937673635249041
 30
0.0
 11
98.258944619801113
 21
40.437673635249041
 31
0.0
  0
LINE
  5
64E
  8
2
 10
92.508944619801127
 20
43.937673635249027
 30
0.0
 11
92.508944619801127
 21
47.937673635249041
 31
0.0
  0
LINE
  5
64F
  8
2
 10
90.508944619801113
 20
43.937673635249027
 30
0.0
 11
90.508944619801113
 21
40.937673635249041
 31
0.0
  0
LINE
  5
650
  8
2
 10
85.008944619801127
 20
40.937673635249041
 30
0.0
 11
85.008944619801127
 21
43.937673635249027
 31
0.0
  0
LINE
  5
651
  8
2
 10
83.008944619801113
 20
47.937673635249041
 30
0.0
 11
83.008944619801113
 21
43.937673635249027
 31
0.0
  0
LINE
  5
652
  8
2
 10
81.758944619801113
 20
43.437673635249041
 30
0.0
 11
81.758944619801113
 21
40.937673635249041
 31
0.0
  0
LINE
  5
653
  8
2
 10
81.758944619801113
 20
43.437673635249041
 30
0.0
 11
72.124970023585661
 21
43.437673635249041
 31
0.0
  0
LINE
  5
654
  8
2
 10
72.124970023585661
 20
40.437673635249041
 30
0.0
 11
72.124970023585661
 21
43.437673635249041
 31
0.0
  0
ARC
  5
655
  8
2
 10
65.258944619801113
 20
56.437673635249212
 30
0.0
 40
8.0
 50
220.1191668984039
 51
228.98550033427159
  0
ARC
  5
656
  8
2
 10
58.758944619801127
 20
50.96044806019745
 30
0.0
 40
0.5
 50
40.119166898408942
 51
180.0
  0
LINE
  5
657
  8
2
 10
60.008944619801127
 20
50.401325401424288
 30
0.0
 11
60.008944619801127
 21
43.937673635249027
 31
0.0
  0
LINE
  5
658
  8
2
 10
45.508944619801127
 20
47.937673635249041
 30
0.0
 11
45.508944619801127
 21
43.937673635249027
 31
0.0
  0
LINE
  5
659
  8
2
 10
47.50894461980112
 20
40.937673635249041
 30
0.0
 11
47.50894461980112
 21
43.937673635249027
 31
0.0
  0
LINE
  5
65A
  8
2
 10
63.008944619801127
 20
40.437673635249041
 30
0.0
 11
63.008944619801127
 21
40.937673635249041
 31
0.0
  0
LINE
  5
65B
  8
2
 10
58.008944619801127
 20
40.937673635249041
 30
0.0
 11
58.008944619801127
 21
43.937673635249027
 31
0.0
  0
LINE
  5
65C
  8
2
 10
44.258944619801127
 20
40.437673635249041
 30
0.0
 11
44.258944619801127
 21
40.937673635249041
 31
0.0
  0
CIRCLE
  5
65D
  8
0
 10
65.258944619801113
 20
56.437673635249041
 30
0.0
 40
3.5
  0
LINE
  5
65E
  8
0
 10
73.258944619801113
 20
40.437673635249041
 30
0.0
 11
73.258944619801113
 21
49.229469702749668
 31
0.0
  0
LINE
  5
65F
  8
0
 10
100.2589446198011
 20
44.937673635249041
 30
0.0
 11
100.2589446198011
 21
40.437673635249041
 31
0.0
  0
LINE
  5
660
  8
0
 10
97.258944619801127
 20
47.937673635249041
 30
0.0
 11
80.258944619801127
 21
47.937673635249041
 31
0.0
  0
ARC
  5
661
  8
0
 10
97.258944619801127
 20
44.937673635249041
 30
0.0
 40
3.0
 50
0.0
 51
90.0
  0
LINE
  5
662
  8
1
 10
65.258944619801113
 20
68.437673635249041
 30
0.0
 11
65.258944619801113
 21
48.037673635249007
 31
0.0
  0
LINE
  5
663
  8
1
 10
77.258944619801127
 20
56.437673635249041
 30
0.0
 11
53.25894461980112
 21
56.437673635249041
 31
0.0
  0
LINE
  5
664
  8
0
 10
72.258944619801127
 20
56.437673635249041
 30
0.0
 11
72.258944619801127
 21
40.437673635249041
 31
0.0
  0
LINE
  5
665
  8
0
 10
58.258944619801071
 20
50.937673635249013
 30
0.0
 11
58.25894461980112
 21
56.437673635249041
 31
0.0
  0
LINE
  5
666
  8
0
 10
55.258944619801071
 20
47.937673635249041
 30
0.0
 11
45.25894461980112
 21
47.937673635249041
 31
0.0
  0
LINE
  5
667
  8
0
 10
42.258944619801127
 20
44.937673635249041
 30
0.0
 11
42.258944619801127
 21
40.437673635249041
 31
0.0
  0
ARC
  5
668
  8
0
 10
65.258944619801113
 20
56.437673635249041
 30
0.0
 40
7.0
 50
0.0
 51
180.0
  0
ARC
  5
669
  8
0
 10
45.25894461980112
 20
44.937673635249041
 30
0.0
 40
3.0
 50
90.0
 51
180.0
  0
CIRCLE
  5
66A
  8
0
 10
65.258944619801113
 20
56.437673635249041
 30
0.0
 40
4.0
  0
LINE
  5
66B
  8
1
 10
105.2589446198009
 20
130.9376736352491
 30
0.0
 11
37.258944619801163
 21
130.9376736352491
 31
0.0
  0
LINE
  5
66C
  8
1
 10
65.258944619801184
 20
163.4376736352491
 30
0.0
 11
65.258944619801113
 21
98.437673635249041
 31
0.0
  0
LINE
  5
66D
  8
1
 10
80.508944619801113
 20
140.9376736352491
 30
0.0
 11
95.008944619801184
 21
140.9376736352491
 31
0.0
  0
LINE
  5
66E
  8
1
 10
80.508944619801113
 20
145.9376736352491
 30
0.0
 11
95.008944619801184
 21
145.9376736352491
 31
0.0
  0
LINE
  5
66F
  8
1
 10
52.758944619801191
 20
153.1876736352491
 30
0.0
 11
52.758944619801071
 21
133.6876736352491
 31
0.0
  0
LINE
  5
670
  8
1
 10
87.758944619800957
 20
153.1876736352491
 30
0.0
 11
87.758944619800957
 21
133.6876736352491
 31
0.0
  0
LINE
  5
671
  8
0
 10
72.258944619801127
 20
148.4376736352491
 30
0.0
 11
72.258944619801184
 21
113.4376736352491
 31
0.0
  0
LINE
  5
672
  8
0
 10
73.258944619801184
 20
157.4376736352491
 30
0.0
 11
73.258944619801184
 21
155.4376736352491
 31
0.0
  0
LINE
  5
673
  8
0
 10
73.258944619801184
 20
155.4376736352491
 30
0.0
 11
73.258944619801184
 21
149.4376736352491
 31
0.0
  0
LINE
  5
674
  8
0
 10
100.2589446198009
 20
155.4376736352491
 30
0.0
 11
100.2589446198009
 21
106.437673635249
 31
0.0
  0
LINE
  5
675
  8
0
 10
92.508944619801184
 20
115.9376736352491
 30
0.0
 11
92.508944619801184
 21
120.9376736352491
 31
0.0
  0
LINE
  5
676
  8
0
 10
85.008944619801184
 20
120.9376736352491
 30
0.0
 11
85.008944619801184
 21
115.9376736352491
 31
0.0
  0
LINE
  5
677
  8
0
 10
83.008944619801184
 20
120.9376736352491
 30
0.0
 11
83.008944619801184
 21
115.9376736352491
 31
0.0
  0
LINE
  5
678
  8
0
 10
90.508944619801184
 20
115.9376736352491
 30
0.0
 11
90.508944619801184
 21
120.9376736352491
 31
0.0
  0
LINE
  5
679
  8
0
 10
90.508944619801184
 20
140.9376736352491
 30
0.0
 11
90.508944619801184
 21
145.9376736352491
 31
0.0
  0
LINE
  5
67A
  8
0
 10
85.008944619801184
 20
145.9376736352491
 30
0.0
 11
85.008944619801184
 21
140.9376736352491
 31
0.0
  0
LINE
  5
67B
  8
0
 10
83.008944619801184
 20
145.9376736352491
 30
0.0
 11
83.008944619801184
 21
140.9376736352491
 31
0.0
  0
LINE
  5
67C
  8
0
 10
92.508944619801184
 20
140.9376736352491
 30
0.0
 11
92.508944619801184
 21
145.9376736352491
 31
0.0
  0
LINE
  5
67D
  8
0
 10
72.258944619801184
 20
113.4376736352491
 30
0.0
 11
58.358944619800859
 21
113.4376736352491
 31
0.0
  0
ARC
  5
67E
  8
0
 10
72.258944619801184
 20
149.4376736352491
 30
0.0
 40
0.99999999999999
 50
270.0
 51
0.0
  0
ARC
  5
67F
  8
0
 10
74.258944619801184
 20
157.4376736352491
 30
0.0
 40
1.0
 50
90.0
 51
180.0
  0
ARC
  5
680
  8
0
 10
87.758944619800957
 20
120.9376736352491
 30
0.0
 40
2.75
 50
0.0
 51
180.0
  0
ARC
  5
681
  8
0
 10
87.758944619800957
 20
120.9376736352491
 30
0.0
 40
4.75
 50
0.0
 51
180.0
  0
ARC
  5
682
  8
0
 10
87.758944619800957
 20
145.9376736352491
 30
0.0
 40
2.75
 50
0.0
 51
180.0
  0
ARC
  5
683
  8
0
 10
87.758944619800957
 20
145.9376736352491
 30
0.0
 40
4.75
 50
0.0
 51
180.0
  0
ARC
  5
684
  8
0
 10
87.758944619800957
 20
140.9376736352491
 30
0.0
 40
2.75
 50
180.0
 51
0.0
  0
ARC
  5
685
  8
0
 10
87.758944619800957
 20
140.9376736352491
 30
0.0
 40
4.75
 50
180.0
 51
0.0
  0
ARC
  5
686
  8
0
 10
87.758944619800957
 20
115.9376736352491
 30
0.0
 40
2.75
 50
180.0
 51
0.0
  0
ARC
  5
687
  8
0
 10
87.758944619800957
 20
115.9376736352491
 30
0.0
 40
4.75
 50
180.0
 51
0.0
  0
ARC
  5
688
  8
0
 10
97.258944619801184
 20
106.437673635249
 30
0.0
 40
3.0
 50
270.0
 51
0.0
  0
ARC
  5
689
  8
0
 10
74.258944619801184
 20
104.437673635249
 30
0.0
 40
1.0
 50
180.0
 51
270.0
  0
ARC
  5
68A
  8
0
 10
97.258944619801184
 20
155.4376736352491
 30
0.0
 40
3.0
 50
0.0
 51
90.0
  0
ARC
  5
68B
  8
0
 10
72.258944619801184
 20
112.4376736352491
 30
0.0
 40
1.0
 50
0.0
 51
90.0
  0
LINE
  5
68C
  8
1
 10
50.258944619800957
 20
150.6876736352491
 30
0.0
 11
50.258944619800957
 21
136.1876736352491
 31
0.0
  0
LINE
  5
68D
  8
1
 10
55.25894461980112
 20
150.6876736352491
 30
0.0
 11
55.258944619801241
 21
136.1876736352491
 31
0.0
  0
LINE
  5
68E
  8
0
 10
72.258944619801184
 20
111.4376736352491
 30
0.0
 11
72.258944619801184
 21
104.437673635249
 31
0.0
  0
LINE
  5
68F
  8
0
 10
42.258944619801177
 20
106.437673635249
 30
0.0
 11
42.258944619801177
 21
155.4376736352491
 31
0.0
  0
LINE
  5
690
  8
0
 10
55.258944619801191
 20
146.1876736352491
 30
0.0
 11
50.258944619800957
 21
146.1876736352491
 31
0.0
  0
LINE
  5
691
  8
0
 10
50.258944619800957
 20
140.6876736352491
 30
0.0
 11
55.258944619801191
 21
140.6876736352491
 31
0.0
  0
LINE
  5
692
  8
0
 10
50.258944619800957
 20
148.1876736352491
 30
0.0
 11
55.258944619801191
 21
148.1876736352491
 31
0.0
  0
LINE
  5
693
  8
0
 10
55.258944619801191
 20
138.6876736352491
 30
0.0
 11
50.258944619800957
 21
138.6876736352491
 31
0.0
  0
LINE
  5
694
  8
0
 10
50.258944619800957
 20
115.6876736352491
 30
0.0
 11
55.258944619801191
 21
115.6876736352491
 31
0.0
  0
LINE
  5
695
  8
0
 10
55.258944619801191
 20
121.1876736352491
 30
0.0
 11
50.258944619800957
 21
121.1876736352491
 31
0.0
  0
LINE
  5
696
  8
0
 10
55.258944619801191
 20
113.6876736352491
 30
0.0
 11
50.258944619800957
 21
113.6876736352491
 31
0.0
  0
LINE
  5
697
  8
0
 10
50.258944619800957
 20
123.1876736352491
 30
0.0
 11
55.258944619801191
 21
123.1876736352491
 31
0.0
  0
LINE
  5
698
  8
0
 10
72.258944619801184
 20
157.4376736352491
 30
0.0
 11
72.258944619801184
 21
150.4376736352491
 31
0.0
  0
ARC
  5
699
  8
0
 10
71.758944619801184
 20
111.4376736352491
 30
0.0
 40
0.5
 50
0.0
 51
90.0
  0
ARC
  5
69A
  8
0
 10
55.258944619801191
 20
118.4376736352491
 30
0.0
 40
4.750000000000008
 50
50.833289283876553
 51
90.0
  0
ARC
  5
69B
  8
0
 10
71.258944619801184
 20
104.437673635249
 30
0.0
 40
1.0
 50
270.0
 51
0.0
  0
ARC
  5
69C
  8
0
 10
59.258944619801177
 20
104.437673635249
 30
0.0
 40
1.0
 50
180.0
 51
270.0
  0
ARC
  5
69D
  8
0
 10
45.258944619801177
 20
155.4376736352491
 30
0.0
 40
3.0
 50
90.0
 51
180.0
  0
ARC
  5
69E
  8
0
 10
55.258944619801191
 20
143.4376736352491
 30
0.0
 40
4.7499999999999902
 50
50.833289283876553
 51
90.0
  0
ARC
  5
69F
  8
0
 10
50.258944619800957
 20
143.4376736352491
 30
0.0
 40
2.75
 50
90.0
 51
270.0
  0
ARC
  5
6A0
  8
0
 10
50.258944619800957
 20
143.4376736352491
 30
0.0
 40
4.75
 50
90.0
 51
270.0
  0
ARC
  5
6A1
  8
0
 10
55.258944619801191
 20
143.4376736352491
 30
0.0
 40
2.75
 50
270.0
 51
90.0
  0
ARC
  5
6A2
  8
0
 10
55.258944619801191
 20
143.4376736352491
 30
0.0
 40
4.75
 50
270.0
 51
309.16671071612342
  0
ARC
  5
6A3
  8
0
 10
50.258944619800957
 20
118.4376736352491
 30
0.0
 40
2.75
 50
90.0
 51
270.0
  0
ARC
  5
6A4
  8
0
 10
45.258944619801177
 20
106.437673635249
 30
0.0
 40
3.0
 50
180.0
 51
270.0
  0
ARC
  5
6A5
  8
0
 10
50.258944619800957
 20
118.4376736352491
 30
0.0
 40
4.75
 50
90.0
 51
270.0
  0
ARC
  5
6A6
  8
0
 10
55.258944619801191
 20
118.4376736352491
 30
0.0
 40
2.75
 50
270.0
 51
90.0
  0
ARC
  5
6A7
  8
0
 10
55.258944619801191
 20
118.4376736352491
 30
0.0
 40
4.75
 50
270.0
 51
309.16671071612342
  0
ARC
  5
6A8
  8
0
 10
71.758944619801184
 20
150.4376736352491
 30
0.0
 40
0.5000000000000201
 50
270.0
 51
0.0
  0
ARC
  5
6A9
  8
0
 10
59.258944619801177
 20
157.4376736352491
 30
0.0
 40
1.0
 50
90.0
 51
180.0
  0
ARC
  5
6AA
  8
0
 10
71.258944619801184
 20
157.4376736352491
 30
0.0
 40
1.0
 50
0.0
 51
90.0
  0
LINE
  5
6AB
  8
0
 10
58.358944619800859
 20
113.4376736352491
 30
0.0
 11
58.358944619800859
 21
111.9376736352491
 31
0.0
  0
LINE
  5
6AC
  8
0
 10
72.158944619801048
 20
113.4376736352491
 30
0.0
 11
72.158944619801048
 21
111.9376736352491
 31
0.0
  0
LINE
  5
6AD
  8
0
 10
72.158944619801048
 20
148.4376736352491
 30
0.0
 11
72.158944619801048
 21
149.9376736352491
 31
0.0
  0
LINE
  5
6AE
  8
0
 10
58.358944619800859
 20
148.4376736352491
 30
0.0
 11
58.358944619800859
 21
149.9376736352491
 31
0.0
  0
LINE
  5
6AF
  8
1
 10
97.508944619801184
 20
143.4376736352491
 30
0.0
 11
78.008944619801127
 21
143.4376736352491
 31
0.0
  0
TEXT
  5
760
  8
0
 62
     3
 10
0.0
 20
0.0
 30
0.0
 40
10.0
  1
MCH5855SL
  7
STANDARD1
  0
ENDSEC
  0
EOF
