  0
SECTION
  2
HEADER
  9
$ACADVER
  1
AC1009
  9
$INSBASE
 10
0.0
 20
0.0
 30
0.0
  9
$EXTMIN
 10
0.0
 20
-2.960436562073669
 30
0.0
  9
$EXTMAX
 10
243.49762393064219
 20
191.01549934229789
 30
5.7071067810000002
  9
$LIMMIN
 10
0.0
 20
0.0
  9
$LIMMAX
 10
375.0
 20
278.0
  9
$ORTHOMODE
 70
     0
  9
$REGENMODE
 70
     1
  9
$FILLMODE
 70
     1
  9
$QTEXTMODE
 70
     0
  9
$MIRRTEXT
 70
     0
  9
$DRAGMODE
 70
     2
  9
$LTSCALE
 40
5.0
  9
$OSMODE
 70
    37
  9
$ATTMODE
 70
     1
  9
$TEXTSIZE
 40
0.2
  9
$TRACEWID
 40
0.05
  9
$TEXTSTYLE
  7
STANDARD
  9
$CLAYER
  8
0
  9
$CELTYPE
  6
BYLAYER
  9
$CECOLOR
 62
   256
  9
$DIMSCALE
 40
1.0
  9
$DIMASZ
 40
3.0
  9
$DIMEXO
 40
1.0
  9
$DIMDLI
 40
6.0
  9
$DIMRND
 40
0.0
  9
$DIMDLE
 40
0.0
  9
$DIMEXE
 40
1.0
  9
$DIMTP
 40
495.0
  9
$DIMTM
 40
0.0
  9
$DIMTXT
 40
3.0
  9
$DIMCEN
 40
0.0
  9
$DIMTSZ
 40
0.0
  9
$DIMTOL
 70
     0
  9
$DIMLIM
 70
     0
  9
$DIMTIH
 70
     0
  9
$DIMTOH
 70
     0
  9
$DIMSE1
 70
     0
  9
$DIMSE2
 70
     0
  9
$DIMTAD
 70
     1
  9
$DIMZIN
 70
     8
  9
$DIMBLK
  1

  9
$DIMASO
 70
     0
  9
$DIMSHO
 70
     0
  9
$DIMPOST
  1

  9
$DIMAPOST
  1

  9
$DIMALT
 70
     0
  9
$DIMALTD
 70
     2
  9
$DIMALTF
 40
25.399999999999999
  9
$DIMLFAC
 40
1.0
  9
$DIMTOFL
 70
     1
  9
$DIMTVP
 40
0.0
  9
$DIMTIX
 70
     1
  9
$DIMSOXD
 70
     0
  9
$DIMSAH
 70
     0
  9
$DIMBLK1
  1

  9
$DIMBLK2
  1

  9
$DIMSTYLE
  2
STANDARD
  9
$DIMCLRD
 70
     0
  9
$DIMCLRE
 70
     0
  9
$DIMCLRT
 70
     0
  9
$DIMTFAC
 40
1.0
  9
$DIMGAP
 40
1.0
  9
$LUNITS
 70
     2
  9
$LUPREC
 70
     1
  9
$SKETCHINC
 40
0.1
  9
$FILLETRAD
 40
0.5
  9
$AUNITS
 70
     0
  9
$AUPREC
 70
     0
  9
$MENU
  1
C:\R13\WIN\SUPPORT\ACAD-I
  9
$ELEVATION
 40
0.0
  9
$PELEVATION
 40
0.0
  9
$THICKNESS
 40
0.0
  9
$LIMCHECK
 70
     0
  9
$BLIPMODE
 70
     0
  9
$CHAMFERA
 40
0.0
  9
$CHAMFERB
 40
0.0
  9
$SKPOLY
 70
     0
  9
$TDCREATE
 40
2451922.6672596182
  9
$TDUPDATE
 40
2459429.5743946638
  9
$TDINDWG
 40
0.1127047801
  9
$TDUSRTIMER
 40
0.1127047801
  9
$USRTIMER
 70
     1
  9
$ANGBASE
 50
0.0
  9
$ANGDIR
 70
     0
  9
$PDMODE
 70
     0
  9
$PDSIZE
 40
0.0
  9
$PLINEWID
 40
0.0
  9
$COORDS
 70
     1
  9
$SPLFRAME
 70
     0
  9
$SPLINETYPE
 70
     6
  9
$SPLINESEGS
 70
     8
  9
$ATTDIA
 70
     0
  9
$ATTREQ
 70
     1
  9
$HANDLING
 70
     1
  9
$HANDSEED
  5
4635
  9
$SURFTAB1
 70
     6
  9
$SURFTAB2
 70
     6
  9
$SURFTYPE
 70
     6
  9
$SURFU
 70
     6
  9
$SURFV
 70
     6
  9
$UCSNAME
  2

  9
$UCSORG
 10
0.0
 20
0.0
 30
0.0
  9
$UCSXDIR
 10
1.0
 20
0.0
 30
0.0
  9
$UCSYDIR
 10
0.0
 20
1.0
 30
0.0
  9
$PUCSNAME
  2

  9
$PUCSORG
 10
0.0
 20
0.0
 30
0.0
  9
$PUCSXDIR
 10
1.0
 20
0.0
 30
0.0
  9
$PUCSYDIR
 10
0.0
 20
1.0
 30
0.0
  9
$USERI1
 70
     4
  9
$USERI2
 70
     1
  9
$USERI3
 70
     1
  9
$USERI4
 70
     0
  9
$USERI5
 70
     0
  9
$USERR1
 40
1.0
  9
$USERR2
 40
3.0
  9
$USERR3
 40
3.0
  9
$USERR4
 40
3.0
  9
$USERR5
 40
10.0
  9
$WORLDVIEW
 70
     1
  9
$SHADEDGE
 70
     3
  9
$SHADEDIF
 70
    70
  9
$TILEMODE
 70
     1
  9
$MAXACTVP
 70
    16
  9
$PLIMCHECK
 70
     0
  9
$PEXTMIN
 10
1.0000000000000000E+020
 20
1.0000000000000000E+020
 30
1.0000000000000000E+020
  9
$PEXTMAX
 10
-1.0000000000000000E+020
 20
-1.0000000000000000E+020
 30
-1.0000000000000000E+020
  9
$PLIMMIN
 10
0.0
 20
0.0
  9
$PLIMMAX
 10
12.0
 20
9.0
  9
$UNITMODE
 70
     0
  9
$VISRETAIN
 70
     0
  9
$PLINEGEN
 70
     0
  9
$PSLTSCALE
 70
     0
  0
ENDSEC
  0
SECTION
  2
TABLES
  0
TABLE
  2
VPORT
 70
     1
  0
VPORT
  2
*ACTIVE
 70
     0
 10
0.0
 20
0.0
 11
1.0
 21
1.0
 12
217.2681794022308
 22
94.026990133127697
 13
0.0
 23
0.0
 14
10.0
 24
10.0
 15
10.0
 25
10.0
 16
0.0
 26
0.0
 36
1.0
 17
0.0
 27
0.0
 37
0.0
 40
195.6764462818123
 41
2.3805970149253728
 42
50.0
 43
0.0
 44
0.0
 50
0.0
 51
0.0
 71
     0
 72
   100
 73
     1
 74
     0
 75
     0
 76
     0
 77
     0
 78
     0
  0
ENDTAB
  0
TABLE
  2
LTYPE
 70
     4
  0
LTYPE
  2
CONTINUOUS
 70
     0
  3
Solid Line
 72
    65
 73
     0
 40
0.0
  0
LTYPE
  2
CENTER
 70
     0
  3
____ _ ____ _ ____ _ ____ _ ____ _ ____ _ ____
 72
    65
 73
     4
 40
2.0
 49
1.25
 49
-0.25
 49
0.25
 49
-0.25
  0
LTYPE
  2
HIDDEN
 70
     0
  3
__ __ __ __ __ __ __ __ __ __ __ __ __ __ __ __
 72
    65
 73
     2
 40
0.375
 49
0.25
 49
-0.125
  0
LTYPE
  2
PHANTOM2
 70
     0
  3
___ _ _ ___ _ _ ___ _ _ ___ _ _
 72
    65
 73
     6
 40
1.25
 49
0.625
 49
-0.125
 49
0.125
 49
-0.125
 49
0.125
 49
-0.125
  0
ENDTAB
  0
TABLE
  2
LAYER
 70
     4
  0
LAYER
  2
0
 70
     0
 62
     7
  6
CONTINUOUS
  0
LAYER
  2
1
 70
     0
 62
     1
  6
CENTER
  0
LAYER
  2
3
 70
     0
 62
     3
  6
CONTINUOUS
  0
LAYER
  2
2
 70
     0
 62
     2
  6
HIDDEN
  0
ENDTAB
  0
TABLE
  2
STYLE
 70
     2
  0
STYLE
  2
STANDARD
 70
     0
 40
0.0
 41
1.0
 50
0.0
 71
     0
 42
0.2
  3
SIMPLEX
  4
BIGFONT
  0
STYLE
  2
STANDARD1
 70
     0
 40
0.0
 41
1.0
 50
0.0
 71
     0
 42
3.0
  3
txt
  4

  0
ENDTAB
  0
TABLE
  2
VIEW
 70
     0
  0
ENDTAB
  0
TABLE
  2
UCS
 70
     0
  0
ENDTAB
  0
TABLE
  2
APPID
 70
    89
  0
APPID
  2
ACAD
 70
     0
  0
APPID
  2
GENIUS_GENOBJ_13
 70
     0
  0
APPID
  2
GENIUS_GENODEF_13
 70
     0
  0
APPID
  2
GENIUS_GENOENT_13
 70
     0
  0
APPID
  2
GENIUS_GENOLIS_13
 70
     0
  0
APPID
  2
GENIUS_GENOREF_13
 70
     0
  0
APPID
  2
GENIUS_GENOBJ-N-TIT_13
 70
     0
  0
APPID
  2
GENIUS_GENTITLE_13
 70
     0
  0
APPID
  2
GENIUS_GENZVEED_13
 70
     0
  0
APPID
  2
GENIUS_GENOBJ-N-FIL_13
 70
     0
  0
APPID
  2
GENIUS_GENOBJ-N-CRS_13
 70
     0
  0
APPID
  2
GENIUS_GEFINERT_13
 70
     0
  0
APPID
  2
GENIUS_GENOBJ-F-INER_13
 70
     0
  0
APPID
  2
GENIUS_GENOBJ-N-ZOO_13
 70
     0
  0
APPID
  2
GENIUS_GENZOO_13
 70
     0
  0
APPID
  2
GENIUS_GENOBJ-F-TOL_13
 70
     0
  0
APPID
  2
GENIUS_GENOBJ-N-RSSYM_13
 70
     0
  0
APPID
  2
GENIUS_GENSYMENT_13
 70
     0
  0
APPID
  2
GENIUS_GENBH_13
 70
     0
  0
APPID
  2
GENIUS_GENOBJ-NBEHI-BHF_13
 70
     0
  0
APPID
  2
GENIUS_GENOBJ-NBEHI-BHB_13
 70
     0
  0
APPID
  2
GENIUS_GENOBJ-F-PART_13
 70
     0
  0
APPID
  2
GENIUS_GEFSTDP_13
 70
     0
  0
APPID
  2
GENIUS_GENOBJ-N-LEADER_13
 70
     0
  0
APPID
  2
GENIUS_GENOBJ-N-REV_13
 70
     0
  0
APPID
  2
GENIUS_GENCFG_13
 70
     0
  0
APPID
  2
GENIUS_GENCFG0_13
 70
     0
  0
APPID
  2
GENIUS_GENCFG1_13
 70
     0
  0
APPID
  2
GENIUS_GENCFG2_13
 70
     0
  0
APPID
  2
GENIUS_GENCFG3_13
 70
     0
  0
APPID
  2
GENIUS_GEVCFG0_13
 70
     0
  0
APPID
  2
GENIUS_GENCFG4_13
 70
     0
  0
APPID
  2
GENIUS_GENOBJ-N-REC_13
 70
     0
  0
APPID
  2
GENIUS_GENFIL_13
 70
     0
  0
APPID
  2
GENIUS_GENOBJ-N-CHA_13
 70
     0
  0
APPID
  2
GENIUS_GENREC_13
 70
     0
  0
APPID
  2
DCO15
 70
     0
  0
APPID
  2
GENIUS_GEFCFG0_13
 70
     0
  0
APPID
  2
GENIUS_GENOBJ-N-HTC_13
 70
     0
  0
APPID
  2
GENIUS_GENHATCH_13
 70
     0
  0
APPID
  2
GEV_VCCNULL_SWITCH_OFF
 70
     0
  0
APPID
  2
GENIUS_GENDTOL_13
 70
     0
  0
APPID
  2
GENIUS_GEFWELD_13
 70
     0
  0
APPID
  2
GENIUS_GENOBJ-F-WELS_13
 70
     0
  0
APPID
  2
GEVID961514679
 70
     0
  0
APPID
  2
GEVDC
 70
     0
  0
APPID
  2
GEVPT
 70
     0
  0
APPID
  2
GEVIT
 70
     0
  0
APPID
  2
VCC
 70
     0
  0
APPID
  2
GENBH
 70
     0
  0
APPID
  2
GEVMK
 70
     0
  0
APPID
  2
GENIUS_GENOBJ-F-DESC_13
 70
     0
  0
APPID
  2
GENIUS_GEFDESC_14
 70
     0
  0
APPID
  2
GENIUS_GEFPARTINS_13
 70
     0
  0
APPID
  2
GEVID961514680
 70
     0
  0
APPID
  2
GENIUS_GENTRA_14
 70
     0
  0
APPID
  2
GENIUS_GENINF13_13
 70
     0
  0
APPID
  2
GENIUS_GENOBJ-N-INFOPT_13
 70
     0
  0
APPID
  2
GENIUS_GENSCSYM_13
 70
     0
  0
APPID
  2
GENIUS_GEFINFNAM_13
 70
     0
  0
APPID
  2
GENIUS_GENREC_14
 70
     0
  0
APPID
  2
GEVID962097543
 70
     0
  0
APPID
  2
GEVID962097544
 70
     0
  0
APPID
  2
GEVID962097545
 70
     0
  0
APPID
  2
GENIUS_DUMCFG0_13
 70
     0
  0
APPID
  2
GEVID962352965
 70
     0
  0
APPID
  2
GEVID962352966
 70
     0
  0
APPID
  2
GEVID962352968
 70
     0
  0
APPID
  2
GEVRADREF
 70
     0
  0
APPID
  2
GEVID963230099
 70
     0
  0
APPID
  2
GENIUS_GENOBJ-F-FEAT_13
 70
     0
  0
APPID
  2
GENIUS_GEFFEAT_14
 70
     0
  0
APPID
  2
GEVID963230100
 70
     0
  0
APPID
  2
GEVID963230101
 70
     0
  0
APPID
  2
GENIUS_GENHINW_13
 70
     0
  0
APPID
  2
GENIUS_FIRSTVISTXT_14
 70
     0
  0
APPID
  2
MCAD_NO_VIS
 70
     0
  0
APPID
  2
ACAD_TEMP_GRAPHIC
 70
     0
  0
APPID
  2
ACATTRIBSERVICES
 70
     0
  0
APPID
  2
ASM_BASE
 70
     0
  0
APPID
  2
GENIUS_GENDIMSH_14
 70
     0
  0
APPID
  2
CONTENTTABDATA
 70
     0
  0
APPID
  2
CONTENTCURRENTTAB
 70
     0
  0
APPID
  2
GENIUS_GENBLKED_14
 70
     0
  0
APPID
  2
ACAD_MLEADERVER
 70
     0
  0
APPID
  2
ACAD_EXEMPT_FROM_CAD_STANDARDS
 70
     0
  0
APPID
  2
ACAD_DSTYLE_DIMJAG
 70
     0
  0
APPID
  2
ACAD_DSTYLE_DIMTALN
 70
     0
  0
APPID
  2
ACAD_NAV_VCDISPLAY
 70
     0
  0
ENDTAB
  0
TABLE
  2
DIMSTYLE
 70
     1
  0
DIMSTYLE
  2
STANDARD
 70
     0
  3

  4

  5

  6

  7

 40
1.0
 41
0.18
 42
0.0625
 43
0.38
 44
0.18
 45
0.0
 46
0.0
 47
0.0
 48
0.0
140
0.18
141
0.09
142
0.0
143
25.399999999999999
144
1.0
145
0.0
146
1.0
147
0.09
 71
     0
 72
     0
 73
     1
 74
     1
 75
     0
 76
     0
 77
     0
 78
     0
170
     0
171
     2
172
     0
173
     0
174
     0
175
     0
176
     0
177
     0
178
     0
  0
ENDTAB
  0
ENDSEC
  0
SECTION
  2
BLOCKS
  0
BLOCK
  8
0
  2
$MODEL_SPACE
 70
     0
 10
0.0
 20
0.0
 30
0.0
  3
$MODEL_SPACE
  1

  0
ENDBLK
  5
197D
  8
0
  0
BLOCK
 67
     1
  8
0
  2
$PAPER_SPACE
 70
     0
 10
0.0
 20
0.0
 30
0.0
  3
$PAPER_SPACE
  1

  0
ENDBLK
  5
197B
 67
     1
  8
0
  0
ENDSEC
  0
SECTION
  2
ENTITIES
  0
LINE
  5
4257
  8
0
 10
91.217827281549489
 20
79.216976685018835
 30
0.0
 11
141.21782728154949
 21
79.216976685018835
 31
0.0
  0
LINE
  5
4259
  8
0
 10
91.217827281549447
 20
74.314032978018872
 30
0.0
 11
141.21782728154949
 21
74.314032978018815
 31
0.0
  0
LINE
  5
425B
  8
0
 10
91.217827281549489
 20
71.045403809018865
 30
0.0
 11
141.21782728154949
 21
71.045403809018865
 31
0.0
  0
LINE
  5
425C
  8
1
 10
243.49762393064219
 20
161.01549934229789
 30
0.0
 11
183.4976692186423
 21
161.01549934229789
 31
0.0
  0
LINE
  5
425F
  8
0
 10
189.4976692186423
 20
136.01549934229789
 30
0.0
 11
218.4976692186423
 21
136.01549934229789
 31
0.0
  0
LINE
  5
4262
  8
0
 10
206.9976692186423
 20
186.01549934229789
 30
0.0
 11
189.4976692186423
 21
186.01549934229789
 31
0.0
  0
LINE
  5
4264
  8
0
 10
207.4976692186423
 20
77.045403809018865
 30
0.0
 11
191.4118827806422
 21
77.045403809018865
 31
0.0
  0
LINE
  5
4265
  8
0
 10
206.4977372456423
 20
71.045403809018865
 30
0.0
 11
188.4976692186423
 21
71.045403809018865
 31
0.0
  0
LINE
  5
4266
  8
0
 10
188.4976692186423
 20
185.01549934229789
 30
0.0
 11
188.4976692186423
 21
137.01549934229789
 31
0.0
  0
ARC
  5
4267
  8
0
 10
189.49766921864219
 20
137.01549934229789
 30
0.0
 40
1.0
 50
180.0
 51
270.0
  0
CIRCLE
  5
4269
  8
0
 10
198.49766921864219
 20
146.015499342298
 30
0.0
 40
3.25
  0
ARC
  5
426B
  8
3
 10
193.4211932326422
 20
157.83859435929801
 30
0.0
 40
0.978203689
 50
59.0356881510004
 51
214.83817733700209
  0
ARC
  5
426C
  8
3
 10
193.1198627046422
 20
163.56839678129799
 30
0.0
 40
0.087662335
 50
19.038679716999059
 51
87.587422277999195
  0
LINE
  5
426D
  8
3
 10
192.44298954464219
 20
163.96481076029801
 30
0.0
 11
192.44298954464219
 21
164.50283692429801
 31
0.0
  0
LINE
  5
426E
  8
3
 10
193.20272978564219
 20
163.59699279529801
 30
0.0
 11
193.20272978564219
 21
164.50283692429801
 31
0.0
  0
LINE
  5
426F
  8
3
 10
193.3868206956422
 20
163.801538244298
 30
0.0
 11
193.3868206956422
 21
164.86734784029801
 31
0.0
  0
ARC
  5
4270
  8
3
 10
193.6556518516422
 20
164.50283692429801
 30
0.0
 40
0.4529220670000001
 50
126.40921806899949
 51
180.0
  0
LINE
  5
4271
  8
3
 10
192.7228968476422
 20
163.67286198429801
 30
0.0
 11
193.12355284964221
 21
163.655981414298
 31
0.0
  0
ARC
  5
4272
  8
3
 10
192.7351973296422
 20
163.96481076029801
 30
0.0
 40
0.292207785
 50
180.0
 51
267.58742227799911
  0
LINE
  5
4273
  8
3
 10
192.44298954464219
 20
157.07523969429801
 30
0.0
 11
192.44298954464219
 21
156.315499453298
 31
0.0
  0
ARC
  5
4274
  8
3
 10
193.1200809426422
 20
160.390174640298
 30
0.0
 40
0.087662335
 50
19.471220633999032
 51
90.0
  0
LINE
  5
4275
  8
3
 10
193.46863885264219
 20
158.14318030629801
 30
0.0
 11
193.46863885264219
 21
157.338226701298
 31
0.0
  0
LINE
  5
4276
  8
3
 10
193.20565184664221
 20
157.9386348572979
 30
0.0
 11
193.20565184664221
 21
157.82630992829789
 31
0.0
  0
ARC
  5
4277
  8
3
 10
192.77645710464219
 20
156.96682222629801
 30
0.0
 40
0.350649342
 50
116.80786761499979
 51
161.98954309500229
  0
ARC
  5
4278
  8
3
 10
192.9105220006422
 20
155.96485011129801
 30
0.0
 40
0.58441557
 50
90.0
 51
143.1301023539996
  0
ARC
  5
4279
  8
3
 10
-193.79006741664219
 20
157.82630992829789
 30
0.0
 40
0.58441557
210
0.0
220
0.0
230
-1.0
 50
303.36701296899798
 51
0.0
  0
LINE
  5
427A
  8
3
 10
192.44298954464219
 20
160.23173308229801
 30
0.0
 11
193.20272978564219
 21
160.23173308229801
 31
0.0
  0
ARC
  5
427B
  8
3
 10
-193.43941807464219
 20
157.9386348572979
 30
0.0
 40
0.233766228
210
0.0
220
0.0
230
-1.0
 50
0.0
 51
90.0
  0
LINE
  5
427C
  8
3
 10
192.44298954464219
 20
160.23173308229801
 30
0.0
 11
192.44298954464219
 21
159.881478687298
 31
0.0
  0
LINE
  5
427D
  8
3
 10
193.20272978564219
 20
160.23173308229801
 30
0.0
 11
193.20272978564219
 21
159.81387594429799
 31
0.0
  0
ARC
  5
427E
  8
3
 10
-193.43941807464219
 20
158.14318030629801
 30
0.0
 40
0.029220778
210
0.0
220
0.0
230
-1.0
 50
90.0
 51
180.0
  0
ARC
  5
427F
  8
3
 10
193.2465609526422
 20
159.81387594429799
 30
0.0
 40
0.043831168
 50
180.0
 51
320.75318405900128
  0
LINE
  5
4280
  8
3
 10
192.9105220006422
 20
156.54926568129801
 30
0.0
 11
193.6556518516422
 21
156.54926568129801
 31
0.0
  0
LINE
  5
4281
  8
3
 10
193.3868206956422
 20
160.536278533298
 30
0.0
 11
193.3868206956422
 21
161.60208812829799
 31
0.0
  0
ARC
  5
4282
  8
3
 10
193.6556518516422
 20
161.23757721229799
 30
0.0
 40
0.4529220670000001
 50
126.40921806899949
 51
180.0
  0
LINE
  5
4283
  8
3
 10
193.20272978564219
 20
160.41939541929801
 30
0.0
 11
193.20272978564219
 21
161.23757721229799
 31
0.0
  0
LINE
  5
4284
  8
3
 10
192.7351973296422
 20
160.47783697629799
 30
0.0
 11
193.12008094264229
 21
160.47783697629799
 31
0.0
  0
LINE
  5
4285
  8
3
 10
192.44298954464219
 20
160.77004476129801
 30
0.0
 11
192.44298954464219
 21
161.23757721229799
 31
0.0
  0
ARC
  5
4286
  8
3
 10
192.7351973296422
 20
160.77004476129801
 30
0.0
 40
0.292207785
 50
180.0
 51
270.0
  0
LINE
  5
4287
  8
3
 10
192.44298954464219
 20
162.123616204298
 30
0.0
 11
192.44298954464219
 21
163.087901894298
 31
0.0
  0
ARC
  5
4288
  8
3
 10
193.6609177716422
 20
161.030759099298
 30
0.0
 40
1.6363635959999989
 50
90.0
 51
138.0981078029989
  0
LINE
  5
4289
  8
3
 10
194.8683141596423
 20
163.68465513029801
 30
0.0
 11
194.8683141596423
 21
164.50283692429801
 31
0.0
  0
LINE
  5
428A
  8
3
 10
194.10857391864221
 20
163.68465513029801
 30
0.0
 11
194.10857391864221
 21
164.50283692429801
 31
0.0
  0
LINE
  5
428B
  8
3
 10
193.72037546664231
 20
163.46777201529801
 30
0.0
 11
195.58130114364221
 21
163.46777201529801
 31
0.0
  0
ARC
  5
428C
  8
3
 10
193.6556518516422
 20
164.50283692429801
 30
0.0
 40
0.4529220670000001
 50
0.0
 51
53.590781931000777
  0
LINE
  5
428D
  8
3
 10
193.9244830086422
 20
163.801538244298
 30
0.0
 11
193.9244830086422
 21
164.86734784029801
 31
0.0
  0
LINE
  5
428E
  8
3
 10
194.0939635296422
 20
163.68465513029801
 30
0.0
 11
194.8683141596423
 21
163.68465513029801
 31
0.0
  0
LINE
  5
428F
  8
3
 10
194.8683141596423
 20
158.264457040298
 30
0.0
 11
194.8683141596423
 21
157.76192798929799
 31
0.0
  0
CIRCLE
  5
4290
  8
3
 10
194.6846694876422
 20
156.579697654298
 30
0.0
 40
0.131493503
  0
ARC
  5
4291
  8
3
 10
193.6556518516422
 20
157.76192798929799
 30
0.0
 40
0.4529220670000001
 50
306.40921806899922
 51
0.0
  0
LINE
  5
4292
  8
3
 10
194.10857391864221
 20
158.69991493429799
 30
0.0
 11
194.10857391864221
 21
157.76192798929799
 31
0.0
  0
LINE
  5
4293
  8
3
 10
193.9244830086422
 20
158.67739222429799
 30
0.0
 11
193.9244830086422
 21
157.39741707329799
 31
0.0
  0
LINE
  5
4294
  8
3
 10
194.10857391864221
 20
158.887577271298
 30
0.0
 11
194.8683141596423
 21
158.887577271298
 31
0.0
  0
LINE
  5
4295
  8
3
 10
194.8683141596423
 20
159.22002116329799
 30
0.0
 11
194.8683141596423
 21
158.887577271298
 31
0.0
  0
ARC
  5
4296
  8
3
 10
-194.23925321264221
 20
158.81679804829801
 30
0.0
 40
0.175324671
210
0.0
220
0.0
230
-1.0
 50
270.0
 51
318.18968510400128
  0
LINE
  5
4297
  8
3
 10
194.10857391864221
 20
158.887577271298
 30
0.0
 11
194.10857391864221
 21
159.29666817029801
 31
0.0
  0
LINE
  5
4298
  8
3
 10
194.5482259216422
 20
158.61377205629799
 30
0.0
 11
194.2239726606422
 21
158.64214054029799
 31
0.0
  0
ARC
  5
4299
  8
3
 10
194.51766481764221
 20
158.264457040298
 30
0.0
 40
0.350649342
 50
0.0
 51
85.000000000000185
  0
ARC
  5
429A
  8
3
 10
194.02091158264221
 20
159.29666817029801
 30
0.0
 40
0.087662335
 50
0.0
 51
141.30619107899869
  0
LINE
  5
429B
  8
3
 10
194.8683141596423
 20
160.41939541929801
 30
0.0
 11
194.8683141596423
 21
161.23757721229799
 31
0.0
  0
LINE
  5
429C
  8
3
 10
194.10857391864221
 20
160.41939541929801
 30
0.0
 11
194.8683141596423
 21
160.41939541929801
 31
0.0
  0
LINE
  5
429D
  8
3
 10
194.10857391864221
 20
160.41939541929801
 30
0.0
 11
194.10857391864221
 21
161.23757721229799
 31
0.0
  0
ARC
  5
429E
  8
3
 10
193.6556518516422
 20
161.23757721229799
 30
0.0
 40
0.4529220670000001
 50
0.0
 51
53.590781931000777
  0
LINE
  5
429F
  8
3
 10
193.9244830086422
 20
160.536278533298
 30
0.0
 11
193.9244830086422
 21
161.60208812829799
 31
0.0
  0
LINE
  5
42A0
  8
3
 10
195.58130114364221
 20
162.66712269529791
 30
0.0
 11
195.58130114364221
 21
163.46777201529801
 31
0.0
  0
ARC
  5
42A1
  8
3
 10
193.6556518516422
 20
157.76192798929799
 30
0.0
 40
1.2126623080000001
 50
270.0
 51
0.0
  0
ARC
  5
42A2
  8
3
 10
193.97348534664221
 20
159.22002116329799
 30
0.0
 40
0.894828813
 50
0.0
 51
140.7531840590012
  0
ARC
  5
42A3
  8
3
 10
193.29078706864209
 20
159.881478687298
 30
0.0
 40
0.8477975240000001
 50
180.0
 51
321.30619107899872
  0
ARC
  5
42A4
  8
3
 10
193.6556518516422
 20
164.50283692429801
 30
0.0
 40
1.2126623080000001
 50
0.0
 51
180.0
  0
LINE
  5
42A5
  8
3
 10
193.66091777164229
 20
162.66712269529791
 30
0.0
 11
195.58130114364221
 21
162.66712269529791
 31
0.0
  0
LINE
  5
42A6
  8
3
 10
193.3868206956422
 20
163.801538244298
 30
0.0
 11
193.9244830086422
 21
163.801538244298
 31
0.0
  0
ARC
  5
42A7
  8
3
 10
193.6556518516422
 20
161.23757721229799
 30
0.0
 40
1.2126623080000001
 50
0.0
 51
180.0
  0
ARC
  5
42A8
  8
3
 10
193.7203754666422
 20
161.13010973529799
 30
0.0
 40
2.3376622799999991
 50
90.0
 51
123.12294020800201
  0
LINE
  5
42A9
  8
3
 10
193.3868206956422
 20
160.536278533298
 30
0.0
 11
193.9244830086422
 21
160.536278533298
 31
0.0
  0
CIRCLE
  5
42AA
  8
0
 10
198.49766921864219
 20
176.01549934229789
 30
0.0
 40
3.25
  0
ARC
  5
42AB
  8
0
 10
189.49766921864219
 20
185.01549934229789
 30
0.0
 40
1.0
 50
90.0
 51
180.0
  0
LINE
  5
42AC
  8
0
 10
188.79056243764219
 20
74.838297027018825
 30
0.0
 11
190.70477599964221
 21
76.752510590018858
 31
0.0
  0
ARC
  5
42AD
  8
0
 10
191.4118827806422
 20
76.045403809018865
 30
0.0
 40
1.0
 50
90.0
 51
134.99999999999969
  0
ARC
  5
42AE
  8
0
 10
189.49766921864219
 20
74.131190246018889
 30
0.0
 40
1.0
 50
134.99999999999969
 51
180.0
  0
LINE
  5
42AF
  8
0
 10
188.4976692186423
 20
71.045403809018865
 30
0.0
 11
188.4976692186423
 21
74.131190246018889
 31
0.0
  0
LINE
  5
42B4
  8
1
 10
198.49766662564221
 20
68.545403809018893
 30
0.0
 11
198.49766662564221
 21
79.545403809018865
 31
0.0
  0
LINE
  5
42B5
  8
1
 10
213.49766921864219
 20
191.01549934229789
 30
0.0
 11
213.4976692186423
 21
131.015499342298
 31
0.0
  0
LINE
  5
42B6
  8
0
 10
211.11898956264241
 20
186.01549934229789
 30
0.0
 11
211.11898956264241
 21
136.01549934229789
 31
0.0
  0
LINE
  5
42B7
  8
0
 10
215.87634887464219
 20
186.01549934229789
 30
0.0
 11
215.87634887464219
 21
136.01549934229789
 31
0.0
  0
LINE
  5
42B9
  8
0
 10
207.49762393064231
 20
149.615499344298
 30
0.0
 11
207.49762393064231
 21
160.01549934229789
 31
0.0
  0
LINE
  5
42BA
  8
0
 10
219.49762393064231
 20
149.615499344298
 30
0.0
 11
219.49762393064231
 21
160.01549934229789
 31
0.0
  0
LINE
  5
42BB
  8
0
 10
238.49762393064231
 20
137.01549934229789
 30
0.0
 11
238.49762393064231
 21
185.01549934229789
 31
0.0
  0
CIRCLE
  5
42BD
  8
0
 10
228.49762393064219
 20
146.015499342298
 30
0.0
 40
3.25
  0
LINE
  5
42BF
  8
0
 10
219.99762393064231
 20
136.01549934229789
 30
0.0
 11
237.49762393064219
 21
136.01549934229789
 31
0.0
  0
LINE
  5
42C2
  8
0
 10
207.4976692186423
 20
147.41549934129799
 30
0.0
 11
207.4976692186423
 21
137.01549934229789
 31
0.0
  0
ARC
  5
42C3
  8
0
 10
208.4976692186423
 20
137.01549934229789
 30
0.0
 40
1.0
 50
180.0
 51
270.0
  0
LINE
  5
42C7
  8
0
 10
219.4976692186423
 20
147.41549934129799
 30
0.0
 11
219.4976692186423
 21
137.01549934229789
 31
0.0
  0
ARC
  5
42C9
  8
0
 10
218.4976692186423
 20
137.01549934229789
 30
0.0
 40
1.0
 50
270.0
 51
0.0
  0
ARC
  5
42CE
  8
0
 10
237.49762393064219
 20
137.01549934229789
 30
0.0
 40
1.0
 50
270.0
 51
0.0
  0
LINE
  5
42CF
  8
1
 10
213.4976692186423
 20
66.045403809018865
 30
0.0
 11
213.4976692186423
 21
87.545403809018865
 31
0.0
  0
CIRCLE
  5
42D1
  8
0
 10
228.49762393064219
 20
176.01549934229789
 30
0.0
 40
3.25
  0
LINE
  5
42D2
  8
0
 10
237.49762393064219
 20
186.01549934229789
 30
0.0
 11
208.49762393064219
 21
186.01549934229789
 31
0.0
  0
LINE
  5
42D5
  8
0
 10
207.49762393064231
 20
174.51549934229789
 30
0.0
 11
207.49762393064231
 21
185.01549934229789
 31
0.0
  0
LINE
  5
42D6
  8
0
 10
219.49762393064231
 20
174.51549934229789
 30
0.0
 11
219.49762393064231
 21
185.01549934229789
 31
0.0
  0
LINE
  5
42D8
  8
0
 10
218.99762393064219
 20
173.51549934229789
 30
0.0
 11
207.9976692186423
 21
173.515499342298
 31
0.0
  0
LINE
  5
42D9
  8
0
 10
207.9976692186423
 20
161.01549934229789
 30
0.0
 11
218.99762393064231
 21
161.01549934229789
 31
0.0
  0
LINE
  5
42DB
  8
0
 10
207.4976692186423
 20
172.51549934229789
 30
0.0
 11
207.4976692186423
 21
162.01549934229789
 31
0.0
  0
ARC
  5
42DD
  8
0
 10
208.49762393064219
 20
160.01549934229789
 30
0.0
 40
1.0
 50
90.0
 51
180.0
  0
ARC
  5
42DE
  8
0
 10
208.4976692186423
 20
162.01549934229789
 30
0.0
 40
1.0
 50
180.0
 51
270.0
  0
ARC
  5
42E0
  8
0
 10
208.49762393064219
 20
174.51549934229789
 30
0.0
 40
1.0
 50
180.0
 51
270.0
  0
ARC
  5
42E1
  8
0
 10
208.4976692186423
 20
172.51549934229789
 30
0.0
 40
1.0
 50
90.0
 51
180.0
  0
LINE
  5
42E3
  8
0
 10
219.4976692186423
 20
172.51549934229789
 30
0.0
 11
219.4976692186423
 21
162.01549934229789
 31
0.0
  0
ARC
  5
42E5
  8
0
 10
218.49762393064219
 20
160.01549934229789
 30
0.0
 40
1.0
 50
0.0
 51
90.0
  0
ARC
  5
42E6
  8
0
 10
218.4976692186423
 20
162.01549934229789
 30
0.0
 40
1.0
 50
270.0
 51
0.0
  0
ARC
  5
42E8
  8
0
 10
218.4976692186423
 20
172.51549934229789
 30
0.0
 40
1.0
 50
0.0
 51
90.0
  0
ARC
  5
42E9
  8
0
 10
218.49762393064219
 20
174.51549934229789
 30
0.0
 40
1.0
 50
270.0
 51
0.0
  0
ARC
  5
42EA
  8
0
 10
208.49762393064219
 20
185.01549934229789
 30
0.0
 40
1.0
 50
90.0
 51
180.0
  0
ARC
  5
42EB
  8
0
 10
218.49762393064219
 20
185.01549934229789
 30
0.0
 40
1.0
 50
0.0
 51
90.0
  0
ARC
  5
42ED
  8
3
 10
233.33968658464229
 20
164.269070696298
 30
0.0
 40
1.2126623080000001
 50
90.0
 51
180.0
  0
LINE
  5
42EE
  8
3
 10
233.2749629696423
 20
158.56322667029801
 30
0.0
 11
231.4140372936422
 21
158.56322667029801
 31
0.0
  0
LINE
  5
42EF
  8
3
 10
233.3344206656422
 20
159.36387599029791
 30
0.0
 11
231.4140372936422
 21
159.36387599029791
 31
0.0
  0
LINE
  5
42F0
  8
3
 10
233.6085177416422
 20
158.22946044129799
 30
0.0
 11
233.0708554286422
 21
158.22946044129799
 31
0.0
  0
LINE
  5
42F1
  8
3
 10
233.6085177416422
 20
161.49472015229799
 30
0.0
 11
233.0708554286422
 21
161.49472015229799
 31
0.0
  0
ARC
  5
42F2
  8
3
 10
233.0218530906422
 20
162.810977522298
 30
0.0
 40
0.894828813
 50
180.0
 51
320.75318405900128
  0
ARC
  5
42F3
  8
3
 10
233.5741452036423
 20
164.192404326298
 30
0.0
 40
0.978203689
 50
239.03568815100039
 51
34.838177337002058
  0
ARC
  5
42F4
  8
3
 10
233.7045513686422
 20
162.14951999829799
 30
0.0
 40
0.8477975240000001
 50
0.0
 51
141.30619107899869
  0
ARC
  5
42F5
  8
3
 10
233.33968658464229
 20
157.52816176129801
 30
0.0
 40
1.2126623080000001
 50
180.0
 51
0.0
  0
ARC
  5
42F6
  8
3
 10
233.33968658464229
 20
160.793421473298
 30
0.0
 40
1.2126623080000001
 50
180.0
 51
0.0
  0
LINE
  5
42F7
  8
3
 10
232.12702427764231
 20
163.766541644298
 30
0.0
 11
232.12702427764231
 21
164.269070696298
 31
0.0
  0
CIRCLE
  5
42F8
  8
3
 10
232.31066894964221
 20
165.45130103129799
 30
0.0
 40
0.131493503
  0
ARC
  5
42F9
  8
3
 10
233.33968658464229
 20
164.269070696298
 30
0.0
 40
0.4529220670000001
 50
126.40921806899949
 51
180.0
  0
LINE
  5
42FA
  8
3
 10
232.8867645186422
 20
163.331083751298
 30
0.0
 11
232.8867645186422
 21
164.269070696298
 31
0.0
  0
LINE
  5
42FB
  8
3
 10
233.0708554286422
 20
163.353606461298
 30
0.0
 11
233.0708554286422
 21
164.633581612298
 31
0.0
  0
LINE
  5
42FC
  8
3
 10
232.8867645186422
 20
163.14342141429799
 30
0.0
 11
232.12702427764231
 21
163.14342141429799
 31
0.0
  0
LINE
  5
42FD
  8
3
 10
232.12702427764231
 20
162.810977522298
 30
0.0
 11
232.12702427764231
 21
163.14342141429799
 31
0.0
  0
ARC
  5
42FE
  8
3
 10
-232.75608522464219
 20
163.21420063729801
 30
0.0
 40
0.175324671
210
0.0
220
0.0
230
-1.0
 50
90.0
 51
138.1896851040012
  0
LINE
  5
42FF
  8
3
 10
232.8867645186422
 20
163.14342141429799
 30
0.0
 11
232.8867645186422
 21
162.73433051529801
 31
0.0
  0
LINE
  5
4300
  8
3
 10
232.4471125156422
 20
163.417226629298
 30
0.0
 11
232.77136577664231
 21
163.388858145298
 31
0.0
  0
ARC
  5
4301
  8
3
 10
232.47767361964219
 20
163.766541644298
 30
0.0
 40
0.350649342
 50
180.0
 51
265.00000000000023
  0
LINE
  5
4302
  8
3
 10
232.12702427764231
 20
158.34634355529801
 30
0.0
 11
232.12702427764231
 21
157.52816176129801
 31
0.0
  0
LINE
  5
4303
  8
3
 10
232.8867645186422
 20
158.34634355529801
 30
0.0
 11
232.8867645186422
 21
157.52816176129801
 31
0.0
  0
ARC
  5
4304
  8
3
 10
233.33968658464229
 20
157.52816176129801
 30
0.0
 40
0.4529220670000001
 50
180.0
 51
233.59078193100081
  0
LINE
  5
4305
  8
3
 10
233.0708554286422
 20
158.22946044129799
 30
0.0
 11
233.0708554286422
 21
157.16365084529789
 31
0.0
  0
LINE
  5
4306
  8
3
 10
232.90137490764221
 20
158.34634355529801
 30
0.0
 11
232.12702427764231
 21
158.34634355529801
 31
0.0
  0
LINE
  5
4307
  8
3
 10
231.4140372936422
 20
159.36387599029791
 30
0.0
 11
231.4140372936422
 21
158.56322667029801
 31
0.0
  0
LINE
  5
4308
  8
3
 10
232.12702427764231
 20
161.611603266298
 30
0.0
 11
232.12702427764231
 21
160.793421473298
 31
0.0
  0
LINE
  5
4309
  8
3
 10
232.8867645186422
 20
161.611603266298
 30
0.0
 11
232.12702427764231
 21
161.611603266298
 31
0.0
  0
LINE
  5
430A
  8
3
 10
232.8867645186422
 20
161.611603266298
 30
0.0
 11
232.8867645186422
 21
160.793421473298
 31
0.0
  0
ARC
  5
430B
  8
3
 10
233.33968658464229
 20
160.793421473298
 30
0.0
 40
0.4529220670000001
 50
180.0
 51
233.59078193100081
  0
LINE
  5
430C
  8
3
 10
233.0708554286422
 20
161.49472015229799
 30
0.0
 11
233.0708554286422
 21
160.428910557298
 31
0.0
  0
ARC
  5
430D
  8
3
 10
232.9744268536422
 20
162.73433051529801
 30
0.0
 40
0.087662335
 50
180.0
 51
321.30619107899872
  0
LINE
  5
430E
  8
3
 10
233.52669958464219
 20
163.88781837929801
 30
0.0
 11
233.52669958464219
 21
164.69277198429799
 31
0.0
  0
LINE
  5
430F
  8
3
 10
233.78968659064219
 20
164.09236382829801
 30
0.0
 11
233.78968659064219
 21
164.20468875729799
 31
0.0
  0
ARC
  5
4310
  8
3
 10
-233.2052710206423
 20
164.20468875729799
 30
0.0
 40
0.58441557
210
0.0
220
0.0
230
-1.0
 50
123.367012968998
 51
180.0
  0
ARC
  5
4311
  8
3
 10
-233.55592036264221
 20
164.09236382829801
 30
0.0
 40
0.233766228
210
0.0
220
0.0
230
-1.0
 50
180.0
 51
270.0
  0
ARC
  5
4312
  8
3
 10
-233.55592036264221
 20
163.88781837929801
 30
0.0
 40
0.029220778
210
0.0
220
0.0
230
-1.0
 50
270.0
 51
0.0
  0
LINE
  5
4313
  8
3
 10
234.0848164366422
 20
165.48173300429801
 30
0.0
 11
233.33968658464229
 21
165.48173300429801
 31
0.0
  0
ARC
  5
4314
  8
3
 10
233.8754757326422
 20
158.462601904298
 30
0.0
 40
0.087662335
 50
199.03867971699901
 51
267.58742227799911
  0
ARC
  5
4315
  8
3
 10
233.8752574946422
 20
161.64082404529799
 30
0.0
 40
0.087662335
 50
199.471220633999
 51
270.0
  0
LINE
  5
4316
  8
3
 10
233.79260865164221
 20
161.79926560329801
 30
0.0
 11
233.79260865164221
 21
162.217122741298
 31
0.0
  0
ARC
  5
4317
  8
3
 10
233.74877748364219
 20
162.217122741298
 30
0.0
 40
0.043831168
 50
0.0
 51
140.7531840590012
  0
LINE
  5
4318
  8
3
 10
233.79260865164221
 20
158.43400589029801
 30
0.0
 11
233.79260865164221
 21
157.52816176129801
 31
0.0
  0
LINE
  5
4319
  8
3
 10
233.6085177416422
 20
158.22946044129799
 30
0.0
 11
233.6085177416422
 21
157.16365084529789
 31
0.0
  0
ARC
  5
431A
  8
3
 10
233.33968658464229
 20
157.52816176129801
 30
0.0
 40
0.4529220670000001
 50
306.40921806899922
 51
0.0
  0
LINE
  5
431B
  8
3
 10
234.27244158964231
 20
158.35813670129801
 30
0.0
 11
233.87178558764231
 21
158.37501727129799
 31
0.0
  0
LINE
  5
431C
  8
3
 10
233.6085177416422
 20
161.49472015229799
 30
0.0
 11
233.6085177416422
 21
160.428910557298
 31
0.0
  0
ARC
  5
431D
  8
3
 10
233.33968658464229
 20
160.793421473298
 30
0.0
 40
0.4529220670000001
 50
306.40921806899922
 51
0.0
  0
LINE
  5
431E
  8
3
 10
233.79260865164221
 20
161.611603266298
 30
0.0
 11
233.79260865164221
 21
160.793421473298
 31
0.0
  0
LINE
  5
431F
  8
3
 10
234.2601411076422
 20
161.553161709298
 30
0.0
 11
233.8752574946422
 21
161.553161709298
 31
0.0
  0
LINE
  5
4320
  8
3
 10
234.5523488926423
 20
164.95575899129801
 30
0.0
 11
234.5523488926423
 21
165.71549923229799
 31
0.0
  0
ARC
  5
4321
  8
3
 10
234.21888133264221
 20
165.06417645929801
 30
0.0
 40
0.350649342
 50
296.80786761499979
 51
341.98954309500238
  0
LINE
  5
4322
  8
3
 10
234.5523488926423
 20
159.90738248129799
 30
0.0
 11
234.5523488926423
 21
158.943096790298
 31
0.0
  0
LINE
  5
4323
  8
3
 10
234.5523488926423
 20
161.79926560329801
 30
0.0
 11
234.5523488926423
 21
162.14951999829799
 31
0.0
  0
LINE
  5
4324
  8
3
 10
234.5523488926423
 20
158.06618792529801
 30
0.0
 11
234.5523488926423
 21
157.52816176129801
 31
0.0
  0
LINE
  5
4325
  8
3
 10
234.5523488926423
 20
161.26095392429801
 30
0.0
 11
234.5523488926423
 21
160.793421473298
 31
0.0
  0
ARC
  5
4326
  8
3
 10
234.0848164366422
 20
166.06614857329799
 30
0.0
 40
0.58441557
 50
270.0
 51
323.13010235399958
  0
LINE
  5
4327
  8
3
 10
234.5523488926423
 20
161.79926560329801
 30
0.0
 11
233.79260865164221
 21
161.79926560329801
 31
0.0
  0
ARC
  5
4328
  8
3
 10
233.27496296964219
 20
160.900888950298
 30
0.0
 40
2.3376622799999991
 50
270.0
 51
303.12294020800209
  0
ARC
  5
4329
  8
3
 10
233.3344206656422
 20
161.000239585298
 30
0.0
 40
1.6363635959999989
 50
270.0
 51
318.09810780299892
  0
ARC
  5
432A
  8
3
 10
234.2601411076422
 20
158.06618792529801
 30
0.0
 40
0.292207785
 50
0.0
 51
87.587422277999195
  0
ARC
  5
432B
  8
3
 10
234.2601411076422
 20
161.26095392429801
 30
0.0
 40
0.292207785
 50
0.0
 51
90.0
  0
ARC
  5
432C
  8
0
 10
237.49762393064219
 20
185.01549934229789
 30
0.0
 40
1.0
 50
0.0
 51
90.0
  0
LINE
  5
432D
  8
2
 10
231.7476692186423
 20
74.045403618018838
 30
0.0
 11
225.2476692186423
 21
74.045403618018838
 31
0.0
  0
LINE
  5
432E
  8
0
 10
235.58345565664229
 20
77.045403809018865
 30
0.0
 11
219.4976692186423
 21
77.045403809018865
 31
0.0
  0
LINE
  5
432F
  8
0
 10
238.4976692186423
 20
71.045403809018865
 30
0.0
 11
220.4976011916423
 21
71.045403809018865
 31
0.0
  0
LINE
  5
4330
  8
1
 10
224.4976692186423
 20
77.545400822018834
 30
0.0
 11
202.4976692186423
 21
77.545400822018834
 31
0.0
  0
LINE
  5
4331
  8
0
 10
215.87634887464219
 20
82.545403809018865
 30
0.0
 11
211.11898956164219
 21
82.545403809018865
 31
0.0
  0
CIRCLE
  5
4332
  8
0
 10
213.49766921864219
 20
77.545403809018865
 30
0.0
 40
3.0
  0
LINE
  5
4333
  8
0
 10
218.63157578764219
 20
71.545403809018865
 30
0.0
 11
213.4976692186423
 21
71.545403809018865
 31
0.0
  0
ARC
  5
4334
  8
0
 10
213.99766921864219
 20
77.045403809018865
 30
0.0
 40
5.5
 50
270.0
 51
0.0
  0
LINE
  5
4335
  8
0
 10
207.93700904664229
 20
79.984743637018823
 30
0.0
 11
210.05832939064231
 21
82.106063980018845
 31
0.0
  0
LINE
  5
4336
  8
0
 10
213.4976692186423
 20
71.545403809018865
 30
0.0
 11
208.36376264864231
 21
71.545403809018865
 31
0.0
  0
LINE
  5
4337
  8
0
 10
207.4976692186423
 20
77.045403809018865
 30
0.0
 11
207.4976692186423
 21
78.924083465018839
 31
0.0
  0
ARC
  5
4338
  8
0
 10
208.99766921864219
 20
78.924083465018839
 30
0.0
 40
1.5
 50
134.99999999999969
 51
180.0
  0
LINE
  5
4339
  8
0
 10
206.4977372456423
 20
71.045403809018865
 30
0.0
 11
208.36376264864231
 21
71.545403809018865
 31
0.0
  0
ARC
  5
433A
  8
0
 10
211.11898956164219
 20
81.045403809018865
 30
0.0
 40
1.5
 50
90.0
 51
134.99999999999969
  0
LINE
  5
433B
  8
0
 10
219.0583293906422
 20
79.984743637018823
 30
0.0
 11
216.93700904664229
 21
82.106063980018845
 31
0.0
  0
LINE
  5
433C
  8
0
 10
219.4976692186423
 20
77.045403809018865
 30
0.0
 11
219.4976692186423
 21
78.924083465018839
 31
0.0
  0
ARC
  5
433D
  8
0
 10
217.99766921864219
 20
78.924083465018839
 30
0.0
 40
1.5
 50
0.0
 51
45.000000000000291
  0
LINE
  5
433E
  8
0
 10
220.4976011916423
 20
71.045403809018865
 30
0.0
 11
218.63157578764219
 21
71.545403809018865
 31
0.0
  0
LINE
  5
433F
  8
2
 10
222.2476690276423
 20
77.045403809018865
 30
0.0
 11
225.2476692186423
 21
74.045403618018838
 31
0.0
  0
LINE
  5
4340
  8
2
 10
225.2476692186423
 20
71.045403809018865
 30
0.0
 11
225.2476692186423
 21
74.04540361801881
 31
0.0
  0
ARC
  5
4341
  8
0
 10
215.87634887464219
 20
81.045403809018865
 30
0.0
 40
1.5
 50
45.000000000000291
 51
90.0
  0
LINE
  5
4342
  8
2
 10
231.74766921864219
 20
74.045403618018838
 30
0.0
 11
234.74766940964221
 21
77.045403809018865
 31
0.0
  0
LINE
  5
4343
  8
2
 10
231.7476692186423
 20
74.045403618018838
 30
0.0
 11
231.7476692186423
 21
71.045403809018865
 31
0.0
  0
LINE
  5
4344
  8
1
 10
228.49767181164231
 20
68.545403809018865
 30
0.0
 11
228.49767181164231
 21
79.545403809018865
 31
0.0
  0
LINE
  5
4345
  8
0
 10
238.20477599964229
 20
74.838297027018825
 30
0.0
 11
236.29056243764231
 21
76.752510590018858
 31
0.0
  0
ARC
  5
4346
  8
0
 10
235.5834556566422
 20
76.045403809018865
 30
0.0
 40
1.0
 50
45.000000000000291
 51
90.0
  0
ARC
  5
4347
  8
0
 10
237.4976692186423
 20
74.131190246018889
 30
0.0
 40
1.0
 50
0.0
 51
45.000000000000291
  0
LINE
  5
4348
  8
0
 10
238.4976692186423
 20
71.045403809018865
 30
0.0
 11
238.4976692186423
 21
74.131190246018889
 31
0.0
  0
LINE
  5
434A
  8
0
 10
91.217827281549489
 20
82.045403809018694
 30
0.0
 11
91.217827281549489
 21
71.045403809018865
 31
0.0
  0
LINE
  5
434D
  8
0
 10
103.7178272815495
 20
82.045403809018694
 30
0.0
 11
103.7178272815495
 21
77.030713827476291
 31
0.0
  0
LINE
  5
4351
  8
1
 10
116.2178272815495
 20
87.545403809018694
 30
0.0
 11
116.2178272815495
 21
66.045403809018865
 31
0.0
  0
LINE
  5
4353
  8
0
 10
128.71782728154949
 20
82.045403809018794
 30
0.0
 11
128.71782728154949
 21
77.030713827476291
 31
0.0
  0
LINE
  5
4359
  8
0
 10
141.21782728154949
 20
82.045403809018836
 30
0.0
 11
141.21782728154949
 21
71.045403809018865
 31
0.0
  0
LINE
  5
435A
  8
3
 10
190.70477599964229
 20
186.01549934229789
 30
5.7071067810000002
 11
190.70477599964221
 21
136.01549934229789
 31
5.7071067810000002
  0
LINE
  5
435B
  8
3
 10
236.29056243764231
 20
136.01549934229789
 30
5.7071067810000002
 11
236.29056243764231
 21
186.01549934229789
 31
5.7071067810000002
  0
CIRCLE
  5
4368
  8
0
 10
228.49762393064219
 20
176.01549934229789
 30
0.0
 40
6.25
  0
CIRCLE
  5
4369
  8
0
 10
228.49762393064219
 20
146.015499342298
 30
0.0
 40
6.25
  0
CIRCLE
  5
436B
  8
0
 10
198.49766921864219
 20
176.01549934229789
 30
0.0
 40
6.25
  0
CIRCLE
  5
436C
  8
0
 10
198.49766921864219
 20
146.015499342298
 30
0.0
 40
6.25
  0
LINE
  5
436D
  8
1
 10
228.49762393064219
 20
183.76549934229789
 30
0.0
 11
228.49762393064219
 21
168.26549934229789
 31
0.0
  0
LINE
  5
436E
  8
1
 10
236.24762393064231
 20
176.01549934229789
 30
0.0
 11
220.74762393064219
 21
176.01549934229789
 31
0.0
  0
LINE
  5
436F
  8
1
 10
228.49762393064219
 20
153.76549934229789
 30
0.0
 11
228.49762393064219
 21
138.26549934229789
 31
0.0
  0
LINE
  5
4370
  8
1
 10
236.24762393064231
 20
146.015499342298
 30
0.0
 11
220.74762393064219
 21
146.015499342298
 31
0.0
  0
LINE
  5
4371
  8
1
 10
198.49766921864219
 20
153.76549934229789
 30
0.0
 11
198.49766921864219
 21
138.26549934229789
 31
0.0
  0
LINE
  5
4372
  8
1
 10
206.2476692186423
 20
146.015499342298
 30
0.0
 11
190.74766921864219
 21
146.015499342298
 31
0.0
  0
LINE
  5
4373
  8
1
 10
198.49766921864219
 20
183.76549934229789
 30
0.0
 11
198.49766921864219
 21
168.26549934229789
 31
0.0
  0
LINE
  5
4374
  8
1
 10
206.2476692186423
 20
176.01549934229789
 30
0.0
 11
190.74766921864219
 21
176.01549934229789
 31
0.0
  0
LINE
  5
4376
  8
0
 10
218.99762393064219
 20
148.51549934229789
 30
0.0
 11
207.9976692186423
 21
148.515499342298
 31
0.0
  0
ARC
  5
4378
  8
0
 10
208.4976692186423
 20
147.51549934229789
 30
0.0
 40
1.0
 50
90.0
 51
180.0
  0
ARC
  5
4379
  8
0
 10
208.49762393064219
 20
149.51549934229789
 30
0.0
 40
1.0
 50
180.0
 51
270.0
  0
ARC
  5
437B
  8
0
 10
218.4976692186423
 20
147.51549934229789
 30
0.0
 40
1.0
 50
0.0
 51
90.0
  0
ARC
  5
437C
  8
0
 10
218.49762393064219
 20
149.51549934229789
 30
0.0
 40
1.0
 50
270.0
 51
0.0
  0
LINE
  5
437E
  8
0
 10
219.99762393064231
 20
162.01549934229789
 30
0.0
 11
219.99762393064231
 21
172.51549934229789
 31
0.0
  0
ARC
  5
437F
  8
0
 10
218.99762393064219
 20
172.51549934229789
 30
0.0
 40
1.0
 50
0.0
 51
89.999999999999844
  0
ARC
  5
4380
  8
0
 10
218.99762393064231
 20
162.01549934229789
 30
0.0
 40
1.0
 50
270.0
 51
0.0
  0
LINE
  5
4381
  8
0
 10
219.99762393064231
 20
136.01549934229789
 30
0.0
 11
219.99762393064231
 21
147.51549934229789
 31
0.0
  0
ARC
  5
4382
  8
0
 10
218.99762393064219
 20
147.51549934229789
 30
0.0
 40
1.0
 50
0.0
 51
89.999999999999844
  0
LINE
  5
4383
  8
0
 10
206.9976692186423
 20
160.01549934229789
 30
0.0
 11
206.9976692186423
 21
149.515499342298
 31
0.0
  0
ARC
  5
4384
  8
0
 10
207.9976692186423
 20
149.515499342298
 30
0.0
 40
1.0
 50
180.0
 51
269.99999999999972
  0
ARC
  5
4385
  8
0
 10
207.9976692186423
 20
160.01549934229789
 30
0.0
 40
1.0
 50
90.0
 51
180.0
  0
LINE
  5
4386
  8
0
 10
206.9976692186423
 20
186.01549934229789
 30
0.0
 11
206.9976692186423
 21
174.515499342298
 31
0.0
  0
ARC
  5
4387
  8
0
 10
207.9976692186423
 20
174.515499342298
 30
0.0
 40
1.0
 50
180.0
 51
269.99999999999972
  0
LINE
  5
438A
  8
0
 10
220.2598459360685
 20
77.045403809018865
 30
0.0
 11
220.4976011916423
 21
71.045403809018865
 31
0.0
  0
LINE
  5
438E
  8
2
 10
201.74766403264229
 20
74.045403618018838
 30
0.0
 11
195.24766403264221
 21
74.045403618018838
 31
0.0
  0
LINE
  5
438F
  8
2
 10
201.74766403264221
 20
74.045403618018838
 30
0.0
 11
204.7476642236422
 21
77.045403809018865
 31
0.0
  0
LINE
  5
4390
  8
2
 10
201.74766403264229
 20
74.045403618018838
 30
0.0
 11
201.74766403264229
 21
71.045403809018865
 31
0.0
  0
LINE
  5
4391
  8
2
 10
192.24766384164229
 20
77.045403809018865
 30
0.0
 11
195.24766403264221
 21
74.045403618018838
 31
0.0
  0
LINE
  5
4392
  8
2
 10
195.24766403264221
 20
71.045403809018865
 30
0.0
 11
195.24766403264221
 21
74.04540361801881
 31
0.0
  0
LINE
  5
4393
  8
0
 10
140.71782728154949
 20
82.545403809018694
 30
0.0
 11
129.21782728154949
 21
82.545403809018694
 31
0.0
  0
LINE
  5
4394
  8
0
 10
141.21782728154949
 20
77.045403809018865
 30
0.0
 11
91.217827281549489
 21
77.045403809018836
 31
0.0
  0
LINE
  5
4395
  8
0
 10
116.2178272815495
 20
82.545403809018865
 30
0.0
 11
116.2178272815494
 21
77.030713827476291
 31
0.0
  0
LINE
  5
4397
  8
2
 10
134.46782468854951
 20
74.045403618018838
 30
0.0
 11
127.9678246885495
 21
74.045403618018838
 31
0.0
  0
LINE
  5
4398
  8
2
 10
124.9678244975495
 20
77.045403809018865
 30
0.0
 11
127.9678246885495
 21
74.045403618018838
 31
0.0
  0
LINE
  5
4399
  8
2
 10
127.9678246885495
 20
71.045403809018865
 30
0.0
 11
127.9678246885495
 21
74.04540361801881
 31
0.0
  0
LINE
  5
439A
  8
2
 10
134.46782468854951
 20
74.045403618018838
 30
0.0
 11
137.46782487954951
 21
77.045403809018865
 31
0.0
  0
LINE
  5
439B
  8
1
 10
131.21782728154949
 20
68.545403809018893
 30
0.0
 11
131.21782728154949
 21
79.545403809018865
 31
0.0
  0
LINE
  5
439C
  8
2
 10
134.46782468854951
 20
74.045403618018838
 30
0.0
 11
134.46782468854951
 21
71.045403809018865
 31
0.0
  0
LINE
  5
439D
  8
2
 10
104.4678246885495
 20
74.045403618018838
 30
0.0
 11
97.967824688549513
 21
74.045403618018838
 31
0.0
  0
LINE
  5
439E
  8
2
 10
94.967824497549543
 20
77.045403809018865
 30
0.0
 11
97.967824688549513
 21
74.045403618018838
 31
0.0
  0
LINE
  5
439F
  8
2
 10
97.967824688549513
 20
71.045403809018865
 30
0.0
 11
97.967824688549513
 21
74.04540361801881
 31
0.0
  0
LINE
  5
43A0
  8
2
 10
104.4678246885495
 20
74.045403618018838
 30
0.0
 11
107.4678248795495
 21
77.045403809018865
 31
0.0
  0
LINE
  5
43A1
  8
2
 10
104.4678246885495
 20
74.045403618018838
 30
0.0
 11
104.4678246885495
 21
71.045403809018865
 31
0.0
  0
LINE
  5
43A2
  8
1
 10
101.2178272815495
 20
68.545403809018893
 30
0.0
 11
101.2178272815495
 21
79.545403809018865
 31
0.0
  0
ARC
  5
43A3
  8
0
 10
140.71782728154949
 20
82.045403809018836
 30
0.0
 40
0.5
 50
0.0
 51
89.999999999999986
  0
ARC
  5
43A5
  8
0
 10
91.717827281549489
 20
82.045403809018694
 30
0.0
 40
0.5
 50
90.000000000000114
 51
180.0
  0
ARC
  5
43A7
  8
0
 10
116.7178272815495
 20
82.045403809018794
 30
0.0
 40
0.5
 50
89.999999999999986
 51
180.0
  0
ARC
  5
43A8
  8
0
 10
115.7178272815495
 20
82.045403809018694
 30
0.0
 40
0.5
 50
359.99999999999972
 51
90.000000000000185
  0
LINE
  5
43A9
  8
0
 10
115.7178272815495
 20
82.545403809018694
 30
0.0
 11
104.2178272815495
 21
82.545403809018694
 31
0.0
  0
ARC
  5
43AA
  8
0
 10
128.21782728154949
 20
82.045403809018694
 30
0.0
 40
0.5
 50
359.99999999999972
 51
90.000000000000185
  0
ARC
  5
43AB
  8
0
 10
129.21782728154949
 20
82.045403809018794
 30
0.0
 40
0.5
 50
89.999999999999986
 51
180.0
  0
ARC
  5
43AC
  8
0
 10
103.2178272815495
 20
82.045403809018694
 30
0.0
 40
0.5
 50
359.99999999999972
 51
90.000000000000185
  0
ARC
  5
43AD
  8
0
 10
104.2178272815495
 20
82.045403809018794
 30
0.0
 40
0.5
 50
89.999999999999986
 51
180.0
  0
LINE
  5
43AE
  8
0
 10
103.2178272815495
 20
82.545403809018694
 30
0.0
 11
91.717827281549489
 21
82.545403809018694
 31
0.0
  0
LINE
  5
43AF
  8
0
 10
128.21782728154949
 20
82.545403809018694
 30
0.0
 11
116.7178272815495
 21
82.545403809018694
 31
0.0
  0
TEXT
  5
44D0
  8
0
 62
     3
 10
0.0
 20
0.0
 30
0.0
 40
10.0
  1
MD-EFTH5050HH
  7
STANDARD1
  0
ENDSEC
  0
EOF
