  0
SECTION
  2
HEADER
  9
$ACADVER
  1
AC1009
  9
$INSBASE
 10
0.0
 20
0.0
 30
0.0
  9
$EXTMIN
 10
0.0
 20
-2.960436562073669
 30
0.0
  9
$EXTMAX
 10
423.81364756250531
 20
169.9000000056879
 30
0.0
  9
$LIMMIN
 10
0.0
 20
0.0
  9
$LIMMAX
 10
375.0
 20
270.0
  9
$ORTHOMODE
 70
     1
  9
$REGENMODE
 70
     1
  9
$FILLMODE
 70
     1
  9
$QTEXTMODE
 70
     0
  9
$MIRRTEXT
 70
     0
  9
$DRAGMODE
 70
     2
  9
$LTSCALE
 40
5.0
  9
$OSMODE
 70
    37
  9
$ATTMODE
 70
     1
  9
$TEXTSIZE
 40
0.2
  9
$TRACEWID
 40
0.05
  9
$TEXTSTYLE
  7
STANDARD
  9
$CLAYER
  8
0
  9
$CELTYPE
  6
BYLAYER
  9
$CECOLOR
 62
   256
  9
$DIMSCALE
 40
1.0
  9
$DIMASZ
 40
3.0
  9
$DIMEXO
 40
2.0
  9
$DIMDLI
 40
0.38
  9
$DIMRND
 40
0.0
  9
$DIMDLE
 40
0.0
  9
$DIMEXE
 40
2.0
  9
$DIMTP
 40
0.0
  9
$DIMTM
 40
0.0
  9
$DIMTXT
 40
3.2000000000000002
  9
$DIMCEN
 40
0.0
  9
$DIMTSZ
 40
0.0
  9
$DIMTOL
 70
     0
  9
$DIMLIM
 70
     0
  9
$DIMTIH
 70
     0
  9
$DIMTOH
 70
     0
  9
$DIMSE1
 70
     0
  9
$DIMSE2
 70
     0
  9
$DIMTAD
 70
     1
  9
$DIMZIN
 70
     0
  9
$DIMBLK
  1

  9
$DIMASO
 70
     0
  9
$DIMSHO
 70
     0
  9
$DIMPOST
  1

  9
$DIMAPOST
  1

  9
$DIMALT
 70
     0
  9
$DIMALTD
 70
     2
  9
$DIMALTF
 40
25.399999999999999
  9
$DIMLFAC
 40
1.0
  9
$DIMTOFL
 70
     0
  9
$DIMTVP
 40
1.6000000000000001
  9
$DIMTIX
 70
     1
  9
$DIMSOXD
 70
     0
  9
$DIMSAH
 70
     0
  9
$DIMBLK1
  1

  9
$DIMBLK2
  1

  9
$DIMSTYLE
  2
STANDARD
  9
$DIMCLRD
 70
     4
  9
$DIMCLRE
 70
     4
  9
$DIMCLRT
 70
     4
  9
$DIMTFAC
 40
1.0
  9
$DIMGAP
 40
0.09
  9
$LUNITS
 70
     2
  9
$LUPREC
 70
     1
  9
$SKETCHINC
 40
0.1
  9
$FILLETRAD
 40
0.0
  9
$AUNITS
 70
     0
  9
$AUPREC
 70
     1
  9
$MENU
  1
E:\r13\win\SUPPORT\ACAD
  9
$ELEVATION
 40
0.0
  9
$PELEVATION
 40
0.0
  9
$THICKNESS
 40
0.0
  9
$LIMCHECK
 70
     0
  9
$BLIPMODE
 70
     0
  9
$CHAMFERA
 40
0.0
  9
$CHAMFERB
 40
0.0
  9
$SKPOLY
 70
     0
  9
$TDCREATE
 40
2449840.6508564819
  9
$TDUPDATE
 40
2457968.4254288659
  9
$TDINDWG
 40
0.1218113194
  9
$TDUSRTIMER
 40
0.1218113194
  9
$USRTIMER
 70
     1
  9
$ANGBASE
 50
0.0
  9
$ANGDIR
 70
     0
  9
$PDMODE
 70
     0
  9
$PDSIZE
 40
0.0
  9
$PLINEWID
 40
0.0
  9
$COORDS
 70
     1
  9
$SPLFRAME
 70
     0
  9
$SPLINETYPE
 70
     6
  9
$SPLINESEGS
 70
     8
  9
$ATTDIA
 70
     0
  9
$ATTREQ
 70
     1
  9
$HANDLING
 70
     1
  9
$HANDSEED
  5
1387
  9
$SURFTAB1
 70
     6
  9
$SURFTAB2
 70
     6
  9
$SURFTYPE
 70
     6
  9
$SURFU
 70
     6
  9
$SURFV
 70
     6
  9
$UCSNAME
  2

  9
$UCSORG
 10
0.0
 20
0.0
 30
0.0
  9
$UCSXDIR
 10
1.0
 20
0.0
 30
0.0
  9
$UCSYDIR
 10
0.0
 20
1.0
 30
0.0
  9
$PUCSNAME
  2

  9
$PUCSORG
 10
0.0
 20
0.0
 30
0.0
  9
$PUCSXDIR
 10
1.0
 20
0.0
 30
0.0
  9
$PUCSYDIR
 10
0.0
 20
1.0
 30
0.0
  9
$USERI1
 70
     0
  9
$USERI2
 70
     1
  9
$USERI3
 70
     1
  9
$USERI4
 70
     0
  9
$USERI5
 70
     0
  9
$USERR1
 40
0.0
  9
$USERR2
 40
0.0
  9
$USERR3
 40
0.0
  9
$USERR4
 40
0.0
  9
$USERR5
 40
0.0
  9
$WORLDVIEW
 70
     1
  9
$SHADEDGE
 70
     3
  9
$SHADEDIF
 70
    70
  9
$TILEMODE
 70
     1
  9
$MAXACTVP
 70
    16
  9
$PLIMCHECK
 70
     0
  9
$PEXTMIN
 10
1.0000000000000000E+020
 20
1.0000000000000000E+020
 30
1.0000000000000000E+020
  9
$PEXTMAX
 10
-1.0000000000000000E+020
 20
-1.0000000000000000E+020
 30
-1.0000000000000000E+020
  9
$PLIMMIN
 10
0.0
 20
0.0
  9
$PLIMMAX
 10
12.0
 20
9.0
  9
$UNITMODE
 70
     0
  9
$VISRETAIN
 70
     0
  9
$PLINEGEN
 70
     0
  9
$PSLTSCALE
 70
     0
  0
ENDSEC
  0
SECTION
  2
TABLES
  0
TABLE
  2
VPORT
 70
     1
  0
VPORT
  2
*ACTIVE
 70
     0
 10
0.0
 20
0.0
 11
1.0
 21
1.0
 12
363.24786324786322
 22
200.0
 13
0.0
 23
0.0
 14
10.0
 24
10.0
 15
10.0
 25
10.0
 16
0.0
 26
0.0
 36
1.0
 17
0.0
 27
0.0
 37
0.0
 40
400.0
 41
1.816239316239316
 42
50.0
 43
0.0
 44
0.0
 50
0.0
 51
0.0
 71
     0
 72
   500
 73
     1
 74
     0
 75
     0
 76
     0
 77
     0
 78
     2
  0
ENDTAB
  0
TABLE
  2
LTYPE
 70
     3
  0
LTYPE
  2
CONTINUOUS
 70
     0
  3
Solid Line
 72
    65
 73
     0
 40
0.0
  0
LTYPE
  2
CENTER
 70
     0
  3
____ _ ____ _ ____ _ ____ _ ____ _ ____ _ ____
 72
    65
 73
     4
 40
2.0
 49
1.25
 49
-0.25
 49
0.25
 49
-0.25
  0
LTYPE
  2
PHANTOM2
 70
     0
  3
___ _ _ ___ _ _ ___ _ _ ___ _ _
 72
    65
 73
     6
 40
1.25
 49
0.625
 49
-0.125
 49
0.125
 49
-0.125
 49
0.125
 49
-0.125
  0
ENDTAB
  0
TABLE
  2
LAYER
 70
     3
  0
LAYER
  2
0
 70
     0
 62
     7
  6
CONTINUOUS
  0
LAYER
  2
1
 70
     0
 62
     1
  6
CENTER
  0
LAYER
  2
3
 70
     0
 62
     3
  6
CONTINUOUS
  0
ENDTAB
  0
TABLE
  2
STYLE
 70
     2
  0
STYLE
  2
STANDARD
 70
     0
 40
0.0
 41
1.0
 50
0.0
 71
     0
 42
0.2
  3
TXT
  4
BIGFONT
  0
STYLE
  2
STANDARD1
 70
     0
 40
0.0
 41
1.0
 50
0.0
 71
     0
 42
3.0
  3
txt
  4

  0
ENDTAB
  0
TABLE
  2
VIEW
 70
     1
  0
VIEW
  2
ALL
 70
     0
 40
270.0
 10
220.99159663865549
 20
135.0
 41
0.0
 11
0.0
 21
0.0
 31
1.0
 12
0.0
 22
0.0
 32
0.0
 42
0.0
 43
0.0
 44
0.0
 50
0.0
 71
     0
  0
ENDTAB
  0
TABLE
  2
UCS
 70
     0
  0
ENDTAB
  0
TABLE
  2
APPID
 70
    13
  0
APPID
  2
ACAD
 70
     0
  0
APPID
  2
GENIUS_GENODEF_13
 70
     0
  0
APPID
  2
GENIUS_GENOENT_13
 70
     0
  0
APPID
  2
GENIUS_GENOBJ_13
 70
     0
  0
APPID
  2
GENIUS_GENOLIS_13
 70
     0
  0
APPID
  2
GENIUS_GENOREF_13
 70
     0
  0
APPID
  2
GENIUS_GENOBJ-N-FIL_13
 70
     0
  0
APPID
  2
ACAD_MLEADERVER
 70
     0
  0
APPID
  2
ACAD_DSTYLE_DIMJAG
 70
     0
  0
APPID
  2
ACAD_DSTYLE_DIMTALN
 70
     0
  0
APPID
  2
ACAD_NAV_VCDISPLAY
 70
     0
  0
APPID
  2
ACAD_EXEMPT_FROM_CAD_STANDARDS
 70
     0
  0
APPID
  2
ACADANNOTATIVE
 70
     0
  0
ENDTAB
  0
TABLE
  2
DIMSTYLE
 70
     1
  0
DIMSTYLE
  2
STANDARD
 70
     0
  3

  4

  5

  6

  7

 40
1.0
 41
0.18
 42
0.0625
 43
0.38
 44
0.18
 45
0.0
 46
0.0
 47
0.0
 48
0.0
140
0.18
141
0.09
142
0.0
143
25.399999999999999
144
1.0
145
0.0
146
1.0
147
0.09
 71
     0
 72
     0
 73
     1
 74
     1
 75
     0
 76
     0
 77
     0
 78
     0
170
     0
171
     2
172
     0
173
     0
174
     0
175
     0
176
     0
177
     0
178
     0
  0
ENDTAB
  0
ENDSEC
  0
SECTION
  2
BLOCKS
  0
BLOCK
  8
0
  2
$MODEL_SPACE
 70
     0
 10
0.0
 20
0.0
 30
0.0
  3
$MODEL_SPACE
  1

  0
ENDBLK
  5
DC
  8
0
  0
BLOCK
 67
     1
  8
0
  2
$PAPER_SPACE
 70
     0
 10
0.0
 20
0.0
 30
0.0
  3
$PAPER_SPACE
  1

  0
ENDBLK
  5
DA
 67
     1
  8
0
  0
ENDSEC
  0
SECTION
  2
ENTITIES
  0
TEXT
  5
452
  8
0
 62
     3
 10
0.0
 20
0.0
 30
0.0
 40
10.0
  1
MGDS40
  7
STANDARD1
  0
LINE
  5
B30
  8
0
 10
89.500000000000014
 20
57.500000005687859
 30
0.0
 11
89.500000000000014
 21
58.4000000056879
 31
0.0
  0
LINE
  5
B31
  8
0
 10
84.500000000000014
 20
58.4000000056879
 30
0.0
 11
84.500000000000014
 21
57.500000005687859
 31
0.0
  0
ARC
  5
B32
  8
0
 10
93.380477139999982
 20
56.600000005687889
 30
0.0
 40
0.3000000009155785
 50
336.05156811718712
 51
90.0
  0
ARC
  5
B33
  8
0
 10
79.032071819999999
 20
62.972853725687912
 30
0.0
 40
15.999999994299969
 50
311.60519826241148
 51
336.05156855486428
  0
ARC
  5
B34
  8
0
 10
87.000012470000016
 20
53.99996988568784
 30
0.0
 40
3.999969885687821
 50
269.99982137902481
 51
311.60535160780211
  0
ARC
  5
B35
  8
0
 10
86.999987529999999
 20
53.999969885687911
 30
0.0
 40
3.9999698855000041
 50
228.3946483922366
 51
270.00017862090027
  0
ARC
  5
B36
  8
0
 10
80.619522860000018
 20
56.600000005687889
 30
0.0
 40
0.3000000017656002
 50
90.0
 51
203.94843188393551
  0
LINE
  5
B37
  8
0
 10
82.599999999999994
 20
56.9000000056879
 30
0.0
 11
80.619522860000018
 21
56.9000000056879
 31
0.0
  0
ARC
  5
B38
  8
0
 10
82.599999999999994
 20
57.200000005687912
 30
0.0
 40
0.3000000000000114
 50
270.0
 51
0.0
  0
LINE
  5
B39
  8
0
 10
82.900000000000006
 20
57.300000005687878
 30
0.0
 11
82.900000000000006
 21
57.200000005687912
 31
0.0
  0
ARC
  5
B3A
  8
0
 10
83.099999999999994
 20
57.300000005687878
 30
0.0
 40
0.2000000000000028
 50
90.0
 51
180.0
  0
LINE
  5
B3B
  8
0
 10
83.099999999999994
 20
57.500000005687859
 30
0.0
 11
90.900000000000006
 21
57.500000005687859
 31
0.0
  0
ARC
  5
B3C
  8
0
 10
90.900000000000006
 20
57.300000005687878
 30
0.0
 40
0.2000000000000028
 50
0.0
 51
90.0
  0
LINE
  5
B3D
  8
0
 10
91.099999999999994
 20
57.200000005687912
 30
0.0
 11
91.099999999999994
 21
57.300000005687878
 31
0.0
  0
ARC
  5
B3E
  8
0
 10
91.400000000000006
 20
57.200000005687912
 30
0.0
 40
0.3000000000000114
 50
180.0
 51
270.0
  0
LINE
  5
B3F
  8
0
 10
93.380477139999982
 20
56.9000000056879
 30
0.0
 11
91.400000000000006
 21
56.9000000056879
 31
0.0
  0
ARC
  5
B40
  8
0
 10
94.967928179999973
 20
62.972853725687862
 30
0.0
 40
15.9999999942344
 50
203.9484314451573
 51
228.39480173760211
  0
ARC
  5
B41
  8
0
 10
83.550000000000026
 20
58.9000000056879
 30
0.0
 40
0.5
 50
180.0
 51
270.0
  0
LINE
  5
B42
  8
0
 10
90.949999999999974
 20
58.9000000056879
 30
0.0
 11
90.949999999999974
 21
61.4000000056879
 31
0.0
  0
ARC
  5
B43
  8
0
 10
90.449999999999989
 20
58.9000000056879
 30
0.0
 40
0.5
 50
270.0
 51
0.0
  0
LINE
  5
B44
  8
0
 10
90.449999999999989
 20
58.4000000056879
 30
0.0
 11
83.550000000000026
 21
58.4000000056879
 31
0.0
  0
LINE
  5
B45
  8
0
 10
83.050000000000011
 20
58.9000000056879
 30
0.0
 11
83.050000000000011
 21
61.4000000056879
 31
0.0
  0
LINE
  5
B4E
  8
0
 10
62.500000000000028
 20
78.900000005653851
 30
0.0
 11
62.500000000000028
 21
68.4000000056879
 31
0.0
  0
LINE
  5
B50
  8
0
 10
64.999999999950006
 20
65.9000000056879
 30
0.0
 11
93.940532324100005
 21
65.9000000056879
 31
0.0
  0
ARC
  5
B51
  8
0
 10
93.940532298262809
 20
65.399999598499448
 30
0.0
 40
0.5000004071884384
 50
77.578046132859427
 51
89.999997039275485
  0
ARC
  5
B54
  8
0
 10
64.999999999900012
 20
68.400000005587913
 30
0.0
 40
2.4999999998999982
 50
179.99999999770711
 51
270.00000000171963
  0
LINE
  5
B56
  8
0
 10
61.5
 20
79.9000000056879
 30
0.0
 11
51.0
 21
79.9000000056879
 31
0.0
  0
LINE
  5
B59
  8
0
 10
50.0
 20
78.9000000056879
 30
0.0
 11
50.0
 21
62.400000005733261
 31
0.0
  0
ARC
  5
B5B
  8
0
 10
101.50000000000109
 20
61.900000005686529
 30
0.0
 40
0.4999999999986642
 50
269.99999999987301
 51
347.57803578166681
  0
LINE
  5
B5C
  8
0
 10
51.0
 20
61.4000000056879
 30
0.0
 11
101.49999999999039
 21
61.4000000056879
 31
0.0
  0
ARC
  5
B5F
  8
0
 10
51.0
 20
62.4000000056879
 30
0.0
 40
1.0
 50
179.99999999740101
 51
270.00000000260218
  0
ARC
  5
B60
  8
0
 10
61.5
 20
78.9000000056879
 30
0.0
 40
1.000000000000014
 50
359.99999999772342
 51
90.0
  0
ARC
  5
B61
  8
0
 10
51.0
 20
78.9000000056879
 30
0.0
 40
1.0
 50
90.0
 51
180.0
  0
ARC
  5
B62
  8
0
 10
93.940532742127544
 20
65.400001339377866
 30
0.0
 40
0.4999986115845879
 50
65.156051989286411
 51
77.578052893124351
  0
LINE
  5
B63
  8
0
 10
94.150606287958169
 20
65.85372781747742
 30
0.0
 11
101.7100739631382
 21
62.353727815450732
 31
0.0
  0
ARC
  5
B64
  8
0
 10
101.50000031227221
 20
61.900000156412709
 30
0.0
 40
0.4999997273642246
 50
347.57801122094088
 51
65.156097923829407
  0
LINE
  5
B65
  8
0
 10
64.500000000000014
 20
73.700000005687912
 30
0.0
 11
64.500000000000014
 21
71.9000000056879
 31
0.0
  0
LINE
  5
B66
  8
0
 10
64.500000000000014
 20
71.9000000056879
 30
0.0
 11
62.500000000000028
 21
71.9000000056879
 31
0.0
  0
LINE
  5
B67
  8
0
 10
62.500000000000028
 20
73.700000005687912
 30
0.0
 11
64.500000000000014
 21
73.700000005687912
 31
0.0
  0
LINE
  5
B68
  8
0
 10
62.500000000000028
 20
77.500000005687866
 30
0.0
 11
64.500000000000014
 21
77.500000005687866
 31
0.0
  0
LINE
  5
B69
  8
0
 10
64.500000000000014
 20
77.500000005687866
 30
0.0
 11
64.500000000000014
 21
75.700000005687912
 31
0.0
  0
LINE
  5
B6A
  8
0
 10
64.500000000000014
 20
75.700000005687912
 30
0.0
 11
62.500000000000028
 21
75.700000005687912
 31
0.0
  0
LINE
  5
B6B
  8
0
 10
102.0
 20
130.10770106112469
 30
0.0
 11
102.0
 21
169.6922989500481
 31
0.0
  0
LINE
  5
B6C
  8
0
 10
88.732050807564974
 20
149.90000000570811
 30
0.0
 11
87.866025403798545
 21
151.40000000568699
 31
0.0
  0
LINE
  5
B6D
  8
0
 10
87.866025403798545
 20
151.40000000568699
 30
0.0
 11
86.133974596201483
 21
151.40000000568699
 31
0.0
  0
LINE
  5
B6E
  8
0
 10
86.133974596201483
 20
151.40000000568699
 30
0.0
 11
85.267949192429171
 21
149.9000000056642
 31
0.0
  0
LINE
  5
B6F
  8
0
 10
85.267949192429171
 20
149.9000000056642
 30
0.0
 11
86.133974596202904
 21
148.40000000568949
 31
0.0
  0
LINE
  5
B70
  8
0
 10
87.866025403797096
 20
148.40000000568949
 30
0.0
 11
86.133974596202904
 21
148.40000000568949
 31
0.0
  0
LINE
  5
B71
  8
0
 10
87.866025403797096
 20
148.40000000568949
 30
0.0
 11
88.732050807564974
 21
149.90000000570811
 31
0.0
  0
LINE
  5
B7A
  8
0
 10
50.0
 20
130.90000000568779
 30
0.0
 11
50.0
 21
168.90000000568779
 31
0.0
  0
LINE
  5
B7D
  8
0
 10
62.500000000000028
 20
168.90000000568779
 30
0.0
 11
62.500000000000028
 21
130.90000000568779
 31
0.0
  0
ARC
  5
B82
  8
0
 10
51.0
 20
168.90000000568779
 30
0.0
 40
1.0
 50
90.0
 51
180.0
  0
ARC
  5
B83
  8
0
 10
61.5
 20
130.90000000568779
 30
0.0
 40
1.000000000000014
 50
270.0
 51
0.0
  0
ARC
  5
B84
  8
0
 10
61.5
 20
168.90000000568779
 30
0.0
 40
1.000000000000014
 50
0.0
 51
90.0
  0
ARC
  5
B85
  8
0
 10
51.0
 20
130.90000000568779
 30
0.0
 40
1.0
 50
180.0
 51
270.0
  0
LINE
  5
B86
  8
0
 10
62.500000000000028
 20
142.15000000568779
 30
0.0
 11
64.500000000000014
 21
142.15000000568779
 31
0.0
  0
LINE
  5
B87
  8
0
 10
64.500000000000014
 20
157.65000000568779
 30
0.0
 11
62.500000000000028
 21
157.65000000568779
 31
0.0
  0
LINE
  5
B88
  8
0
 10
64.500000000000014
 20
142.15000000568779
 30
0.0
 11
64.500000000000014
 21
157.65000000568779
 31
0.0
  0
CIRCLE
  5
B90
  8
0
 10
87.0
 20
149.90000000568779
 30
0.0
 40
5.2000000000020909
  0
POLYLINE
  5
B95
  8
0
 10
93.830399219616297
 20
129.90000000568779
 30
0.0
 66
     1
 70
     8
  0
VERTEX
  8
0
  5
117F
 10
93.8304
 20
129.900
 30
0.000000
  70
    32
  0
VERTEX
  8
0
  5
1180
 10
93.8328
 20
129.900
 30
0.000000
  70
    32
  0
VERTEX
  8
0
  5
1181
 10
93.8353
 20
129.900
 30
0.000000
  70
    32
  0
VERTEX
  8
0
  5
1182
 10
93.8377
 20
129.901
 30
0.000000
  70
    32
  0
VERTEX
  8
0
  5
1183
 10
93.8402
 20
129.901
 30
0.000000
  70
    32
  0
VERTEX
  8
0
  5
1184
 10
93.8426
 20
129.902
 30
0.000000
  70
    32
  0
VERTEX
  8
0
  5
1185
 10
93.8450
 20
129.902
 30
0.000000
  70
    32
  0
VERTEX
  8
0
  5
1186
 10
93.8475
 20
129.903
 30
0.000000
  70
    32
  0
VERTEX
  8
0
  5
1187
 10
93.8499
 20
129.904
 30
0.000000
  70
    32
  0
VERTEX
  8
0
  5
1188
 10
93.8523
 20
129.905
 30
0.000000
  70
    32
  0
VERTEX
  8
0
  5
1189
 10
93.8547
 20
129.906
 30
0.000000
  70
    32
  0
VERTEX
  8
0
  5
118A
 10
93.8572
 20
129.907
 30
0.000000
  70
    32
  0
VERTEX
  8
0
  5
118B
 10
93.8596
 20
129.909
 30
0.000000
  70
    32
  0
VERTEX
  8
0
  5
118C
 10
93.8620
 20
129.910
 30
0.000000
  70
    32
  0
VERTEX
  8
0
  5
118D
 10
93.8644
 20
129.912
 30
0.000000
  70
    32
  0
VERTEX
  8
0
  5
118E
 10
93.8668
 20
129.914
 30
0.000000
  70
    32
  0
VERTEX
  8
0
  5
118F
 10
93.8692
 20
129.916
 30
0.000000
  70
    32
  0
VERTEX
  8
0
  5
1190
 10
93.8716
 20
129.918
 30
0.000000
  70
    32
  0
VERTEX
  8
0
  5
1191
 10
93.8740
 20
129.920
 30
0.000000
  70
    32
  0
VERTEX
  8
0
  5
1192
 10
93.8764
 20
129.922
 30
0.000000
  70
    32
  0
VERTEX
  8
0
  5
1193
 10
93.8788
 20
129.924
 30
0.000000
  70
    32
  0
VERTEX
  8
0
  5
1194
 10
93.8812
 20
129.927
 30
0.000000
  70
    32
  0
VERTEX
  8
0
  5
1195
 10
93.8835
 20
129.930
 30
0.000000
  70
    32
  0
VERTEX
  8
0
  5
1196
 10
93.8859
 20
129.932
 30
0.000000
  70
    32
  0
VERTEX
  8
0
  5
1197
 10
93.8883
 20
129.935
 30
0.000000
  70
    32
  0
VERTEX
  8
0
  5
1198
 10
93.8906
 20
129.938
 30
0.000000
  70
    32
  0
VERTEX
  8
0
  5
1199
 10
93.8930
 20
129.941
 30
0.000000
  70
    32
  0
VERTEX
  8
0
  5
119A
 10
93.8953
 20
129.944
 30
0.000000
  70
    32
  0
VERTEX
  8
0
  5
119B
 10
93.8976
 20
129.948
 30
0.000000
  70
    32
  0
VERTEX
  8
0
  5
119C
 10
93.8999
 20
129.951
 30
0.000000
  70
    32
  0
VERTEX
  8
0
  5
119D
 10
93.9022
 20
129.955
 30
0.000000
  70
    32
  0
VERTEX
  8
0
  5
119E
 10
93.9045
 20
129.958
 30
0.000000
  70
    32
  0
VERTEX
  8
0
  5
119F
 10
93.9068
 20
129.962
 30
0.000000
  70
    32
  0
VERTEX
  8
0
  5
11A0
 10
93.9091
 20
129.966
 30
0.000000
  70
    32
  0
VERTEX
  8
0
  5
11A1
 10
93.9114
 20
129.970
 30
0.000000
  70
    32
  0
VERTEX
  8
0
  5
11A2
 10
93.9137
 20
129.974
 30
0.000000
  70
    32
  0
VERTEX
  8
0
  5
11A3
 10
93.9159
 20
129.978
 30
0.000000
  70
    32
  0
VERTEX
  8
0
  5
11A4
 10
93.9182
 20
129.983
 30
0.000000
  70
    32
  0
VERTEX
  8
0
  5
11A5
 10
93.9204
 20
129.987
 30
0.000000
  70
    32
  0
VERTEX
  8
0
  5
11A6
 10
93.9226
 20
129.992
 30
0.000000
  70
    32
  0
VERTEX
  8
0
  5
11A7
 10
93.9248
 20
129.997
 30
0.000000
  70
    32
  0
VERTEX
  8
0
  5
11A8
 10
93.9270
 20
130.001
 30
0.000000
  70
    32
  0
VERTEX
  8
0
  5
11A9
 10
93.9292
 20
130.006
 30
0.000000
  70
    32
  0
VERTEX
  8
0
  5
11AA
 10
93.9314
 20
130.011
 30
0.000000
  70
    32
  0
VERTEX
  8
0
  5
11AB
 10
93.9335
 20
130.016
 30
0.000000
  70
    32
  0
VERTEX
  8
0
  5
11AC
 10
93.9357
 20
130.022
 30
0.000000
  70
    32
  0
VERTEX
  8
0
  5
11AD
 10
93.9378
 20
130.027
 30
0.000000
  70
    32
  0
VERTEX
  8
0
  5
11AE
 10
93.9399
 20
130.032
 30
0.000000
  70
    32
  0
VERTEX
  8
0
  5
11AF
 10
93.9421
 20
130.038
 30
0.000000
  70
    32
  0
VERTEX
  8
0
  5
11B0
 10
93.9442
 20
130.044
 30
0.000000
  70
    32
  0
VERTEX
  8
0
  5
11B1
 10
93.9462
 20
130.049
 30
0.000000
  70
    32
  0
VERTEX
  8
0
  5
11B2
 10
93.9483
 20
130.055
 30
0.000000
  70
    32
  0
VERTEX
  8
0
  5
11B3
 10
93.9504
 20
130.061
 30
0.000000
  70
    32
  0
VERTEX
  8
0
  5
11B4
 10
93.9524
 20
130.067
 30
0.000000
  70
    32
  0
VERTEX
  8
0
  5
11B5
 10
93.9544
 20
130.074
 30
0.000000
  70
    32
  0
VERTEX
  8
0
  5
11B6
 10
93.9564
 20
130.080
 30
0.000000
  70
    32
  0
VERTEX
  8
0
  5
11B7
 10
93.9584
 20
130.086
 30
0.000000
  70
    32
  0
VERTEX
  8
0
  5
11B8
 10
93.9604
 20
130.093
 30
0.000000
  70
    32
  0
VERTEX
  8
0
  5
11B9
 10
93.9624
 20
130.099
 30
0.000000
  70
    32
  0
VERTEX
  8
0
  5
11BA
 10
93.9643
 20
130.106
 30
0.000000
  70
    32
  0
VERTEX
  8
0
  5
11BB
 10
93.9662
 20
130.113
 30
0.000000
  70
    32
  0
VERTEX
  8
0
  5
11BC
 10
93.9681
 20
130.120
 30
0.000000
  70
    32
  0
VERTEX
  8
0
  5
11BD
 10
93.9700
 20
130.127
 30
0.000000
  70
    32
  0
VERTEX
  8
0
  5
11BE
 10
93.9719
 20
130.134
 30
0.000000
  70
    32
  0
VERTEX
  8
0
  5
11BF
 10
93.9738
 20
130.141
 30
0.000000
  70
    32
  0
VERTEX
  8
0
  5
11C0
 10
93.9756
 20
130.148
 30
0.000000
  70
    32
  0
VERTEX
  8
0
  5
11C1
 10
93.9774
 20
130.155
 30
0.000000
  70
    32
  0
VERTEX
  8
0
  5
11C2
 10
93.9793
 20
130.163
 30
0.000000
  70
    32
  0
VERTEX
  8
0
  5
11C3
 10
93.9810
 20
130.170
 30
0.000000
  70
    32
  0
VERTEX
  8
0
  5
11C4
 10
93.9828
 20
130.178
 30
0.000000
  70
    32
  0
VERTEX
  8
0
  5
11C5
 10
93.9846
 20
130.186
 30
0.000000
  70
    32
  0
VERTEX
  8
0
  5
11C6
 10
93.9863
 20
130.194
 30
0.000000
  70
    32
  0
VERTEX
  8
0
  5
11C7
 10
93.9880
 20
130.201
 30
0.000000
  70
    32
  0
VERTEX
  8
0
  5
11C8
 10
93.9897
 20
130.209
 30
0.000000
  70
    32
  0
VERTEX
  8
0
  5
11C9
 10
93.9914
 20
130.217
 30
0.000000
  70
    32
  0
VERTEX
  8
0
  5
11CA
 10
93.9930
 20
130.226
 30
0.000000
  70
    32
  0
VERTEX
  8
0
  5
11CB
 10
93.9947
 20
130.234
 30
0.000000
  70
    32
  0
VERTEX
  8
0
  5
11CC
 10
93.9963
 20
130.242
 30
0.000000
  70
    32
  0
VERTEX
  8
0
  5
11CD
 10
93.9979
 20
130.251
 30
0.000000
  70
    32
  0
VERTEX
  8
0
  5
11CE
 10
93.9995
 20
130.259
 30
0.000000
  70
    32
  0
VERTEX
  8
0
  5
11CF
 10
94.0010
 20
130.268
 30
0.000000
  70
    32
  0
VERTEX
  8
0
  5
11D0
 10
94.0025
 20
130.276
 30
0.000000
  70
    32
  0
VERTEX
  8
0
  5
11D1
 10
94.0041
 20
130.285
 30
0.000000
  70
    32
  0
VERTEX
  8
0
  5
11D2
 10
94.0055
 20
130.294
 30
0.000000
  70
    32
  0
VERTEX
  8
0
  5
11D3
 10
94.0070
 20
130.302
 30
0.000000
  70
    32
  0
VERTEX
  8
0
  5
11D4
 10
94.0085
 20
130.311
 30
0.000000
  70
    32
  0
VERTEX
  8
0
  5
11D5
 10
94.0099
 20
130.320
 30
0.000000
  70
    32
  0
VERTEX
  8
0
  5
11D6
 10
94.0113
 20
130.329
 30
0.000000
  70
    32
  0
VERTEX
  8
0
  5
11D7
 10
94.0127
 20
130.339
 30
0.000000
  70
    32
  0
VERTEX
  8
0
  5
11D8
 10
94.0140
 20
130.348
 30
0.000000
  70
    32
  0
VERTEX
  8
0
  5
11D9
 10
94.0154
 20
130.357
 30
0.000000
  70
    32
  0
VERTEX
  8
0
  5
11DA
 10
94.0167
 20
130.366
 30
0.000000
  70
    32
  0
VERTEX
  8
0
  5
11DB
 10
94.0180
 20
130.376
 30
0.000000
  70
    32
  0
VERTEX
  8
0
  5
11DC
 10
94.0192
 20
130.385
 30
0.000000
  70
    32
  0
VERTEX
  8
0
  5
11DD
 10
94.0205
 20
130.395
 30
0.000000
  70
    32
  0
VERTEX
  8
0
  5
11DE
 10
94.0217
 20
130.404
 30
0.000000
  70
    32
  0
VERTEX
  8
0
  5
11DF
 10
94.0229
 20
130.414
 30
0.000000
  70
    32
  0
VERTEX
  8
0
  5
11E0
 10
94.0241
 20
130.424
 30
0.000000
  70
    32
  0
VERTEX
  8
0
  5
11E1
 10
94.0252
 20
130.433
 30
0.000000
  70
    32
  0
VERTEX
  8
0
  5
11E2
 10
94.0263
 20
130.443
 30
0.000000
  70
    32
  0
VERTEX
  8
0
  5
11E3
 10
94.0274
 20
130.453
 30
0.000000
  70
    32
  0
VERTEX
  8
0
  5
11E4
 10
94.0285
 20
130.463
 30
0.000000
  70
    32
  0
VERTEX
  8
0
  5
11E5
 10
94.0296
 20
130.473
 30
0.000000
  70
    32
  0
VERTEX
  8
0
  5
11E6
 10
94.0306
 20
130.483
 30
0.000000
  70
    32
  0
VERTEX
  8
0
  5
11E7
 10
94.0316
 20
130.493
 30
0.000000
  70
    32
  0
VERTEX
  8
0
  5
11E8
 10
94.0326
 20
130.503
 30
0.000000
  70
    32
  0
VERTEX
  8
0
  5
11E9
 10
94.0336
 20
130.514
 30
0.000000
  70
    32
  0
VERTEX
  8
0
  5
11EA
 10
94.0345
 20
130.524
 30
0.000000
  70
    32
  0
VERTEX
  8
0
  5
11EB
 10
94.0354
 20
130.534
 30
0.000000
  70
    32
  0
VERTEX
  8
0
  5
11EC
 10
94.0363
 20
130.544
 30
0.000000
  70
    32
  0
VERTEX
  8
0
  5
11ED
 10
94.0371
 20
130.555
 30
0.000000
  70
    32
  0
VERTEX
  8
0
  5
11EE
 10
94.0380
 20
130.565
 30
0.000000
  70
    32
  0
VERTEX
  8
0
  5
11EF
 10
94.0388
 20
130.576
 30
0.000000
  70
    32
  0
VERTEX
  8
0
  5
11F0
 10
94.0395
 20
130.586
 30
0.000000
  70
    32
  0
VERTEX
  8
0
  5
11F1
 10
94.0403
 20
130.597
 30
0.000000
  70
    32
  0
VERTEX
  8
0
  5
11F2
 10
94.0410
 20
130.607
 30
0.000000
  70
    32
  0
VERTEX
  8
0
  5
11F3
 10
94.0417
 20
130.618
 30
0.000000
  70
    32
  0
VERTEX
  8
0
  5
11F4
 10
94.0424
 20
130.628
 30
0.000000
  70
    32
  0
VERTEX
  8
0
  5
11F5
 10
94.0430
 20
130.639
 30
0.000000
  70
    32
  0
VERTEX
  8
0
  5
11F6
 10
94.0437
 20
130.650
 30
0.000000
  70
    32
  0
VERTEX
  8
0
  5
11F7
 10
94.0443
 20
130.661
 30
0.000000
  70
    32
  0
VERTEX
  8
0
  5
11F8
 10
94.0448
 20
130.671
 30
0.000000
  70
    32
  0
VERTEX
  8
0
  5
11F9
 10
94.0454
 20
130.682
 30
0.000000
  70
    32
  0
VERTEX
  8
0
  5
11FA
 10
94.0459
 20
130.693
 30
0.000000
  70
    32
  0
VERTEX
  8
0
  5
11FB
 10
94.0464
 20
130.704
 30
0.000000
  70
    32
  0
VERTEX
  8
0
  5
11FC
 10
94.0469
 20
130.715
 30
0.000000
  70
    32
  0
VERTEX
  8
0
  5
11FD
 10
94.0473
 20
130.726
 30
0.000000
  70
    32
  0
VERTEX
  8
0
  5
11FE
 10
94.0477
 20
130.737
 30
0.000000
  70
    32
  0
VERTEX
  8
0
  5
11FF
 10
94.0481
 20
130.747
 30
0.000000
  70
    32
  0
SEQEND
  8
0
  5
1200
  0
POLYLINE
  5
B97
  8
0
 10
94.048087156212588
 20
169.05255514650764
 30
0.0
 66
     1
 70
     8
  0
VERTEX
  8
0
  5
1201
 10
94.0481
 20
169.053
 30
0.000000
  70
    32
  0
VERTEX
  8
0
  5
1202
 10
94.0477
 20
169.063
 30
0.000000
  70
    32
  0
VERTEX
  8
0
  5
1203
 10
94.0473
 20
169.074
 30
0.000000
  70
    32
  0
VERTEX
  8
0
  5
1204
 10
94.0469
 20
169.085
 30
0.000000
  70
    32
  0
VERTEX
  8
0
  5
1205
 10
94.0464
 20
169.096
 30
0.000000
  70
    32
  0
VERTEX
  8
0
  5
1206
 10
94.0459
 20
169.107
 30
0.000000
  70
    32
  0
VERTEX
  8
0
  5
1207
 10
94.0454
 20
169.118
 30
0.000000
  70
    32
  0
VERTEX
  8
0
  5
1208
 10
94.0448
 20
169.129
 30
0.000000
  70
    32
  0
VERTEX
  8
0
  5
1209
 10
94.0443
 20
169.139
 30
0.000000
  70
    32
  0
VERTEX
  8
0
  5
120A
 10
94.0437
 20
169.150
 30
0.000000
  70
    32
  0
VERTEX
  8
0
  5
120B
 10
94.0430
 20
169.161
 30
0.000000
  70
    32
  0
VERTEX
  8
0
  5
120C
 10
94.0424
 20
169.172
 30
0.000000
  70
    32
  0
VERTEX
  8
0
  5
120D
 10
94.0417
 20
169.182
 30
0.000000
  70
    32
  0
VERTEX
  8
0
  5
120E
 10
94.0410
 20
169.193
 30
0.000000
  70
    32
  0
VERTEX
  8
0
  5
120F
 10
94.0403
 20
169.203
 30
0.000000
  70
    32
  0
VERTEX
  8
0
  5
1210
 10
94.0395
 20
169.214
 30
0.000000
  70
    32
  0
VERTEX
  8
0
  5
1211
 10
94.0388
 20
169.224
 30
0.000000
  70
    32
  0
VERTEX
  8
0
  5
1212
 10
94.0380
 20
169.235
 30
0.000000
  70
    32
  0
VERTEX
  8
0
  5
1213
 10
94.0371
 20
169.245
 30
0.000000
  70
    32
  0
VERTEX
  8
0
  5
1214
 10
94.0363
 20
169.256
 30
0.000000
  70
    32
  0
VERTEX
  8
0
  5
1215
 10
94.0354
 20
169.266
 30
0.000000
  70
    32
  0
VERTEX
  8
0
  5
1216
 10
94.0345
 20
169.276
 30
0.000000
  70
    32
  0
VERTEX
  8
0
  5
1217
 10
94.0336
 20
169.286
 30
0.000000
  70
    32
  0
VERTEX
  8
0
  5
1218
 10
94.0326
 20
169.297
 30
0.000000
  70
    32
  0
VERTEX
  8
0
  5
1219
 10
94.0316
 20
169.307
 30
0.000000
  70
    32
  0
VERTEX
  8
0
  5
121A
 10
94.0306
 20
169.317
 30
0.000000
  70
    32
  0
VERTEX
  8
0
  5
121B
 10
94.0296
 20
169.327
 30
0.000000
  70
    32
  0
VERTEX
  8
0
  5
121C
 10
94.0285
 20
169.337
 30
0.000000
  70
    32
  0
VERTEX
  8
0
  5
121D
 10
94.0274
 20
169.347
 30
0.000000
  70
    32
  0
VERTEX
  8
0
  5
121E
 10
94.0263
 20
169.357
 30
0.000000
  70
    32
  0
VERTEX
  8
0
  5
121F
 10
94.0252
 20
169.367
 30
0.000000
  70
    32
  0
VERTEX
  8
0
  5
1220
 10
94.0241
 20
169.376
 30
0.000000
  70
    32
  0
VERTEX
  8
0
  5
1221
 10
94.0229
 20
169.386
 30
0.000000
  70
    32
  0
VERTEX
  8
0
  5
1222
 10
94.0217
 20
169.396
 30
0.000000
  70
    32
  0
VERTEX
  8
0
  5
1223
 10
94.0205
 20
169.405
 30
0.000000
  70
    32
  0
VERTEX
  8
0
  5
1224
 10
94.0192
 20
169.415
 30
0.000000
  70
    32
  0
VERTEX
  8
0
  5
1225
 10
94.0180
 20
169.424
 30
0.000000
  70
    32
  0
VERTEX
  8
0
  5
1226
 10
94.0167
 20
169.434
 30
0.000000
  70
    32
  0
VERTEX
  8
0
  5
1227
 10
94.0154
 20
169.443
 30
0.000000
  70
    32
  0
VERTEX
  8
0
  5
1228
 10
94.0140
 20
169.452
 30
0.000000
  70
    32
  0
VERTEX
  8
0
  5
1229
 10
94.0127
 20
169.461
 30
0.000000
  70
    32
  0
VERTEX
  8
0
  5
122A
 10
94.0113
 20
169.471
 30
0.000000
  70
    32
  0
VERTEX
  8
0
  5
122B
 10
94.0099
 20
169.480
 30
0.000000
  70
    32
  0
VERTEX
  8
0
  5
122C
 10
94.0085
 20
169.489
 30
0.000000
  70
    32
  0
VERTEX
  8
0
  5
122D
 10
94.0070
 20
169.498
 30
0.000000
  70
    32
  0
VERTEX
  8
0
  5
122E
 10
94.0055
 20
169.506
 30
0.000000
  70
    32
  0
VERTEX
  8
0
  5
122F
 10
94.0041
 20
169.515
 30
0.000000
  70
    32
  0
VERTEX
  8
0
  5
1230
 10
94.0025
 20
169.524
 30
0.000000
  70
    32
  0
VERTEX
  8
0
  5
1231
 10
94.0010
 20
169.532
 30
0.000000
  70
    32
  0
VERTEX
  8
0
  5
1232
 10
93.9995
 20
169.541
 30
0.000000
  70
    32
  0
VERTEX
  8
0
  5
1233
 10
93.9979
 20
169.549
 30
0.000000
  70
    32
  0
VERTEX
  8
0
  5
1234
 10
93.9963
 20
169.558
 30
0.000000
  70
    32
  0
VERTEX
  8
0
  5
1235
 10
93.9947
 20
169.566
 30
0.000000
  70
    32
  0
VERTEX
  8
0
  5
1236
 10
93.9930
 20
169.574
 30
0.000000
  70
    32
  0
VERTEX
  8
0
  5
1237
 10
93.9914
 20
169.583
 30
0.000000
  70
    32
  0
VERTEX
  8
0
  5
1238
 10
93.9897
 20
169.591
 30
0.000000
  70
    32
  0
VERTEX
  8
0
  5
1239
 10
93.9880
 20
169.599
 30
0.000000
  70
    32
  0
VERTEX
  8
0
  5
123A
 10
93.9863
 20
169.606
 30
0.000000
  70
    32
  0
VERTEX
  8
0
  5
123B
 10
93.9846
 20
169.614
 30
0.000000
  70
    32
  0
VERTEX
  8
0
  5
123C
 10
93.9828
 20
169.622
 30
0.000000
  70
    32
  0
VERTEX
  8
0
  5
123D
 10
93.9810
 20
169.630
 30
0.000000
  70
    32
  0
VERTEX
  8
0
  5
123E
 10
93.9793
 20
169.637
 30
0.000000
  70
    32
  0
VERTEX
  8
0
  5
123F
 10
93.9774
 20
169.645
 30
0.000000
  70
    32
  0
VERTEX
  8
0
  5
1240
 10
93.9756
 20
169.652
 30
0.000000
  70
    32
  0
VERTEX
  8
0
  5
1241
 10
93.9738
 20
169.659
 30
0.000000
  70
    32
  0
VERTEX
  8
0
  5
1242
 10
93.9719
 20
169.666
 30
0.000000
  70
    32
  0
VERTEX
  8
0
  5
1243
 10
93.9700
 20
169.673
 30
0.000000
  70
    32
  0
VERTEX
  8
0
  5
1244
 10
93.9681
 20
169.680
 30
0.000000
  70
    32
  0
VERTEX
  8
0
  5
1245
 10
93.9662
 20
169.687
 30
0.000000
  70
    32
  0
VERTEX
  8
0
  5
1246
 10
93.9643
 20
169.694
 30
0.000000
  70
    32
  0
VERTEX
  8
0
  5
1247
 10
93.9624
 20
169.701
 30
0.000000
  70
    32
  0
VERTEX
  8
0
  5
1248
 10
93.9604
 20
169.707
 30
0.000000
  70
    32
  0
VERTEX
  8
0
  5
1249
 10
93.9584
 20
169.714
 30
0.000000
  70
    32
  0
VERTEX
  8
0
  5
124A
 10
93.9564
 20
169.720
 30
0.000000
  70
    32
  0
VERTEX
  8
0
  5
124B
 10
93.9544
 20
169.726
 30
0.000000
  70
    32
  0
VERTEX
  8
0
  5
124C
 10
93.9524
 20
169.733
 30
0.000000
  70
    32
  0
VERTEX
  8
0
  5
124D
 10
93.9504
 20
169.739
 30
0.000000
  70
    32
  0
VERTEX
  8
0
  5
124E
 10
93.9483
 20
169.745
 30
0.000000
  70
    32
  0
VERTEX
  8
0
  5
124F
 10
93.9462
 20
169.751
 30
0.000000
  70
    32
  0
VERTEX
  8
0
  5
1250
 10
93.9442
 20
169.756
 30
0.000000
  70
    32
  0
VERTEX
  8
0
  5
1251
 10
93.9421
 20
169.762
 30
0.000000
  70
    32
  0
VERTEX
  8
0
  5
1252
 10
93.9399
 20
169.768
 30
0.000000
  70
    32
  0
VERTEX
  8
0
  5
1253
 10
93.9378
 20
169.773
 30
0.000000
  70
    32
  0
VERTEX
  8
0
  5
1254
 10
93.9357
 20
169.778
 30
0.000000
  70
    32
  0
VERTEX
  8
0
  5
1255
 10
93.9335
 20
169.784
 30
0.000000
  70
    32
  0
VERTEX
  8
0
  5
1256
 10
93.9314
 20
169.789
 30
0.000000
  70
    32
  0
VERTEX
  8
0
  5
1257
 10
93.9292
 20
169.794
 30
0.000000
  70
    32
  0
VERTEX
  8
0
  5
1258
 10
93.9270
 20
169.799
 30
0.000000
  70
    32
  0
VERTEX
  8
0
  5
1259
 10
93.9248
 20
169.803
 30
0.000000
  70
    32
  0
VERTEX
  8
0
  5
125A
 10
93.9226
 20
169.808
 30
0.000000
  70
    32
  0
VERTEX
  8
0
  5
125B
 10
93.9204
 20
169.813
 30
0.000000
  70
    32
  0
VERTEX
  8
0
  5
125C
 10
93.9182
 20
169.817
 30
0.000000
  70
    32
  0
VERTEX
  8
0
  5
125D
 10
93.9159
 20
169.822
 30
0.000000
  70
    32
  0
VERTEX
  8
0
  5
125E
 10
93.9137
 20
169.826
 30
0.000000
  70
    32
  0
VERTEX
  8
0
  5
125F
 10
93.9114
 20
169.830
 30
0.000000
  70
    32
  0
VERTEX
  8
0
  5
1260
 10
93.9091
 20
169.834
 30
0.000000
  70
    32
  0
VERTEX
  8
0
  5
1261
 10
93.9068
 20
169.838
 30
0.000000
  70
    32
  0
VERTEX
  8
0
  5
1262
 10
93.9045
 20
169.842
 30
0.000000
  70
    32
  0
VERTEX
  8
0
  5
1263
 10
93.9022
 20
169.845
 30
0.000000
  70
    32
  0
VERTEX
  8
0
  5
1264
 10
93.8999
 20
169.849
 30
0.000000
  70
    32
  0
VERTEX
  8
0
  5
1265
 10
93.8976
 20
169.852
 30
0.000000
  70
    32
  0
VERTEX
  8
0
  5
1266
 10
93.8953
 20
169.856
 30
0.000000
  70
    32
  0
VERTEX
  8
0
  5
1267
 10
93.8930
 20
169.859
 30
0.000000
  70
    32
  0
VERTEX
  8
0
  5
1268
 10
93.8906
 20
169.862
 30
0.000000
  70
    32
  0
VERTEX
  8
0
  5
1269
 10
93.8883
 20
169.865
 30
0.000000
  70
    32
  0
VERTEX
  8
0
  5
126A
 10
93.8859
 20
169.868
 30
0.000000
  70
    32
  0
VERTEX
  8
0
  5
126B
 10
93.8835
 20
169.870
 30
0.000000
  70
    32
  0
VERTEX
  8
0
  5
126C
 10
93.8812
 20
169.873
 30
0.000000
  70
    32
  0
VERTEX
  8
0
  5
126D
 10
93.8788
 20
169.876
 30
0.000000
  70
    32
  0
VERTEX
  8
0
  5
126E
 10
93.8764
 20
169.878
 30
0.000000
  70
    32
  0
VERTEX
  8
0
  5
126F
 10
93.8740
 20
169.880
 30
0.000000
  70
    32
  0
VERTEX
  8
0
  5
1270
 10
93.8716
 20
169.882
 30
0.000000
  70
    32
  0
VERTEX
  8
0
  5
1271
 10
93.8692
 20
169.884
 30
0.000000
  70
    32
  0
VERTEX
  8
0
  5
1272
 10
93.8668
 20
169.886
 30
0.000000
  70
    32
  0
VERTEX
  8
0
  5
1273
 10
93.8644
 20
169.888
 30
0.000000
  70
    32
  0
VERTEX
  8
0
  5
1274
 10
93.8620
 20
169.890
 30
0.000000
  70
    32
  0
VERTEX
  8
0
  5
1275
 10
93.8596
 20
169.891
 30
0.000000
  70
    32
  0
VERTEX
  8
0
  5
1276
 10
93.8572
 20
169.893
 30
0.000000
  70
    32
  0
VERTEX
  8
0
  5
1277
 10
93.8547
 20
169.894
 30
0.000000
  70
    32
  0
VERTEX
  8
0
  5
1278
 10
93.8523
 20
169.895
 30
0.000000
  70
    32
  0
VERTEX
  8
0
  5
1279
 10
93.8499
 20
169.896
 30
0.000000
  70
    32
  0
VERTEX
  8
0
  5
127A
 10
93.8475
 20
169.897
 30
0.000000
  70
    32
  0
VERTEX
  8
0
  5
127B
 10
93.8450
 20
169.898
 30
0.000000
  70
    32
  0
VERTEX
  8
0
  5
127C
 10
93.8426
 20
169.898
 30
0.000000
  70
    32
  0
VERTEX
  8
0
  5
127D
 10
93.8402
 20
169.899
 30
0.000000
  70
    32
  0
VERTEX
  8
0
  5
127E
 10
93.8377
 20
169.899
 30
0.000000
  70
    32
  0
VERTEX
  8
0
  5
127F
 10
93.8353
 20
169.900
 30
0.000000
  70
    32
  0
VERTEX
  8
0
  5
1280
 10
93.8328
 20
169.900
 30
0.000000
  70
    32
  0
VERTEX
  8
0
  5
1281
 10
93.8304
 20
169.900
 30
0.000000
  70
    32
  0
SEQEND
  8
0
  5
1282
  0
ARC
  5
B9A
  8
0
 10
90.383442767252518
 20
166.47914019947291
 30
0.0
 40
4.4779552459250889
 50
32.725666942010221
 51
35.07759506805106
  0
LINE
  5
B9B
  8
0
 10
94.150606287958169
 20
130.90000000568779
 30
0.0
 11
94.1506062868242
 21
168.90000000568151
 31
0.0
  0
ARC
  5
B9C
  8
0
 10
90.403511754839599
 20
133.30737315123551
 30
0.0
 40
4.4537807424738602
 50
324.91602094688318
 51
327.28071727481432
  0
POLYLINE
  5
B9F
  8
0
 10
99.230018989062927
 20
129.90000000568779
 30
0.0
 66
     1
 70
     8
  0
VERTEX
  8
0
  5
1283
 10
99.2300
 20
129.900
 30
0.000000
  70
    32
  0
VERTEX
  8
0
  5
1284
 10
99.2533
 20
129.900
 30
0.000000
  70
    32
  0
VERTEX
  8
0
  5
1285
 10
99.2766
 20
129.900
 30
0.000000
  70
    32
  0
VERTEX
  8
0
  5
1286
 10
99.2998
 20
129.900
 30
0.000000
  70
    32
  0
VERTEX
  8
0
  5
1287
 10
99.3231
 20
129.900
 30
0.000000
  70
    32
  0
VERTEX
  8
0
  5
1288
 10
99.3464
 20
129.900
 30
0.000000
  70
    32
  0
VERTEX
  8
0
  5
1289
 10
99.3696
 20
129.900
 30
0.000000
  70
    32
  0
VERTEX
  8
0
  5
128A
 10
99.3929
 20
129.901
 30
0.000000
  70
    32
  0
VERTEX
  8
0
  5
128B
 10
99.4162
 20
129.901
 30
0.000000
  70
    32
  0
VERTEX
  8
0
  5
128C
 10
99.4394
 20
129.901
 30
0.000000
  70
    32
  0
VERTEX
  8
0
  5
128D
 10
99.4627
 20
129.901
 30
0.000000
  70
    32
  0
VERTEX
  8
0
  5
128E
 10
99.4859
 20
129.902
 30
0.000000
  70
    32
  0
VERTEX
  8
0
  5
128F
 10
99.5091
 20
129.902
 30
0.000000
  70
    32
  0
VERTEX
  8
0
  5
1290
 10
99.5324
 20
129.902
 30
0.000000
  70
    32
  0
VERTEX
  8
0
  5
1291
 10
99.5556
 20
129.903
 30
0.000000
  70
    32
  0
VERTEX
  8
0
  5
1292
 10
99.5788
 20
129.903
 30
0.000000
  70
    32
  0
VERTEX
  8
0
  5
1293
 10
99.6020
 20
129.903
 30
0.000000
  70
    32
  0
VERTEX
  8
0
  5
1294
 10
99.6252
 20
129.904
 30
0.000000
  70
    32
  0
VERTEX
  8
0
  5
1295
 10
99.6484
 20
129.904
 30
0.000000
  70
    32
  0
VERTEX
  8
0
  5
1296
 10
99.6716
 20
129.905
 30
0.000000
  70
    32
  0
VERTEX
  8
0
  5
1297
 10
99.6947
 20
129.905
 30
0.000000
  70
    32
  0
VERTEX
  8
0
  5
1298
 10
99.7179
 20
129.906
 30
0.000000
  70
    32
  0
VERTEX
  8
0
  5
1299
 10
99.7410
 20
129.906
 30
0.000000
  70
    32
  0
VERTEX
  8
0
  5
129A
 10
99.7641
 20
129.907
 30
0.000000
  70
    32
  0
VERTEX
  8
0
  5
129B
 10
99.7872
 20
129.908
 30
0.000000
  70
    32
  0
VERTEX
  8
0
  5
129C
 10
99.8103
 20
129.908
 30
0.000000
  70
    32
  0
VERTEX
  8
0
  5
129D
 10
99.8334
 20
129.909
 30
0.000000
  70
    32
  0
VERTEX
  8
0
  5
129E
 10
99.8565
 20
129.910
 30
0.000000
  70
    32
  0
VERTEX
  8
0
  5
129F
 10
99.8795
 20
129.910
 30
0.000000
  70
    32
  0
VERTEX
  8
0
  5
12A0
 10
99.9025
 20
129.911
 30
0.000000
  70
    32
  0
VERTEX
  8
0
  5
12A1
 10
99.9255
 20
129.912
 30
0.000000
  70
    32
  0
VERTEX
  8
0
  5
12A2
 10
99.9485
 20
129.913
 30
0.000000
  70
    32
  0
VERTEX
  8
0
  5
12A3
 10
99.9715
 20
129.913
 30
0.000000
  70
    32
  0
VERTEX
  8
0
  5
12A4
 10
99.9944
 20
129.914
 30
0.000000
  70
    32
  0
VERTEX
  8
0
  5
12A5
 10
100.017
 20
129.915
 30
0.000000
  70
    32
  0
VERTEX
  8
0
  5
12A6
 10
100.040
 20
129.916
 30
0.000000
  70
    32
  0
VERTEX
  8
0
  5
12A7
 10
100.063
 20
129.917
 30
0.000000
  70
    32
  0
VERTEX
  8
0
  5
12A8
 10
100.086
 20
129.918
 30
0.000000
  70
    32
  0
VERTEX
  8
0
  5
12A9
 10
100.109
 20
129.919
 30
0.000000
  70
    32
  0
VERTEX
  8
0
  5
12AA
 10
100.132
 20
129.920
 30
0.000000
  70
    32
  0
VERTEX
  8
0
  5
12AB
 10
100.155
 20
129.921
 30
0.000000
  70
    32
  0
VERTEX
  8
0
  5
12AC
 10
100.177
 20
129.922
 30
0.000000
  70
    32
  0
VERTEX
  8
0
  5
12AD
 10
100.200
 20
129.923
 30
0.000000
  70
    32
  0
VERTEX
  8
0
  5
12AE
 10
100.223
 20
129.924
 30
0.000000
  70
    32
  0
VERTEX
  8
0
  5
12AF
 10
100.245
 20
129.925
 30
0.000000
  70
    32
  0
VERTEX
  8
0
  5
12B0
 10
100.268
 20
129.926
 30
0.000000
  70
    32
  0
VERTEX
  8
0
  5
12B1
 10
100.291
 20
129.928
 30
0.000000
  70
    32
  0
VERTEX
  8
0
  5
12B2
 10
100.313
 20
129.929
 30
0.000000
  70
    32
  0
VERTEX
  8
0
  5
12B3
 10
100.336
 20
129.930
 30
0.000000
  70
    32
  0
VERTEX
  8
0
  5
12B4
 10
100.359
 20
129.931
 30
0.000000
  70
    32
  0
VERTEX
  8
0
  5
12B5
 10
100.381
 20
129.933
 30
0.000000
  70
    32
  0
VERTEX
  8
0
  5
12B6
 10
100.404
 20
129.934
 30
0.000000
  70
    32
  0
VERTEX
  8
0
  5
12B7
 10
100.426
 20
129.935
 30
0.000000
  70
    32
  0
VERTEX
  8
0
  5
12B8
 10
100.448
 20
129.937
 30
0.000000
  70
    32
  0
VERTEX
  8
0
  5
12B9
 10
100.471
 20
129.938
 30
0.000000
  70
    32
  0
VERTEX
  8
0
  5
12BA
 10
100.493
 20
129.939
 30
0.000000
  70
    32
  0
VERTEX
  8
0
  5
12BB
 10
100.516
 20
129.941
 30
0.000000
  70
    32
  0
VERTEX
  8
0
  5
12BC
 10
100.538
 20
129.942
 30
0.000000
  70
    32
  0
VERTEX
  8
0
  5
12BD
 10
100.560
 20
129.944
 30
0.000000
  70
    32
  0
VERTEX
  8
0
  5
12BE
 10
100.582
 20
129.945
 30
0.000000
  70
    32
  0
VERTEX
  8
0
  5
12BF
 10
100.605
 20
129.947
 30
0.000000
  70
    32
  0
VERTEX
  8
0
  5
12C0
 10
100.627
 20
129.949
 30
0.000000
  70
    32
  0
VERTEX
  8
0
  5
12C1
 10
100.649
 20
129.950
 30
0.000000
  70
    32
  0
VERTEX
  8
0
  5
12C2
 10
100.671
 20
129.952
 30
0.000000
  70
    32
  0
VERTEX
  8
0
  5
12C3
 10
100.693
 20
129.953
 30
0.000000
  70
    32
  0
VERTEX
  8
0
  5
12C4
 10
100.715
 20
129.955
 30
0.000000
  70
    32
  0
VERTEX
  8
0
  5
12C5
 10
100.737
 20
129.957
 30
0.000000
  70
    32
  0
VERTEX
  8
0
  5
12C6
 10
100.759
 20
129.958
 30
0.000000
  70
    32
  0
VERTEX
  8
0
  5
12C7
 10
100.781
 20
129.960
 30
0.000000
  70
    32
  0
VERTEX
  8
0
  5
12C8
 10
100.803
 20
129.962
 30
0.000000
  70
    32
  0
VERTEX
  8
0
  5
12C9
 10
100.825
 20
129.964
 30
0.000000
  70
    32
  0
VERTEX
  8
0
  5
12CA
 10
100.846
 20
129.966
 30
0.000000
  70
    32
  0
VERTEX
  8
0
  5
12CB
 10
100.868
 20
129.967
 30
0.000000
  70
    32
  0
VERTEX
  8
0
  5
12CC
 10
100.890
 20
129.969
 30
0.000000
  70
    32
  0
VERTEX
  8
0
  5
12CD
 10
100.911
 20
129.971
 30
0.000000
  70
    32
  0
VERTEX
  8
0
  5
12CE
 10
100.933
 20
129.973
 30
0.000000
  70
    32
  0
VERTEX
  8
0
  5
12CF
 10
100.955
 20
129.975
 30
0.000000
  70
    32
  0
VERTEX
  8
0
  5
12D0
 10
100.976
 20
129.977
 30
0.000000
  70
    32
  0
VERTEX
  8
0
  5
12D1
 10
100.998
 20
129.979
 30
0.000000
  70
    32
  0
VERTEX
  8
0
  5
12D2
 10
101.019
 20
129.981
 30
0.000000
  70
    32
  0
VERTEX
  8
0
  5
12D3
 10
101.040
 20
129.983
 30
0.000000
  70
    32
  0
VERTEX
  8
0
  5
12D4
 10
101.062
 20
129.985
 30
0.000000
  70
    32
  0
VERTEX
  8
0
  5
12D5
 10
101.083
 20
129.987
 30
0.000000
  70
    32
  0
VERTEX
  8
0
  5
12D6
 10
101.104
 20
129.989
 30
0.000000
  70
    32
  0
VERTEX
  8
0
  5
12D7
 10
101.125
 20
129.991
 30
0.000000
  70
    32
  0
VERTEX
  8
0
  5
12D8
 10
101.146
 20
129.993
 30
0.000000
  70
    32
  0
VERTEX
  8
0
  5
12D9
 10
101.167
 20
129.996
 30
0.000000
  70
    32
  0
VERTEX
  8
0
  5
12DA
 10
101.189
 20
129.998
 30
0.000000
  70
    32
  0
VERTEX
  8
0
  5
12DB
 10
101.209
 20
130.000
 30
0.000000
  70
    32
  0
VERTEX
  8
0
  5
12DC
 10
101.230
 20
130.002
 30
0.000000
  70
    32
  0
VERTEX
  8
0
  5
12DD
 10
101.251
 20
130.005
 30
0.000000
  70
    32
  0
VERTEX
  8
0
  5
12DE
 10
101.272
 20
130.007
 30
0.000000
  70
    32
  0
VERTEX
  8
0
  5
12DF
 10
101.293
 20
130.009
 30
0.000000
  70
    32
  0
VERTEX
  8
0
  5
12E0
 10
101.314
 20
130.012
 30
0.000000
  70
    32
  0
VERTEX
  8
0
  5
12E1
 10
101.334
 20
130.014
 30
0.000000
  70
    32
  0
VERTEX
  8
0
  5
12E2
 10
101.355
 20
130.016
 30
0.000000
  70
    32
  0
VERTEX
  8
0
  5
12E3
 10
101.375
 20
130.019
 30
0.000000
  70
    32
  0
VERTEX
  8
0
  5
12E4
 10
101.396
 20
130.021
 30
0.000000
  70
    32
  0
VERTEX
  8
0
  5
12E5
 10
101.416
 20
130.024
 30
0.000000
  70
    32
  0
VERTEX
  8
0
  5
12E6
 10
101.437
 20
130.026
 30
0.000000
  70
    32
  0
VERTEX
  8
0
  5
12E7
 10
101.457
 20
130.029
 30
0.000000
  70
    32
  0
VERTEX
  8
0
  5
12E8
 10
101.477
 20
130.031
 30
0.000000
  70
    32
  0
VERTEX
  8
0
  5
12E9
 10
101.497
 20
130.034
 30
0.000000
  70
    32
  0
VERTEX
  8
0
  5
12EA
 10
101.518
 20
130.036
 30
0.000000
  70
    32
  0
VERTEX
  8
0
  5
12EB
 10
101.538
 20
130.039
 30
0.000000
  70
    32
  0
VERTEX
  8
0
  5
12EC
 10
101.558
 20
130.041
 30
0.000000
  70
    32
  0
VERTEX
  8
0
  5
12ED
 10
101.578
 20
130.044
 30
0.000000
  70
    32
  0
VERTEX
  8
0
  5
12EE
 10
101.597
 20
130.047
 30
0.000000
  70
    32
  0
VERTEX
  8
0
  5
12EF
 10
101.617
 20
130.049
 30
0.000000
  70
    32
  0
VERTEX
  8
0
  5
12F0
 10
101.637
 20
130.052
 30
0.000000
  70
    32
  0
VERTEX
  8
0
  5
12F1
 10
101.657
 20
130.055
 30
0.000000
  70
    32
  0
VERTEX
  8
0
  5
12F2
 10
101.676
 20
130.058
 30
0.000000
  70
    32
  0
VERTEX
  8
0
  5
12F3
 10
101.696
 20
130.060
 30
0.000000
  70
    32
  0
VERTEX
  8
0
  5
12F4
 10
101.715
 20
130.063
 30
0.000000
  70
    32
  0
VERTEX
  8
0
  5
12F5
 10
101.735
 20
130.066
 30
0.000000
  70
    32
  0
VERTEX
  8
0
  5
12F6
 10
101.754
 20
130.069
 30
0.000000
  70
    32
  0
VERTEX
  8
0
  5
12F7
 10
101.774
 20
130.072
 30
0.000000
  70
    32
  0
VERTEX
  8
0
  5
12F8
 10
101.793
 20
130.075
 30
0.000000
  70
    32
  0
VERTEX
  8
0
  5
12F9
 10
101.812
 20
130.077
 30
0.000000
  70
    32
  0
VERTEX
  8
0
  5
12FA
 10
101.831
 20
130.080
 30
0.000000
  70
    32
  0
VERTEX
  8
0
  5
12FB
 10
101.850
 20
130.083
 30
0.000000
  70
    32
  0
VERTEX
  8
0
  5
12FC
 10
101.869
 20
130.086
 30
0.000000
  70
    32
  0
VERTEX
  8
0
  5
12FD
 10
101.888
 20
130.089
 30
0.000000
  70
    32
  0
VERTEX
  8
0
  5
12FE
 10
101.907
 20
130.092
 30
0.000000
  70
    32
  0
VERTEX
  8
0
  5
12FF
 10
101.926
 20
130.095
 30
0.000000
  70
    32
  0
VERTEX
  8
0
  5
1300
 10
101.944
 20
130.098
 30
0.000000
  70
    32
  0
VERTEX
  8
0
  5
1301
 10
101.963
 20
130.101
 30
0.000000
  70
    32
  0
VERTEX
  8
0
  5
1302
 10
101.982
 20
130.105
 30
0.000000
  70
    32
  0
VERTEX
  8
0
  5
1303
 10
102.000
 20
130.108
 30
0.000000
  70
    32
  0
SEQEND
  8
0
  5
1304
  0
LINE
  5
BA0
  8
0
 10
51.0
 20
129.90000000568779
 30
0.0
 11
99.230018989062899
 21
129.90000000568779
 31
0.0
  0
POLYLINE
  5
BA1
  8
0
 10
102.00000003963642
 20
169.69229894332483
 30
0.0
 66
     1
 70
     8
  0
VERTEX
  8
0
  5
1305
 10
102.000
 20
169.692
 30
0.000000
  70
    32
  0
VERTEX
  8
0
  5
1306
 10
101.982
 20
169.695
 30
0.000000
  70
    32
  0
VERTEX
  8
0
  5
1307
 10
101.963
 20
169.699
 30
0.000000
  70
    32
  0
VERTEX
  8
0
  5
1308
 10
101.944
 20
169.702
 30
0.000000
  70
    32
  0
VERTEX
  8
0
  5
1309
 10
101.926
 20
169.705
 30
0.000000
  70
    32
  0
VERTEX
  8
0
  5
130A
 10
101.907
 20
169.708
 30
0.000000
  70
    32
  0
VERTEX
  8
0
  5
130B
 10
101.888
 20
169.711
 30
0.000000
  70
    32
  0
VERTEX
  8
0
  5
130C
 10
101.869
 20
169.714
 30
0.000000
  70
    32
  0
VERTEX
  8
0
  5
130D
 10
101.850
 20
169.717
 30
0.000000
  70
    32
  0
VERTEX
  8
0
  5
130E
 10
101.831
 20
169.720
 30
0.000000
  70
    32
  0
VERTEX
  8
0
  5
130F
 10
101.812
 20
169.723
 30
0.000000
  70
    32
  0
VERTEX
  8
0
  5
1310
 10
101.793
 20
169.725
 30
0.000000
  70
    32
  0
VERTEX
  8
0
  5
1311
 10
101.774
 20
169.728
 30
0.000000
  70
    32
  0
VERTEX
  8
0
  5
1312
 10
101.754
 20
169.731
 30
0.000000
  70
    32
  0
VERTEX
  8
0
  5
1313
 10
101.735
 20
169.734
 30
0.000000
  70
    32
  0
VERTEX
  8
0
  5
1314
 10
101.715
 20
169.737
 30
0.000000
  70
    32
  0
VERTEX
  8
0
  5
1315
 10
101.696
 20
169.740
 30
0.000000
  70
    32
  0
VERTEX
  8
0
  5
1316
 10
101.676
 20
169.742
 30
0.000000
  70
    32
  0
VERTEX
  8
0
  5
1317
 10
101.657
 20
169.745
 30
0.000000
  70
    32
  0
VERTEX
  8
0
  5
1318
 10
101.637
 20
169.748
 30
0.000000
  70
    32
  0
VERTEX
  8
0
  5
1319
 10
101.617
 20
169.751
 30
0.000000
  70
    32
  0
VERTEX
  8
0
  5
131A
 10
101.597
 20
169.753
 30
0.000000
  70
    32
  0
VERTEX
  8
0
  5
131B
 10
101.578
 20
169.756
 30
0.000000
  70
    32
  0
VERTEX
  8
0
  5
131C
 10
101.558
 20
169.759
 30
0.000000
  70
    32
  0
VERTEX
  8
0
  5
131D
 10
101.538
 20
169.761
 30
0.000000
  70
    32
  0
VERTEX
  8
0
  5
131E
 10
101.518
 20
169.764
 30
0.000000
  70
    32
  0
VERTEX
  8
0
  5
131F
 10
101.497
 20
169.766
 30
0.000000
  70
    32
  0
VERTEX
  8
0
  5
1320
 10
101.477
 20
169.769
 30
0.000000
  70
    32
  0
VERTEX
  8
0
  5
1321
 10
101.457
 20
169.771
 30
0.000000
  70
    32
  0
VERTEX
  8
0
  5
1322
 10
101.437
 20
169.774
 30
0.000000
  70
    32
  0
VERTEX
  8
0
  5
1323
 10
101.416
 20
169.776
 30
0.000000
  70
    32
  0
VERTEX
  8
0
  5
1324
 10
101.396
 20
169.779
 30
0.000000
  70
    32
  0
VERTEX
  8
0
  5
1325
 10
101.375
 20
169.781
 30
0.000000
  70
    32
  0
VERTEX
  8
0
  5
1326
 10
101.355
 20
169.784
 30
0.000000
  70
    32
  0
VERTEX
  8
0
  5
1327
 10
101.334
 20
169.786
 30
0.000000
  70
    32
  0
VERTEX
  8
0
  5
1328
 10
101.314
 20
169.788
 30
0.000000
  70
    32
  0
VERTEX
  8
0
  5
1329
 10
101.293
 20
169.791
 30
0.000000
  70
    32
  0
VERTEX
  8
0
  5
132A
 10
101.272
 20
169.793
 30
0.000000
  70
    32
  0
VERTEX
  8
0
  5
132B
 10
101.251
 20
169.795
 30
0.000000
  70
    32
  0
VERTEX
  8
0
  5
132C
 10
101.230
 20
169.798
 30
0.000000
  70
    32
  0
VERTEX
  8
0
  5
132D
 10
101.209
 20
169.800
 30
0.000000
  70
    32
  0
VERTEX
  8
0
  5
132E
 10
101.189
 20
169.802
 30
0.000000
  70
    32
  0
VERTEX
  8
0
  5
132F
 10
101.167
 20
169.804
 30
0.000000
  70
    32
  0
VERTEX
  8
0
  5
1330
 10
101.146
 20
169.807
 30
0.000000
  70
    32
  0
VERTEX
  8
0
  5
1331
 10
101.125
 20
169.809
 30
0.000000
  70
    32
  0
VERTEX
  8
0
  5
1332
 10
101.104
 20
169.811
 30
0.000000
  70
    32
  0
VERTEX
  8
0
  5
1333
 10
101.083
 20
169.813
 30
0.000000
  70
    32
  0
VERTEX
  8
0
  5
1334
 10
101.062
 20
169.815
 30
0.000000
  70
    32
  0
VERTEX
  8
0
  5
1335
 10
101.040
 20
169.817
 30
0.000000
  70
    32
  0
VERTEX
  8
0
  5
1336
 10
101.019
 20
169.819
 30
0.000000
  70
    32
  0
VERTEX
  8
0
  5
1337
 10
100.998
 20
169.821
 30
0.000000
  70
    32
  0
VERTEX
  8
0
  5
1338
 10
100.976
 20
169.823
 30
0.000000
  70
    32
  0
VERTEX
  8
0
  5
1339
 10
100.955
 20
169.825
 30
0.000000
  70
    32
  0
VERTEX
  8
0
  5
133A
 10
100.933
 20
169.827
 30
0.000000
  70
    32
  0
VERTEX
  8
0
  5
133B
 10
100.911
 20
169.829
 30
0.000000
  70
    32
  0
VERTEX
  8
0
  5
133C
 10
100.890
 20
169.831
 30
0.000000
  70
    32
  0
VERTEX
  8
0
  5
133D
 10
100.868
 20
169.833
 30
0.000000
  70
    32
  0
VERTEX
  8
0
  5
133E
 10
100.846
 20
169.834
 30
0.000000
  70
    32
  0
VERTEX
  8
0
  5
133F
 10
100.825
 20
169.836
 30
0.000000
  70
    32
  0
VERTEX
  8
0
  5
1340
 10
100.803
 20
169.838
 30
0.000000
  70
    32
  0
VERTEX
  8
0
  5
1341
 10
100.781
 20
169.840
 30
0.000000
  70
    32
  0
VERTEX
  8
0
  5
1342
 10
100.759
 20
169.842
 30
0.000000
  70
    32
  0
VERTEX
  8
0
  5
1343
 10
100.737
 20
169.843
 30
0.000000
  70
    32
  0
VERTEX
  8
0
  5
1344
 10
100.715
 20
169.845
 30
0.000000
  70
    32
  0
VERTEX
  8
0
  5
1345
 10
100.693
 20
169.847
 30
0.000000
  70
    32
  0
VERTEX
  8
0
  5
1346
 10
100.671
 20
169.848
 30
0.000000
  70
    32
  0
VERTEX
  8
0
  5
1347
 10
100.649
 20
169.850
 30
0.000000
  70
    32
  0
VERTEX
  8
0
  5
1348
 10
100.627
 20
169.851
 30
0.000000
  70
    32
  0
VERTEX
  8
0
  5
1349
 10
100.605
 20
169.853
 30
0.000000
  70
    32
  0
VERTEX
  8
0
  5
134A
 10
100.582
 20
169.855
 30
0.000000
  70
    32
  0
VERTEX
  8
0
  5
134B
 10
100.560
 20
169.856
 30
0.000000
  70
    32
  0
VERTEX
  8
0
  5
134C
 10
100.538
 20
169.858
 30
0.000000
  70
    32
  0
VERTEX
  8
0
  5
134D
 10
100.516
 20
169.859
 30
0.000000
  70
    32
  0
VERTEX
  8
0
  5
134E
 10
100.493
 20
169.861
 30
0.000000
  70
    32
  0
VERTEX
  8
0
  5
134F
 10
100.471
 20
169.862
 30
0.000000
  70
    32
  0
VERTEX
  8
0
  5
1350
 10
100.448
 20
169.863
 30
0.000000
  70
    32
  0
VERTEX
  8
0
  5
1351
 10
100.426
 20
169.865
 30
0.000000
  70
    32
  0
VERTEX
  8
0
  5
1352
 10
100.404
 20
169.866
 30
0.000000
  70
    32
  0
VERTEX
  8
0
  5
1353
 10
100.381
 20
169.867
 30
0.000000
  70
    32
  0
VERTEX
  8
0
  5
1354
 10
100.359
 20
169.869
 30
0.000000
  70
    32
  0
VERTEX
  8
0
  5
1355
 10
100.336
 20
169.870
 30
0.000000
  70
    32
  0
VERTEX
  8
0
  5
1356
 10
100.313
 20
169.871
 30
0.000000
  70
    32
  0
VERTEX
  8
0
  5
1357
 10
100.291
 20
169.872
 30
0.000000
  70
    32
  0
VERTEX
  8
0
  5
1358
 10
100.268
 20
169.874
 30
0.000000
  70
    32
  0
VERTEX
  8
0
  5
1359
 10
100.245
 20
169.875
 30
0.000000
  70
    32
  0
VERTEX
  8
0
  5
135A
 10
100.223
 20
169.876
 30
0.000000
  70
    32
  0
VERTEX
  8
0
  5
135B
 10
100.200
 20
169.877
 30
0.000000
  70
    32
  0
VERTEX
  8
0
  5
135C
 10
100.177
 20
169.878
 30
0.000000
  70
    32
  0
VERTEX
  8
0
  5
135D
 10
100.155
 20
169.879
 30
0.000000
  70
    32
  0
VERTEX
  8
0
  5
135E
 10
100.132
 20
169.880
 30
0.000000
  70
    32
  0
VERTEX
  8
0
  5
135F
 10
100.109
 20
169.881
 30
0.000000
  70
    32
  0
VERTEX
  8
0
  5
1360
 10
100.086
 20
169.882
 30
0.000000
  70
    32
  0
VERTEX
  8
0
  5
1361
 10
100.063
 20
169.883
 30
0.000000
  70
    32
  0
VERTEX
  8
0
  5
1362
 10
100.040
 20
169.884
 30
0.000000
  70
    32
  0
VERTEX
  8
0
  5
1363
 10
100.017
 20
169.885
 30
0.000000
  70
    32
  0
VERTEX
  8
0
  5
1364
 10
99.9944
 20
169.886
 30
0.000000
  70
    32
  0
VERTEX
  8
0
  5
1365
 10
99.9715
 20
169.887
 30
0.000000
  70
    32
  0
VERTEX
  8
0
  5
1366
 10
99.9485
 20
169.887
 30
0.000000
  70
    32
  0
VERTEX
  8
0
  5
1367
 10
99.9255
 20
169.888
 30
0.000000
  70
    32
  0
VERTEX
  8
0
  5
1368
 10
99.9025
 20
169.889
 30
0.000000
  70
    32
  0
VERTEX
  8
0
  5
1369
 10
99.8795
 20
169.890
 30
0.000000
  70
    32
  0
VERTEX
  8
0
  5
136A
 10
99.8565
 20
169.890
 30
0.000000
  70
    32
  0
VERTEX
  8
0
  5
136B
 10
99.8334
 20
169.891
 30
0.000000
  70
    32
  0
VERTEX
  8
0
  5
136C
 10
99.8103
 20
169.892
 30
0.000000
  70
    32
  0
VERTEX
  8
0
  5
136D
 10
99.7872
 20
169.892
 30
0.000000
  70
    32
  0
VERTEX
  8
0
  5
136E
 10
99.7641
 20
169.893
 30
0.000000
  70
    32
  0
VERTEX
  8
0
  5
136F
 10
99.7410
 20
169.894
 30
0.000000
  70
    32
  0
VERTEX
  8
0
  5
1370
 10
99.7179
 20
169.894
 30
0.000000
  70
    32
  0
VERTEX
  8
0
  5
1371
 10
99.6947
 20
169.895
 30
0.000000
  70
    32
  0
VERTEX
  8
0
  5
1372
 10
99.6716
 20
169.895
 30
0.000000
  70
    32
  0
VERTEX
  8
0
  5
1373
 10
99.6484
 20
169.896
 30
0.000000
  70
    32
  0
VERTEX
  8
0
  5
1374
 10
99.6252
 20
169.896
 30
0.000000
  70
    32
  0
VERTEX
  8
0
  5
1375
 10
99.6020
 20
169.897
 30
0.000000
  70
    32
  0
VERTEX
  8
0
  5
1376
 10
99.5788
 20
169.897
 30
0.000000
  70
    32
  0
VERTEX
  8
0
  5
1377
 10
99.5556
 20
169.897
 30
0.000000
  70
    32
  0
VERTEX
  8
0
  5
1378
 10
99.5324
 20
169.898
 30
0.000000
  70
    32
  0
VERTEX
  8
0
  5
1379
 10
99.5091
 20
169.898
 30
0.000000
  70
    32
  0
VERTEX
  8
0
  5
137A
 10
99.4859
 20
169.898
 30
0.000000
  70
    32
  0
VERTEX
  8
0
  5
137B
 10
99.4627
 20
169.899
 30
0.000000
  70
    32
  0
VERTEX
  8
0
  5
137C
 10
99.4394
 20
169.899
 30
0.000000
  70
    32
  0
VERTEX
  8
0
  5
137D
 10
99.4162
 20
169.899
 30
0.000000
  70
    32
  0
VERTEX
  8
0
  5
137E
 10
99.3929
 20
169.899
 30
0.000000
  70
    32
  0
VERTEX
  8
0
  5
137F
 10
99.3696
 20
169.900
 30
0.000000
  70
    32
  0
VERTEX
  8
0
  5
1380
 10
99.3464
 20
169.900
 30
0.000000
  70
    32
  0
VERTEX
  8
0
  5
1381
 10
99.3231
 20
169.900
 30
0.000000
  70
    32
  0
VERTEX
  8
0
  5
1382
 10
99.2998
 20
169.900
 30
0.000000
  70
    32
  0
VERTEX
  8
0
  5
1383
 10
99.2766
 20
169.900
 30
0.000000
  70
    32
  0
VERTEX
  8
0
  5
1384
 10
99.2533
 20
169.900
 30
0.000000
  70
    32
  0
VERTEX
  8
0
  5
1385
 10
99.2300
 20
169.900
 30
0.000000
  70
    32
  0
SEQEND
  8
0
  5
1386
  0
LINE
  5
BA4
  8
0
 10
51.0
 20
169.9000000056879
 30
0.0
 11
99.230018987867012
 21
169.90000000568779
 31
0.0
  0
LINE
  5
BA6
  8
0
 10
174.5
 20
57.500000005687859
 30
0.0
 11
174.5
 21
61.400000005687957
 31
0.0
  0
LINE
  5
BA7
  8
0
 10
169.5
 20
61.400000005687957
 30
0.0
 11
169.5
 21
57.500000005687859
 31
0.0
  0
LINE
  5
BA9
  8
0
 10
156.5
 20
56.900000005687843
 30
0.0
 11
179.5
 21
56.900000005687843
 31
0.0
  0
LINE
  5
BB5
  8
0
 10
156.5
 20
57.500000005687859
 30
0.0
 11
179.5
 21
57.500000005687859
 31
0.0
  0
LINE
  5
BB8
  8
0
 10
174.5
 20
50.000000000207301
 30
0.0
 11
179.5
 21
50.000000002957343
 31
0.0
  0
ARC
  5
BB9
  8
0
 10
172.0
 20
46.571210883437629
 30
0.0
 40
4.2434178214357097
 50
53.903447777867591
 51
126.0965522221324
  0
LINE
  5
BBA
  8
0
 10
156.5
 20
50.000000000207301
 30
0.0
 11
169.5
 21
50.000000002957343
 31
0.0
  0
LINE
  5
BBB
  8
0
 10
179.5
 20
50.000000002957343
 30
0.0
 11
179.5
 21
57.500000005687859
 31
0.0
  0
LINE
  5
BBC
  8
0
 10
156.5
 20
50.000000000207301
 30
0.0
 11
156.5
 21
57.500000005687859
 31
0.0
  0
POLYLINE
  5
BBD
  8
0
 66
     1
 10
0.0
 20
0.0
 30
0.0
 70
   128
  0
VERTEX
  5
117B
  8
0
 10
174.5
 20
50.000000005707307
 30
0.0
  0
VERTEX
  5
117C
  8
0
 10
174.47190828035221
 20
50.017495917424469
 30
0.0
  0
VERTEX
  5
117D
  8
0
 10
174.47128561424699
 20
50.017878194062291
 30
0.0
  0
SEQEND
  5
117E
  8
0
  0
LINE
  5
BBF
  8
0
 10
158.5
 20
58.4000000056879
 30
0.0
 11
158.5
 21
61.400000005687843
 31
0.0
  0
LINE
  5
BC0
  8
0
 10
160.5
 20
61.400000005687843
 30
0.0
 11
160.5
 21
58.4000000056879
 31
0.0
  0
LINE
  5
BC2
  8
0
 10
185.5
 20
58.4000000056879
 30
0.0
 11
185.5
 21
61.400000005687843
 31
0.0
  0
LINE
  5
BC3
  8
0
 10
183.5
 20
58.4000000056879
 30
0.0
 11
183.5
 21
61.400000005687843
 31
0.0
  0
LINE
  5
BC4
  8
0
 10
158.5
 20
58.4000000056879
 30
0.0
 11
160.5
 21
58.4000000056879
 31
0.0
  0
LINE
  5
BC7
  8
0
 10
183.5
 20
58.4000000056879
 30
0.0
 11
185.5
 21
58.4000000056879
 31
0.0
  0
ARC
  5
BCD
  8
0
 10
191.0000000000006
 20
62.400000005686699
 30
0.0
 40
0.9999999999988204
 50
269.99999999996578
 51
322.5870874616358
  0
LINE
  5
BCE
  8
0
 10
153.0
 20
61.400000005687843
 30
0.0
 11
191.0
 21
61.400000005687843
 31
0.0
  0
ARC
  5
BCF
  8
0
 10
152.9999999999994
 20
62.400000005686763
 30
0.0
 40
0.9999999999988916
 50
217.41291252024439
 51
270.00000000003263
  0
LINE
  5
BD2
  8
0
 10
152.0
 20
78.900000005687843
 30
0.0
 11
152.0
 21
62.400000005687843
 31
0.0
  0
ARC
  5
BD3
  8
0
 10
153.0
 20
64.900000005687843
 30
0.0
 40
1.0000000000000031
 50
98.775032307762956
 51
180.0
  0
ARC
  5
BD4
  8
0
 10
153.0
 20
62.400000005687843
 30
0.0
 40
1.0
 50
180.0
 51
217.41291250510969
  0
ARC
  5
BD6
  8
0
 10
191.0
 20
64.900000005687843
 30
0.0
 40
1.0
 50
0.0
 51
81.224969295721266
  0
LINE
  5
BD7
  8
0
 10
192.0
 20
78.900000005687843
 30
0.0
 11
192.0
 21
62.400000005687843
 31
0.0
  0
ARC
  5
BD9
  8
0
 10
191.0
 20
62.400000005687843
 30
0.0
 40
1.00000000007891
 50
322.58708747554442
 51
0.0
  0
ARC
  5
BDB
  8
0
 10
153.00000000000011
 20
64.900000005685513
 30
0.0
 40
1.000000000002359
 50
90.000000000008129
 51
98.775032307749754
  0
LINE
  5
BDC
  8
0
 10
153.0
 20
65.900000005687843
 30
0.0
 11
191.0
 21
65.900000005687843
 31
0.0
  0
ARC
  5
BDD
  8
0
 10
191.000000096902
 20
64.900002338926072
 30
0.0
 40
0.9999976667618065
 50
81.224954388488285
 51
90.000005552093498
  0
LINE
  5
BE5
  8
0
 10
164.25
 20
73.700000005687855
 30
0.0
 11
179.75
 21
73.700000005687855
 31
0.0
  0
LINE
  5
BE6
  8
0
 10
179.75
 20
71.900000005687843
 30
0.0
 11
179.75
 21
73.700000005687855
 31
0.0
  0
LINE
  5
BE7
  8
0
 10
164.25
 20
71.900000005687843
 30
0.0
 11
179.75
 21
71.900000005687843
 31
0.0
  0
LINE
  5
BE8
  8
0
 10
164.25
 20
73.700000005687855
 30
0.0
 11
164.25
 21
71.900000005687843
 31
0.0
  0
LINE
  5
BE9
  8
0
 10
164.25
 20
77.500000005687866
 30
0.0
 11
164.25
 21
75.700000005687855
 31
0.0
  0
LINE
  5
BEA
  8
0
 10
164.25
 20
77.500000005687866
 30
0.0
 11
179.75
 21
77.500000005687866
 31
0.0
  0
LINE
  5
BEB
  8
0
 10
179.75
 20
75.700000005687855
 30
0.0
 11
179.75
 21
77.500000005687866
 31
0.0
  0
LINE
  5
BEC
  8
0
 10
164.25
 20
75.700000005687855
 30
0.0
 11
179.75
 21
75.700000005687855
 31
0.0
  0
LINE
  5
BF2
  8
0
 10
191.0
 20
79.900000005687843
 30
0.0
 11
153.0
 21
79.900000005687843
 31
0.0
  0
ARC
  5
BF7
  8
0
 10
153.0
 20
78.900000005687843
 30
0.0
 40
1.0
 50
90.0
 51
180.0
  0
ARC
  5
BF8
  8
0
 10
191.0
 20
78.900000005687843
 30
0.0
 40
1.0
 50
0.0
 51
90.0
  0
LINE
  5
D81
  8
0
 10
414.3136475568304
 20
93.423000005687925
 30
0.0
 11
412.21364755683038
 21
93.423000005687925
 31
0.0
  0
LINE
  5
D82
  8
0
 10
412.21364755683038
 20
88.423000005687925
 30
0.0
 11
414.3136475568304
 21
88.423000005687925
 31
0.0
  0
ARC
  5
D83
  8
0
 10
415.21364755683038
 20
97.303477145687907
 30
0.0
 40
0.3000000009155785
 50
66.051568117183038
 51
180.0
  0
ARC
  5
D84
  8
0
 10
408.84079383683041
 20
82.955071825687867
 30
0.0
 40
15.9999999943
 50
41.605198262410248
 51
66.05156855486058
  0
ARC
  5
D85
  8
0
 10
417.81367767683048
 20
90.923012475687926
 30
0.0
 40
3.9999698856878951
 50
359.9998213790264
 51
41.605351607798262
  0
ARC
  5
D86
  8
0
 10
417.81367767683048
 20
90.922987535687923
 30
0.0
 40
3.9999698854999761
 50
318.39464839223672
 51
0.0001786208986657
  0
ARC
  5
D87
  8
0
 10
408.84079383683041
 20
98.890928185687869
 30
0.0
 40
15.999999994234431
 50
293.94843144516079
 51
318.39480173759853
  0
ARC
  5
D88
  8
0
 10
415.21364755683038
 20
84.542522865687886
 30
0.0
 40
0.3000000017655677
 50
180.0
 51
293.94843188393457
  0
LINE
  5
D89
  8
0
 10
414.91364755683048
 20
86.523000005687891
 30
0.0
 11
414.91364755683048
 21
84.542522865687886
 31
0.0
  0
ARC
  5
D8A
  8
0
 10
414.61364755683041
 20
86.523000005687891
 30
0.0
 40
0.3000000000000114
 50
0.0
 51
90.0
  0
LINE
  5
D8B
  8
0
 10
414.51364755683051
 20
86.823000005687902
 30
0.0
 11
414.61364755683041
 21
86.823000005687902
 31
0.0
  0
ARC
  5
D8C
  8
0
 10
414.51364755683051
 20
87.023000005687877
 30
0.0
 40
0.2000000000000028
 50
180.0
 51
270.0
  0
LINE
  5
D8D
  8
0
 10
414.3136475568304
 20
87.023000005687877
 30
0.0
 11
414.3136475568304
 21
94.823000005687888
 31
0.0
  0
ARC
  5
D8E
  8
0
 10
414.51364755683051
 20
94.823000005687888
 30
0.0
 40
0.2000000000000028
 50
90.0
 51
180.0
  0
LINE
  5
D8F
  8
0
 10
414.61364755683041
 20
95.023000005687891
 30
0.0
 11
414.51364755683051
 21
95.023000005687891
 31
0.0
  0
ARC
  5
D90
  8
0
 10
414.61364755683041
 20
95.323000005687902
 30
0.0
 40
0.3000000000000114
 50
270.0
 51
0.0
  0
LINE
  5
D91
  8
0
 10
414.91364755683048
 20
97.303477145687907
 30
0.0
 11
414.91364755683048
 21
95.323000005687902
 31
0.0
  0
LINE
  5
D95
  8
0
 10
410.41364755683048
 20
98.923000005687925
 30
0.0
 11
407.91364755683031
 21
98.923000005687925
 31
0.0
  0
LINE
  5
D9A
  8
0
 10
410.41364755683048
 20
71.423000005687925
 30
0.0
 11
410.41364755683048
 21
98.923000005687925
 31
0.0
  0
LINE
  5
D9B
  8
0
 10
407.91364755683031
 20
71.423000005687925
 30
0.0
 11
410.41364755683048
 21
71.423000005687925
 31
0.0
  0
LINE
  5
D9C
  8
0
 10
407.91364755683031
 20
98.923000005687925
 30
0.0
 11
407.91364755683031
 21
71.423000005687925
 31
0.0
  0
LINE
  5
D9E
  8
0
 10
410.41364755683048
 20
86.523000005687891
 30
0.0
 11
412.21364755683038
 21
86.523000005687891
 31
0.0
  0
LINE
  5
D9F
  8
0
 10
412.21364755683038
 20
90.257793270905438
 30
0.0
 11
410.41364755683048
 21
90.257793270905438
 31
0.0
  0
LINE
  5
DA1
  8
0
 10
410.41364755683048
 20
91.588206740470397
 30
0.0
 11
412.21364755683038
 21
91.588206740470397
 31
0.0
  0
LINE
  5
DA2
  8
0
 10
412.21364755683038
 20
86.523000005687834
 30
0.0
 11
412.21364755683038
 21
95.323000005687902
 31
0.0
  0
LINE
  5
DA3
  8
0
 10
412.21364755683038
 20
95.323000005687902
 30
0.0
 11
410.41364755683048
 21
95.323000005687902
 31
0.0
  0
LINE
  5
DA4
  8
0
 10
370.0
 20
84.242522863787883
 30
0.0
 11
371.5
 21
84.242522863787883
 31
0.0
  0
LINE
  5
DA5
  8
0
 10
371.5
 20
97.603477145687918
 30
0.0
 11
370.0
 21
97.603477145687918
 31
0.0
  0
LINE
  5
DA6
  8
0
 10
355.99999999997971
 20
92.655050813252899
 30
0.0
 11
354.5000000000008
 21
91.789025409486442
 31
0.0
  0
LINE
  5
DA7
  8
0
 10
354.5000000000008
 20
91.789025409486442
 30
0.0
 11
354.5000000000008
 21
90.056974601889351
 31
0.0
  0
LINE
  5
DA8
  8
0
 10
354.5000000000008
 20
90.056974601889351
 30
0.0
 11
356.00000000002348
 21
89.190949198117025
 31
0.0
  0
LINE
  5
DA9
  8
0
 10
356.00000000002348
 20
89.190949198117025
 30
0.0
 11
357.49999999999829
 21
90.056974601890815
 31
0.0
  0
LINE
  5
DAA
  8
0
 10
357.49999999999829
 20
91.789025409484964
 30
0.0
 11
357.49999999999829
 21
90.056974601890815
 31
0.0
  0
LINE
  5
DAB
  8
0
 10
357.49999999999829
 20
91.789025409484964
 30
0.0
 11
355.99999999997971
 21
92.655050813252899
 31
0.0
  0
LINE
  5
DAC
  8
0
 10
371.5
 20
95.023000005687891
 30
0.0
 11
370.0
 21
95.023000005687891
 31
0.0
  0
LINE
  5
DB0
  8
0
 10
370.0
 20
86.823000005687902
 30
0.0
 11
371.5
 21
86.823000005687902
 31
0.0
  0
LINE
  5
DB4
  8
0
 10
371.5
 20
84.242522863787883
 30
0.0
 11
371.5
 21
97.603477145687918
 31
0.0
  0
CIRCLE
  5
DB7
  8
0
 10
356.0
 20
90.923000005687925
 30
0.0
 40
5.1999999999452484
  0
LINE
  5
DB8
  8
0
 10
342.5
 20
71.423000005687925
 30
0.0
 11
342.0
 21
71.923000005687925
 31
0.0
  0
LINE
  5
DB9
  8
0
 10
342.0
 20
98.423000005687925
 30
0.0
 11
342.0
 21
71.923000005687925
 31
0.0
  0
LINE
  5
DBA
  8
0
 10
369.5
 20
98.923000005687925
 30
0.0
 11
342.5
 21
98.923000005687925
 31
0.0
  0
LINE
  5
DBB
  8
0
 10
369.5
 20
98.923000005687925
 30
0.0
 11
370.0
 21
98.423000005687925
 31
0.0
  0
LINE
  5
DBC
  8
0
 10
370.0
 20
71.923000005687925
 30
0.0
 11
370.0
 21
98.423000005687925
 31
0.0
  0
LINE
  5
DBD
  8
0
 10
370.0
 20
71.923000005687925
 30
0.0
 11
369.5
 21
71.423000005687925
 31
0.0
  0
LINE
  5
DBE
  8
0
 10
342.5
 20
71.423000005687925
 30
0.0
 11
369.5
 21
71.423000005687925
 31
0.0
  0
LINE
  5
DBF
  8
0
 10
342.0
 20
98.423000005687925
 30
0.0
 11
342.5
 21
98.923000005687925
 31
0.0
  0
LINE
  5
DE6
  8
0
 10
353.5
 20
155.3230000056879
 30
0.0
 11
353.5
 21
153.22300000568791
 31
0.0
  0
LINE
  5
DE7
  8
0
 10
358.5
 20
153.22300000568791
 30
0.0
 11
358.5
 21
155.3230000056879
 31
0.0
  0
LINE
  5
DEA
  8
0
 10
371.5
 20
155.92300000568801
 30
0.0
 11
348.5
 21
155.92300000568801
 31
0.0
  0
LINE
  5
DF3
  8
0
 10
371.5
 20
155.3230000056879
 30
0.0
 11
348.5
 21
155.3230000056879
 31
0.0
  0
LINE
  5
DF8
  8
0
 10
353.5
 20
162.8230000111684
 30
0.0
 11
348.5
 21
162.82300000841849
 31
0.0
  0
ARC
  5
DF9
  8
0
 10
356.0
 20
166.25178912793831
 30
0.0
 40
4.2434178214358989
 50
233.9034477778647
 51
306.0965522221349
  0
LINE
  5
DFA
  8
0
 10
371.5
 20
162.8230000111684
 30
0.0
 11
358.5
 21
162.82300000841849
 31
0.0
  0
LINE
  5
DFB
  8
0
 10
371.5
 20
162.8230000111684
 30
0.0
 11
371.49999999999989
 21
155.3230000056879
 31
0.0
  0
LINE
  5
DFC
  8
0
 10
348.5
 20
162.82300000841849
 30
0.0
 11
348.5
 21
155.3230000056879
 31
0.0
  0
LINE
  5
DFF
  8
0
 10
342.0
 20
151.42300000568801
 30
0.0
 11
342.0
 21
148.9230000056879
 31
0.0
  0
LINE
  5
E05
  8
0
 10
370.0
 20
148.9230000056879
 30
0.0
 11
370.0
 21
151.42300000568801
 31
0.0
  0
LINE
  5
E06
  8
0
 10
341.99999999999989
 20
148.9230000056879
 30
0.0
 11
370.0
 21
148.9230000056879
 31
0.0
  0
LINE
  5
E07
  8
0
 10
370.0
 20
151.42300000568801
 30
0.0
 11
341.99999999999989
 21
151.42300000568801
 31
0.0
  0
LINE
  5
E08
  8
0
 10
355.33479326521751
 20
151.42300000568801
 30
0.0
 11
355.33479326521751
 21
153.22300000568791
 31
0.0
  0
LINE
  5
E09
  8
0
 10
351.60000000000002
 20
153.22300000568791
 30
0.0
 11
351.60000000000002
 21
151.42300000568801
 31
0.0
  0
LINE
  5
E0B
  8
0
 10
356.66520673478249
 20
153.22300000568791
 30
0.0
 11
356.66520673478249
 21
151.42300000568801
 31
0.0
  0
LINE
  5
E0D
  8
0
 10
360.39999999999998
 20
151.42300000568801
 30
0.0
 11
360.39999999999998
 21
153.22300000568791
 31
0.0
  0
LINE
  5
E0E
  8
0
 10
360.39999999999998
 20
153.22300000568791
 30
0.0
 11
351.60000000000002
 21
153.22300000568791
 31
0.0
  0
LINE
  5
E7F
  8
1
 10
87.0
 20
157.10000000568991
 30
0.0
 11
87.0
 21
142.70000000568569
 31
0.0
  0
LINE
  5
E80
  8
1
 10
45.0
 20
149.90000000568779
 30
0.0
 11
107.0
 21
149.90000000568779
 31
0.0
  0
LINE
  5
EC8
  8
1
 10
87.0
 20
67.9000000056879
 30
0.0
 11
87.0
 21
48.0
 31
0.0
  0
LINE
  5
ED3
  8
3
 10
89.067000000000263
 20
57.500000005687859
 30
0.0
 11
89.067000000000235
 21
58.4000000056879
 31
0.0
  0
LINE
  5
ED4
  8
3
 10
84.932999999999765
 20
57.500000005687859
 30
0.0
 11
84.932999999999794
 21
58.4000000056879
 31
0.0
  0
LINE
  5
ED6
  8
3
 10
414.3136475568304
 20
92.990000005688145
 30
0.0
 11
412.21364755683049
 21
92.990000005688145
 31
0.0
  0
LINE
  5
ED7
  8
3
 10
414.3136475568304
 20
88.856000005687704
 30
0.0
 11
412.21364755683049
 21
88.856000005687704
 31
0.0
  0
LINE
  5
ED8
  8
1
 10
172.0
 20
84.900000005687843
 30
0.0
 11
172.0
 21
48.0
 31
0.0
  0
LINE
  5
ED9
  8
3
 10
174.06700000000029
 20
57.500000005687859
 30
0.0
 11
174.06700000000021
 21
61.400000005687957
 31
0.0
  0
LINE
  5
EDA
  8
3
 10
169.93299999999959
 20
57.500000005687859
 30
0.0
 11
169.93299999999979
 21
61.400000005687957
 31
0.0
  0
LINE
  5
F8E
  8
3
 10
353.93299999999959
 20
155.3230000056879
 30
0.0
 11
353.93299999999959
 21
153.22300000568799
 31
0.0
  0
LINE
  5
F8F
  8
3
 10
358.06700000000012
 20
155.3230000056879
 30
0.0
 11
358.06700000000012
 21
153.22300000568799
 31
0.0
  0
LINE
  5
1056
  8
1
 10
356.0
 20
66.423000005687925
 30
0.0
 11
356.0
 21
103.9230000056879
 31
0.0
  0
LINE
  5
1057
  8
1
 10
423.81364756250531
 20
90.923000005687925
 30
0.0
 11
405.91364755683031
 21
90.923000005687925
 31
0.0
  0
LINE
  5
1060
  8
1
 10
356.0
 20
146.9230000056879
 30
0.0
 11
356.0
 21
164.82300000962189
 31
0.0
  0
LINE
  5
1061
  8
1
 10
363.19999999994519
 20
90.923000005687925
 30
0.0
 11
348.80000000005469
 21
90.923000005687925
 31
0.0
  0
ENDSEC
  0
EOF
