  0
SECTION
  2
HEADER
  9
$ACADVER
  1
AC1009
  9
$INSBASE
 10
0.0
 20
0.0
 30
0.0
  9
$EXTMIN
 10
0.0
 20
-2.960436562073669
 30
0.0
  9
$EXTMAX
 10
566.72435148753084
 20
413.16846522781742
 30
0.0
  9
$LIMMIN
 10
0.0
 20
0.0
  9
$LIMMAX
 10
750.0
 20
540.0
  9
$ORTHOMODE
 70
     1
  9
$REGENMODE
 70
     1
  9
$FILLMODE
 70
     1
  9
$QTEXTMODE
 70
     0
  9
$MIRRTEXT
 70
     0
  9
$DRAGMODE
 70
     2
  9
$LTSCALE
 40
20.0
  9
$OSMODE
 70
  3071
  9
$ATTMODE
 70
     1
  9
$TEXTSIZE
 40
8.0000000000000497
  9
$TRACEWID
 40
0.05
  9
$TEXTSTYLE
  7
STANDARD
  9
$CLAYER
  8
4
  9
$CELTYPE
  6
BYLAYER
  9
$CECOLOR
 62
   256
  9
$DIMSCALE
 40
2.0
  9
$DIMASZ
 40
3.0
  9
$DIMEXO
 40
2.0
  9
$DIMDLI
 40
0.3799999999999999
  9
$DIMRND
 40
0.0
  9
$DIMDLE
 40
0.0
  9
$DIMEXE
 40
2.0
  9
$DIMTP
 40
0.0
  9
$DIMTM
 40
0.0
  9
$DIMTXT
 40
3.2000000000000002
  9
$DIMCEN
 40
0.0
  9
$DIMTSZ
 40
0.0
  9
$DIMTOL
 70
     0
  9
$DIMLIM
 70
     0
  9
$DIMTIH
 70
     0
  9
$DIMTOH
 70
     0
  9
$DIMSE1
 70
     0
  9
$DIMSE2
 70
     0
  9
$DIMTAD
 70
     1
  9
$DIMZIN
 70
     0
  9
$DIMBLK
  1

  9
$DIMASO
 70
     1
  9
$DIMSHO
 70
     0
  9
$DIMPOST
  1

  9
$DIMAPOST
  1

  9
$DIMALT
 70
     0
  9
$DIMALTD
 70
     2
  9
$DIMALTF
 40
25.399999999999999
  9
$DIMLFAC
 40
1.0
  9
$DIMTOFL
 70
     1
  9
$DIMTVP
 40
0.0
  9
$DIMTIX
 70
     1
  9
$DIMSOXD
 70
     0
  9
$DIMSAH
 70
     0
  9
$DIMBLK1
  1

  9
$DIMBLK2
  1

  9
$DIMSTYLE
  2
STANDARD
  9
$DIMCLRD
 70
     0
  9
$DIMCLRE
 70
     0
  9
$DIMCLRT
 70
     0
  9
$DIMTFAC
 40
1.0
  9
$DIMGAP
 40
0.09
  9
$LUNITS
 70
     2
  9
$LUPREC
 70
     4
  9
$SKETCHINC
 40
0.1
  9
$FILLETRAD
 40
10.0
  9
$AUNITS
 70
     0
  9
$AUPREC
 70
     0
  9
$MENU
  1
E:\r13\win\SUPPORT\ACAD
  9
$ELEVATION
 40
0.0
  9
$PELEVATION
 40
0.0
  9
$THICKNESS
 40
0.0
  9
$LIMCHECK
 70
     0
  9
$BLIPMODE
 70
     0
  9
$CHAMFERA
 40
0.0
  9
$CHAMFERB
 40
0.0
  9
$SKPOLY
 70
     0
  9
$TDCREATE
 40
2449840.6331250002
  9
$TDUPDATE
 40
2456597.654431574
  9
$TDINDWG
 40
0.0001464931
  9
$TDUSRTIMER
 40
0.0001464931
  9
$USRTIMER
 70
     1
  9
$ANGBASE
 50
0.0
  9
$ANGDIR
 70
     0
  9
$PDMODE
 70
     0
  9
$PDSIZE
 40
0.0
  9
$PLINEWID
 40
0.0
  9
$COORDS
 70
     1
  9
$SPLFRAME
 70
     0
  9
$SPLINETYPE
 70
     6
  9
$SPLINESEGS
 70
     8
  9
$ATTDIA
 70
     0
  9
$ATTREQ
 70
     1
  9
$HANDLING
 70
     1
  9
$HANDSEED
  5
323
  9
$SURFTAB1
 70
     6
  9
$SURFTAB2
 70
     6
  9
$SURFTYPE
 70
     6
  9
$SURFU
 70
     6
  9
$SURFV
 70
     6
  9
$UCSNAME
  2

  9
$UCSORG
 10
0.0
 20
0.0
 30
0.0
  9
$UCSXDIR
 10
1.0
 20
0.0
 30
0.0
  9
$UCSYDIR
 10
0.0
 20
1.0
 30
0.0
  9
$PUCSNAME
  2

  9
$PUCSORG
 10
0.0
 20
0.0
 30
0.0
  9
$PUCSXDIR
 10
1.0
 20
0.0
 30
0.0
  9
$PUCSYDIR
 10
0.0
 20
1.0
 30
0.0
  9
$USERI1
 70
     0
  9
$USERI2
 70
     1
  9
$USERI3
 70
     1
  9
$USERI4
 70
     0
  9
$USERI5
 70
     0
  9
$USERR1
 40
0.0
  9
$USERR2
 40
0.0
  9
$USERR3
 40
0.0
  9
$USERR4
 40
0.0
  9
$USERR5
 40
0.0
  9
$WORLDVIEW
 70
     1
  9
$SHADEDGE
 70
     3
  9
$SHADEDIF
 70
    70
  9
$TILEMODE
 70
     1
  9
$MAXACTVP
 70
    16
  9
$PLIMCHECK
 70
     0
  9
$PEXTMIN
 10
1.0000000000000000E+020
 20
1.0000000000000000E+020
 30
1.0000000000000000E+020
  9
$PEXTMAX
 10
-1.0000000000000000E+020
 20
-1.0000000000000000E+020
 30
-1.0000000000000000E+020
  9
$PLIMMIN
 10
0.0
 20
0.0
  9
$PLIMMAX
 10
12.0
 20
9.0
  9
$UNITMODE
 70
     0
  9
$VISRETAIN
 70
     0
  9
$PLINEGEN
 70
     0
  9
$PSLTSCALE
 70
     0
  0
ENDSEC
  0
SECTION
  2
TABLES
  0
TABLE
  2
VPORT
 70
     1
  0
VPORT
  2
*ACTIVE
 70
     0
 10
0.0
 20
0.0
 11
1.0
 21
1.0
 12
374.98855678130462
 22
269.68405869568772
 13
0.0
 23
0.0
 14
20.0
 24
20.0
 15
20.0
 25
20.0
 16
0.0
 26
0.0
 36
1.0
 17
0.0
 27
0.0
 37
0.0
 40
551.57487251346481
 41
2.304913294797688
 42
50.0
 43
0.0
 44
0.0
 50
0.0
 51
0.0
 71
     0
 72
   500
 73
     1
 74
     0
 75
     0
 76
     0
 77
     0
 78
     0
  0
ENDTAB
  0
TABLE
  2
LTYPE
 70
     4
  0
LTYPE
  2
CONTINUOUS
 70
     0
  3
Solid Line
 72
    65
 73
     0
 40
0.0
  0
LTYPE
  2
CENTER
 70
     0
  3
____ _ ____ _ ____ _ ____ _ ____ _ ____ _ ____
 72
    65
 73
     4
 40
2.0
 49
1.25
 49
-0.25
 49
0.25
 49
-0.25
  0
LTYPE
  2
HIDDEN
 70
     0
  3
_ _ _ _ _ _ _ _ _ _ _ _ _ _ _ _ _ _ _ _ _ _ _
 72
    65
 73
     2
 40
0.375
 49
0.25
 49
-0.125
  0
LTYPE
  2
PHANTOM2
 70
     0
  3
___ _ _ ___ _ _ ___ _ _ ___ _ _
 72
    65
 73
     6
 40
1.25
 49
0.625
 49
-0.125
 49
0.125
 49
-0.125
 49
0.125
 49
-0.125
  0
ENDTAB
  0
TABLE
  2
LAYER
 70
     4
  0
LAYER
  2
0
 70
     0
 62
     7
  6
CONTINUOUS
  0
LAYER
  2
1
 70
     0
 62
     1
  6
CENTER
  0
LAYER
  2
2
 70
     0
 62
     2
  6
HIDDEN
  0
LAYER
  2
4
 70
     0
 62
     4
  6
CONTINUOUS
  0
ENDTAB
  0
TABLE
  2
STYLE
 70
     2
  0
STYLE
  2
STANDARD
 70
     0
 40
0.0
 41
1.0
 50
0.0
 71
     0
 42
8.0000000000000497
  3
TXT
  4
BIGFONT
  0
STYLE
  2
STANDARD1
 70
     0
 40
0.0
 41
1.0
 50
0.0
 71
     0
 42
3.0
  3
txt
  4

  0
ENDTAB
  0
TABLE
  2
VIEW
 70
     1
  0
VIEW
  2
ALL
 70
     0
 40
540.0
 10
441.98319327731087
 20
270.0
 41
0.0
 11
0.0
 21
0.0
 31
1.0
 12
0.0
 22
0.0
 32
0.0
 42
0.0
 43
0.0
 44
0.0
 50
0.0
 71
     0
  0
ENDTAB
  0
TABLE
  2
UCS
 70
     0
  0
ENDTAB
  0
TABLE
  2
APPID
 70
     3
  0
APPID
  2
ACAD
 70
     0
  0
APPID
  2
ACAD_MLEADERVER
 70
     0
  0
APPID
  2
ACAD_NAV_VCDISPLAY
 70
     0
  0
ENDTAB
  0
TABLE
  2
DIMSTYLE
 70
     1
  0
DIMSTYLE
  2
STANDARD
 70
     0
  3

  4

  5

  6

  7

 40
1.0
 41
0.18
 42
0.0625
 43
0.38
 44
0.18
 45
0.0
 46
0.0
 47
0.0
 48
0.0
140
0.18
141
0.09
142
0.0
143
25.399999999999999
144
1.0
145
0.0
146
1.0
147
0.09
 71
     0
 72
     0
 73
     1
 74
     1
 75
     0
 76
     0
 77
     0
 78
     0
170
     0
171
     2
172
     0
173
     0
174
     0
175
     0
176
     0
177
     0
178
     0
  0
ENDTAB
  0
ENDSEC
  0
SECTION
  2
BLOCKS
  0
BLOCK
  8
0
  2
$MODEL_SPACE
 70
     0
 10
0.0
 20
0.0
 30
0.0
  3
$MODEL_SPACE
  1

  0
ENDBLK
  5
1A0
  8
0
  0
BLOCK
 67
     1
  8
0
  2
$PAPER_SPACE
 70
     0
 10
0.0
 20
0.0
 30
0.0
  3
$PAPER_SPACE
  1

  0
ENDBLK
  5
19E
 67
     1
  8
0
  0
ENDSEC
  0
SECTION
  2
ENTITIES
  0
LINE
  5
111
  8
0
 10
110.7519534384131
 20
165.757643884891
 30
0.0
 11
130.75195343841321
 21
165.757643884891
 31
0.0
  0
LINE
  5
112
  8
0
 10
110.7519534384131
 20
225.75764388489159
 30
0.0
 11
110.7519534384131
 21
165.757643884891
 31
0.0
  0
LINE
  5
113
  8
0
 10
130.75195343841321
 20
225.75764388489159
 30
0.0
 11
130.75195343841321
 21
165.757643884891
 31
0.0
  0
ARC
  5
114
  8
0
 10
120.7519534384132
 20
225.75764388489159
 30
0.0
 40
10.0
 50
0.000000000000014
 51
180.0
  0
LINE
  5
115
  8
1
 10
120.7519534384132
 20
155.75764388489159
 30
0.0
 11
120.7519534384132
 21
245.75764388489159
 31
0.0
  0
LINE
  5
116
  8
1
 10
100.7519534384132
 20
225.75764388489159
 30
0.0
 11
140.75195343841321
 21
225.75764388489159
 31
0.0
  0
LINE
  5
117
  8
1
 10
546.72435148753084
 20
413.16846522781691
 30
0.0
 11
546.72435148753084
 21
373.16846522781691
 31
0.0
  0
LINE
  5
118
  8
1
 10
296.72435148753078
 20
413.16846522781742
 30
0.0
 11
296.72435148753078
 21
373.16846522781748
 31
0.0
  0
LINE
  5
119
  8
1
 10
566.72435148753084
 20
393.16846522781748
 30
0.0
 11
276.72435148753073
 21
393.16846522781748
 31
0.0
  0
ARC
  5
11A
  8
0
 10
546.72435148753084
 20
393.16846522781691
 30
0.0
 40
10.0
 50
270.0
 51
90.0
  0
ARC
  5
11B
  8
0
 10
296.72435148753078
 20
393.16846522781748
 30
0.0
 40
10.0
 50
90.0
 51
270.0
  0
LINE
  5
11C
  8
0
 10
296.72435148753078
 20
383.16846522781748
 30
0.0
 11
546.72435148753084
 21
383.16846522781691
 31
0.0
  0
LINE
  5
11D
  8
0
 10
296.72435148753078
 20
403.16846522781742
 30
0.0
 11
546.72435148753084
 21
403.16846522781691
 31
0.0
  0
LINE
  5
11E
  8
2
 10
293.40085148753002
 20
166.95764388489161
 30
0.0
 11
292.20085148752992
 21
165.75764388489159
 31
0.0
  0
LINE
  5
11F
  8
2
 10
300.0478514875299
 20
166.95764388489161
 30
0.0
 11
301.24785148752989
 21
165.75764388489159
 31
0.0
  0
LINE
  5
120
  8
2
 10
300.0478514875299
 20
166.95764388489161
 30
0.0
 11
293.40085148753002
 21
166.9576438848913
 31
0.0
  0
LINE
  5
121
  8
2
 10
293.40085148753002
 20
185.75764388489159
 30
0.0
 11
300.0478514875299
 21
185.75764388489159
 31
0.0
  0
LINE
  5
122
  8
2
 10
292.72435148752999
 20
180.75764388489159
 30
0.0
 11
300.72435148752987
 21
180.75764388489159
 31
0.0
  0
LINE
  5
123
  8
2
 10
293.40085148753002
 20
185.75764388489159
 30
0.0
 11
296.72435148753021
 21
187.7546041522298
 31
0.0
  0
LINE
  5
124
  8
2
 10
300.04785148753029
 20
185.75764388489159
 30
0.0
 11
296.72435148753021
 21
187.7546041522298
 31
0.0
  0
LINE
  5
125
  8
2
 10
300.72435148752987
 20
166.28114388489149
 30
0.0
 11
300.72435148752987
 21
180.75764388489159
 31
0.0
  0
LINE
  5
126
  8
2
 10
300.0478514875299
 20
166.9576438848913
 30
0.0
 11
300.0478514875299
 21
185.75764388489159
 31
0.0
  0
LINE
  5
127
  8
2
 10
293.40085148753002
 20
166.9576438848913
 30
0.0
 11
293.40085148753002
 21
185.75764388489159
 31
0.0
  0
LINE
  5
128
  8
2
 10
292.72435148752999
 20
166.28114388489149
 30
0.0
 11
292.72435148752999
 21
180.75764388489159
 31
0.0
  0
LINE
  5
129
  8
0
 10
536.72435148753004
 20
165.75764388489159
 30
0.0
 11
556.72435148753004
 21
165.75764388489159
 31
0.0
  0
ARC
  5
12A
  8
0
 10
514.72435148753027
 20
193.75764388489139
 30
0.0
 40
42.0
 50
359.99999999999977
 51
90.0
  0
ARC
  5
12B
  8
0
 10
328.72435148753021
 20
193.75764388489139
 30
0.0
 40
42.0
 50
90.0
 51
179.99999999999989
  0
ARC
  5
12C
  8
1
 10
514.72435148753027
 20
193.75764388489139
 30
0.0
 40
32.0
 50
0.0
 51
90.0
  0
ARC
  5
12D
  8
1
 10
328.72435148753021
 20
193.75764388489139
 30
0.0
 40
32.0
 50
90.0
 51
179.9999999999998
  0
ARC
  5
12E
  8
0
 10
514.72435148753027
 20
193.75764388489139
 30
0.0
 40
22.0
 50
359.99999999999977
 51
90.0
  0
ARC
  5
12F
  8
0
 10
328.72435148753021
 20
193.75764388489139
 30
0.0
 40
22.0
 50
90.0
 51
180.0
  0
LINE
  5
130
  8
1
 10
328.72435148753021
 20
225.75764388489159
 30
0.0
 11
514.72435148753027
 21
225.75764388489159
 31
0.0
  0
LINE
  5
131
  8
1
 10
296.72435148753021
 20
193.75764388489139
 30
0.0
 11
296.72435148753021
 21
155.75764388489159
 31
0.0
  0
LINE
  5
132
  8
1
 10
546.72435148753004
 20
155.75764388489159
 30
0.0
 11
546.72435148753004
 21
193.75764388489139
 31
0.0
  0
LINE
  5
133
  8
0
 10
328.72435148753021
 20
215.75764388489159
 30
0.0
 11
514.72435148753027
 21
215.75764388489159
 31
0.0
  0
LINE
  5
134
  8
0
 10
328.72435148753021
 20
235.75764388489159
 30
0.0
 11
514.72435148753027
 21
235.75764388489159
 31
0.0
  0
LINE
  5
135
  8
0
 10
306.7243514875297
 20
193.75764388489139
 30
0.0
 11
306.7243514875301
 21
165.75764388489159
 31
0.0
  0
LINE
  5
136
  8
0
 10
556.72435148753004
 20
165.75764388489159
 30
0.0
 11
556.72435148753004
 21
193.75764388489139
 31
0.0
  0
LINE
  5
137
  8
0
 10
536.72435148753004
 20
165.75764388489159
 30
0.0
 11
536.72435148753004
 21
193.75764388489139
 31
0.0
  0
LINE
  5
138
  8
0
 10
286.72435148753021
 20
165.75764388489159
 30
0.0
 11
306.7243514875297
 21
165.75764388489159
 31
0.0
  0
LINE
  5
139
  8
0
 10
286.72435148753021
 20
193.75764388489139
 30
0.0
 11
286.72435148753021
 21
165.75764388489159
 31
0.0
  0
ARC
  5
13A
  8
2
 10
296.72435148753078
 20
393.16846522781748
 30
0.0
 40
10.0
 50
270.00002676876522
 51
89.999965441672515
  0
ARC
  5
13B
  8
2
 10
546.72435148753084
 20
393.16846522781748
 30
0.0
 40
10.0
 50
90.000034558327485
 51
269.99997323123489
  0
ARC
  5
13C
  8
2
 10
120.7519534384132
 20
225.75764388489159
 30
0.0
 40
10.0
 50
180.0
 51
0.0
  0
LINE
  5
145
  8
2
 10
542.72435148753004
 20
166.28114388489149
 30
0.0
 11
542.72435148753004
 21
180.75764388489159
 31
0.0
  0
LINE
  5
146
  8
2
 10
543.40085148753008
 20
166.9576438848913
 30
0.0
 11
543.40085148753008
 21
185.75764388489159
 31
0.0
  0
LINE
  5
147
  8
2
 10
550.0478514875299
 20
166.9576438848913
 30
0.0
 11
550.0478514875299
 21
185.75764388489159
 31
0.0
  0
LINE
  5
148
  8
2
 10
550.72435148753004
 20
166.28114388489149
 30
0.0
 11
550.72435148753004
 21
180.75764388489159
 31
0.0
  0
LINE
  5
149
  8
2
 10
550.04785148753035
 20
185.75764388489159
 30
0.0
 11
546.72435148753027
 21
187.7546041522298
 31
0.0
  0
LINE
  5
14A
  8
2
 10
543.40085148753008
 20
185.75764388489159
 30
0.0
 11
546.72435148753027
 21
187.7546041522298
 31
0.0
  0
LINE
  5
14B
  8
2
 10
542.72435148753004
 20
180.75764388489159
 30
0.0
 11
550.72435148753004
 21
180.75764388489159
 31
0.0
  0
LINE
  5
14C
  8
2
 10
543.40085148753008
 20
185.75764388489159
 30
0.0
 11
550.0478514875299
 21
185.75764388489159
 31
0.0
  0
LINE
  5
14D
  8
2
 10
550.0478514875299
 20
166.95764388489161
 30
0.0
 11
543.40085148753008
 21
166.9576438848913
 31
0.0
  0
LINE
  5
14E
  8
2
 10
550.0478514875299
 20
166.95764388489161
 30
0.0
 11
551.24785148753006
 21
165.75764388489159
 31
0.0
  0
LINE
  5
14F
  8
2
 10
543.40085148753008
 20
166.95764388489161
 30
0.0
 11
542.20085148753003
 21
165.75764388489159
 31
0.0
  0
LINE
  5
150
  8
2
 10
116.7519534384129
 20
166.28114388489149
 30
0.0
 11
116.7519534384129
 21
180.75764388489159
 31
0.0
  0
LINE
  5
151
  8
2
 10
117.428453438413
 20
166.9576438848913
 30
0.0
 11
117.428453438413
 21
185.75764388489159
 31
0.0
  0
LINE
  5
152
  8
2
 10
124.07545343841289
 20
166.9576438848913
 30
0.0
 11
124.07545343841289
 21
185.75764388489159
 31
0.0
  0
LINE
  5
153
  8
2
 10
124.7519534384129
 20
166.28114388489149
 30
0.0
 11
124.7519534384129
 21
180.75764388489159
 31
0.0
  0
LINE
  5
154
  8
2
 10
124.07545343841331
 20
185.75764388489159
 30
0.0
 11
120.7519534384132
 21
187.7546041522298
 31
0.0
  0
LINE
  5
155
  8
2
 10
117.428453438413
 20
185.75764388489159
 30
0.0
 11
120.7519534384132
 21
187.7546041522298
 31
0.0
  0
LINE
  5
156
  8
2
 10
116.7519534384129
 20
180.75764388489159
 30
0.0
 11
124.7519534384129
 21
180.75764388489159
 31
0.0
  0
LINE
  5
157
  8
2
 10
117.428453438413
 20
185.75764388489159
 30
0.0
 11
124.07545343841289
 21
185.75764388489159
 31
0.0
  0
LINE
  5
158
  8
2
 10
124.07545343841289
 20
166.95764388489161
 30
0.0
 11
117.428453438413
 21
166.9576438848913
 31
0.0
  0
LINE
  5
159
  8
2
 10
124.07545343841289
 20
166.95764388489161
 30
0.0
 11
125.2754534384129
 21
165.75764388489159
 31
0.0
  0
LINE
  5
15A
  8
2
 10
117.428453438413
 20
166.95764388489161
 30
0.0
 11
116.2284534384129
 21
165.75764388489159
 31
0.0
  0
TEXT
  5
294
  8
0
 62
     3
 10
0.0
 20
0.0
 30
0.0
 40
10.0
  1
MH5-250
  7
STANDARD1
  0
ENDSEC
  0
EOF
