  0
SECTION
  2
HEADER
  9
$ACADVER
  1
AC1009
  9
$INSBASE
 10
0.0
 20
0.0
 30
0.0
  9
$EXTMIN
 10
0.0
 20
-2.960436562073669
 30
0.0
  9
$EXTMAX
 10
966.69783339155117
 20
603.88334979684646
 30
0.0
  9
$LIMMIN
 10
0.0
 20
0.0
  9
$LIMMAX
 10
1125.0
 20
810.0
  9
$ORTHOMODE
 70
     1
  9
$REGENMODE
 70
     1
  9
$FILLMODE
 70
     1
  9
$QTEXTMODE
 70
     0
  9
$MIRRTEXT
 70
     0
  9
$DRAGMODE
 70
     2
  9
$LTSCALE
 40
30.0
  9
$OSMODE
 70
    37
  9
$ATTMODE
 70
     1
  9
$TEXTSIZE
 40
8.0000000000000497
  9
$TRACEWID
 40
0.05
  9
$TEXTSTYLE
  7
STANDARD
  9
$CLAYER
  8
4
  9
$CELTYPE
  6
BYLAYER
  9
$CECOLOR
 62
   256
  9
$DIMSCALE
 40
3.0
  9
$DIMASZ
 40
3.0
  9
$DIMEXO
 40
2.0
  9
$DIMDLI
 40
0.38
  9
$DIMRND
 40
0.0
  9
$DIMDLE
 40
0.0
  9
$DIMEXE
 40
2.0
  9
$DIMTP
 40
0.0
  9
$DIMTM
 40
0.0
  9
$DIMTXT
 40
3.2000000000000002
  9
$DIMCEN
 40
0.0
  9
$DIMTSZ
 40
0.0
  9
$DIMTOL
 70
     0
  9
$DIMLIM
 70
     0
  9
$DIMTIH
 70
     0
  9
$DIMTOH
 70
     0
  9
$DIMSE1
 70
     0
  9
$DIMSE2
 70
     0
  9
$DIMTAD
 70
     1
  9
$DIMZIN
 70
     8
  9
$DIMBLK
  1

  9
$DIMASO
 70
     1
  9
$DIMSHO
 70
     0
  9
$DIMPOST
  1

  9
$DIMAPOST
  1

  9
$DIMALT
 70
     0
  9
$DIMALTD
 70
     2
  9
$DIMALTF
 40
25.399999999999999
  9
$DIMLFAC
 40
1.0
  9
$DIMTOFL
 70
     1
  9
$DIMTVP
 40
1.6000000000000001
  9
$DIMTIX
 70
     1
  9
$DIMSOXD
 70
     0
  9
$DIMSAH
 70
     0
  9
$DIMBLK1
  1

  9
$DIMBLK2
  1

  9
$DIMSTYLE
  2
STANDARD
  9
$DIMCLRD
 70
     0
  9
$DIMCLRE
 70
     0
  9
$DIMCLRT
 70
     0
  9
$DIMTFAC
 40
1.0
  9
$DIMGAP
 40
0.09
  9
$LUNITS
 70
     2
  9
$LUPREC
 70
     1
  9
$SKETCHINC
 40
0.1
  9
$FILLETRAD
 40
20.0
  9
$AUNITS
 70
     0
  9
$AUPREC
 70
     1
  9
$MENU
  1
E:\r13\win\SUPPORT\ACAD
  9
$ELEVATION
 40
0.0
  9
$PELEVATION
 40
0.0
  9
$THICKNESS
 40
0.0
  9
$LIMCHECK
 70
     0
  9
$BLIPMODE
 70
     0
  9
$CHAMFERA
 40
0.0
  9
$CHAMFERB
 40
0.0
  9
$SKPOLY
 70
     0
  9
$TDCREATE
 40
2449840.644942129
  9
$TDUPDATE
 40
2457869.5562710301
  9
$TDINDWG
 40
0.0618751505
  9
$TDUSRTIMER
 40
0.0618751505
  9
$USRTIMER
 70
     1
  9
$ANGBASE
 50
0.0
  9
$ANGDIR
 70
     0
  9
$PDMODE
 70
    35
  9
$PDSIZE
 40
0.0
  9
$PLINEWID
 40
0.0
  9
$COORDS
 70
     1
  9
$SPLFRAME
 70
     0
  9
$SPLINETYPE
 70
     6
  9
$SPLINESEGS
 70
     8
  9
$ATTDIA
 70
     0
  9
$ATTREQ
 70
     1
  9
$HANDLING
 70
     1
  9
$HANDSEED
  5
4A2
  9
$SURFTAB1
 70
     6
  9
$SURFTAB2
 70
     6
  9
$SURFTYPE
 70
     6
  9
$SURFU
 70
     6
  9
$SURFV
 70
     6
  9
$UCSNAME
  2

  9
$UCSORG
 10
0.0
 20
0.0
 30
0.0
  9
$UCSXDIR
 10
1.0
 20
0.0
 30
0.0
  9
$UCSYDIR
 10
0.0
 20
1.0
 30
0.0
  9
$PUCSNAME
  2

  9
$PUCSORG
 10
0.0
 20
0.0
 30
0.0
  9
$PUCSXDIR
 10
1.0
 20
0.0
 30
0.0
  9
$PUCSYDIR
 10
0.0
 20
1.0
 30
0.0
  9
$USERI1
 70
     0
  9
$USERI2
 70
     1
  9
$USERI3
 70
     1
  9
$USERI4
 70
     0
  9
$USERI5
 70
     0
  9
$USERR1
 40
0.0
  9
$USERR2
 40
0.0
  9
$USERR3
 40
0.0
  9
$USERR4
 40
0.0
  9
$USERR5
 40
0.0
  9
$WORLDVIEW
 70
     1
  9
$SHADEDGE
 70
     3
  9
$SHADEDIF
 70
    70
  9
$TILEMODE
 70
     1
  9
$MAXACTVP
 70
    16
  9
$PLIMCHECK
 70
     0
  9
$PEXTMIN
 10
1.0000000000000000E+020
 20
1.0000000000000000E+020
 30
1.0000000000000000E+020
  9
$PEXTMAX
 10
-1.0000000000000000E+020
 20
-1.0000000000000000E+020
 30
-1.0000000000000000E+020
  9
$PLIMMIN
 10
0.0
 20
0.0
  9
$PLIMMAX
 10
12.0
 20
9.0
  9
$UNITMODE
 70
     0
  9
$VISRETAIN
 70
     0
  9
$PLINEGEN
 70
     0
  9
$PSLTSCALE
 70
     0
  0
ENDSEC
  0
SECTION
  2
TABLES
  0
TABLE
  2
VPORT
 70
     1
  0
VPORT
  2
*ACTIVE
 70
     0
 10
0.0
 20
0.0
 11
1.0
 21
1.0
 12
635.68376068376062
 22
350.0
 13
0.0
 23
0.0
 14
30.0
 24
30.0
 15
30.0
 25
30.0
 16
0.0
 26
0.0
 36
1.0
 17
0.0
 27
0.0
 37
0.0
 40
700.0
 41
1.816239316239316
 42
50.0
 43
0.0
 44
0.0
 50
0.0
 51
0.0
 71
     0
 72
   500
 73
     1
 74
     0
 75
     0
 76
     0
 77
     0
 78
     0
  0
ENDTAB
  0
TABLE
  2
LTYPE
 70
     4
  0
LTYPE
  2
CONTINUOUS
 70
     0
  3
Solid Line
 72
    65
 73
     0
 40
0.0
  0
LTYPE
  2
CENTER
 70
     0
  3
____ _ ____ _ ____ _ ____ _ ____ _ ____ _ ____
 72
    65
 73
     4
 40
2.0
 49
1.25
 49
-0.25
 49
0.25
 49
-0.25
  0
LTYPE
  2
HIDDEN
 70
     0
  3
_ _ _ _ _ _ _ _ _ _ _ _ _ _ _ _ _ _ _ _ _ _ _
 72
    65
 73
     2
 40
0.375
 49
0.25
 49
-0.125
  0
LTYPE
  2
PHANTOM2
 70
     0
  3
___ _ _ ___ _ _ ___ _ _ ___ _ _
 72
    65
 73
     6
 40
1.25
 49
0.625
 49
-0.125
 49
0.125
 49
-0.125
 49
0.125
 49
-0.125
  0
ENDTAB
  0
TABLE
  2
LAYER
 70
     5
  0
LAYER
  2
0
 70
     0
 62
     7
  6
CONTINUOUS
  0
LAYER
  2
1
 70
     0
 62
     1
  6
CENTER
  0
LAYER
  2
3
 70
     0
 62
     3
  6
CONTINUOUS
  0
LAYER
  2
4
 70
     0
 62
     4
  6
CONTINUOUS
  0
LAYER
  2
2
 70
     0
 62
     2
  6
HIDDEN
  0
ENDTAB
  0
TABLE
  2
STYLE
 70
     2
  0
STYLE
  2
STANDARD
 70
     0
 40
0.0
 41
1.0
 50
0.0
 71
     0
 42
8.0000000000000497
  3
TXT
  4
BIGFONT
  0
STYLE
  2
STANDARD1
 70
     0
 40
0.0
 41
1.0
 50
0.0
 71
     0
 42
3.0
  3
txt
  4

  0
ENDTAB
  0
TABLE
  2
VIEW
 70
     1
  0
VIEW
  2
ALL
 70
     0
 40
810.0
 10
639.77067226890745
 20
405.0
 41
0.0
 11
0.0
 21
0.0
 31
1.0
 12
0.0
 22
0.0
 32
0.0
 42
0.0
 43
0.0
 44
0.0
 50
0.0
 71
     0
  0
ENDTAB
  0
TABLE
  2
UCS
 70
     0
  0
ENDTAB
  0
TABLE
  2
APPID
 70
     6
  0
APPID
  2
ACAD
 70
     0
  0
APPID
  2
ACAD_MLEADERVER
 70
     0
  0
APPID
  2
ACAD_NAV_VCDISPLAY
 70
     0
  0
APPID
  2
ACAD_EXEMPT_FROM_CAD_STANDARDS
 70
     0
  0
APPID
  2
ACAD_DSTYLE_DIMJAG
 70
     0
  0
APPID
  2
ACAD_DSTYLE_DIMTALN
 70
     0
  0
ENDTAB
  0
TABLE
  2
DIMSTYLE
 70
     1
  0
DIMSTYLE
  2
STANDARD
 70
     0
  3

  4

  5

  6

  7

 40
1.0
 41
0.18
 42
0.0625
 43
0.38
 44
0.18
 45
0.0
 46
0.0
 47
0.0
 48
0.0
140
0.18
141
0.09
142
0.0
143
25.399999999999999
144
1.0
145
0.0
146
1.0
147
0.09
 71
     0
 72
     0
 73
     1
 74
     1
 75
     0
 76
     0
 77
     0
 78
     0
170
     0
171
     2
172
     0
173
     0
174
     0
175
     0
176
     0
177
     0
178
     0
  0
ENDTAB
  0
ENDSEC
  0
SECTION
  2
BLOCKS
  0
BLOCK
  8
0
  2
$MODEL_SPACE
 70
     0
 10
0.0
 20
0.0
 30
0.0
  3
$MODEL_SPACE
  1

  0
ENDBLK
  5
1DA
  8
0
  0
BLOCK
 67
     1
  8
0
  2
$PAPER_SPACE
 70
     0
 10
0.0
 20
0.0
 30
0.0
  3
$PAPER_SPACE
  1

  0
ENDBLK
  5
1D8
 67
     1
  8
0
  0
ENDSEC
  0
SECTION
  2
ENTITIES
  0
LINE
  5
94
  8
1
 10
931.69783339155117
 20
593.38334979684714
 30
0.0
 11
931.69783339155117
 21
566.38334979684691
 31
0.0
  0
LINE
  5
95
  8
0
 10
931.69783339155094
 20
556.11628853984269
 30
0.0
 11
931.69783339155117
 21
559.88334979684691
 31
0.0
  0
POLYLINE
  5
96
  8
0
 66
     1
 10
0.0
 20
0.0
 30
0.0
  0
VERTEX
  5
97
  8
0
 10
931.69783339155094
 20
556.11628853984269
 30
0.0
  0
VERTEX
  5
98
  8
0
 10
931.65318628922989
 20
556.06048262660966
 30
0.0
 42
-0.0320998587185313
  0
VERTEX
  5
99
  8
0
 10
930.96560034451727
 20
555.95157597506955
 30
0.0
 42
-0.013583796483866
 70
     2
 50
185.32319350366319
  0
VERTEX
  5
9A
  8
0
 10
930.23243952469977
 20
555.9033074491424
 30
0.0
 42
-0.0096441512384939
  0
VERTEX
  5
9B
  8
0
 10
929.19783339155117
 20
555.88334979684726
 30
0.0
 42
-0.0096441512385256
  0
SEQEND
  5
9C
  8
0
  0
POLYLINE
  5
9D
  8
0
 66
     1
 10
0.0
 20
0.0
 30
0.0
  0
VERTEX
  5
9E
  8
0
 10
931.69783339155094
 20
603.65041105385114
 30
0.0
  0
VERTEX
  5
9F
  8
0
 10
931.65318628922989
 20
603.70621696708406
 30
0.0
 42
0.0320998587185313
  0
VERTEX
  5
A0
  8
0
 10
930.96560034451727
 20
603.81512361862428
 30
0.0
 42
0.013583796483866
 70
     2
 50
174.67680649633681
  0
VERTEX
  5
A1
  8
0
 10
930.23243952469977
 20
603.86339214455143
 30
0.0
 42
0.0096441512384939
 50
174.67680649633681
  0
VERTEX
  5
A2
  8
0
 10
929.19783339155117
 20
603.88334979684646
 30
0.0
 42
0.0096441512385256
  0
SEQEND
  5
A3
  8
0
  0
LINE
  5
A4
  8
3
 10
954.19783339155117
 20
601.38334979684635
 30
0.0
 11
954.19783339155083
 21
558.38334979684635
 31
0.0
  0
LINE
  5
A5
  8
0
 10
931.69783339155094
 20
603.65041105385114
 30
0.0
 11
931.69783339155117
 21
599.88334979684691
 31
0.0
  0
LINE
  5
A6
  8
0
 10
924.69783339155117
 20
597.38335519164355
 30
0.0
 11
924.69783339155117
 21
562.38334979684691
 31
0.0
  0
LINE
  5
A7
  8
0
 10
956.69783339155117
 20
601.38334979684635
 30
0.0
 11
956.69783339155094
 21
558.38334979684635
 31
0.0
  0
LINE
  5
A8
  8
0
 10
919.69783339155094
 20
601.38334979684635
 30
0.0
 11
919.69783339155083
 21
595.88334979684691
 31
0.0
  0
ARC
  5
A9
  8
0
 10
927.19783339155094
 20
562.38334979684691
 30
0.0
 40
2.5
 50
179.9999999999994
 51
270.00000000000011
  0
LINE
  5
AA
  8
0
 10
931.69783339155117
 20
559.88334979684691
 30
0.0
 11
927.19783339155094
 21
559.88334979684691
 31
0.0
  0
LINE
  5
AB
  8
0
 10
931.69783339155117
 20
599.88334979684691
 30
0.0
 11
927.19783339155094
 21
599.88334979684691
 31
0.0
  0
ARC
  5
AC
  8
0
 10
927.19783339155094
 20
597.38334979684714
 30
0.0
 40
2.5
 50
89.999999999999986
 51
180.00000000000071
  0
LINE
  5
AD
  8
3
 10
927.19783339155094
 20
597.38334979684714
 30
0.0
 11
927.19783339155094
 21
562.38334979684691
 31
0.0
  0
LINE
  5
AE
  8
0
 10
919.69783339155094
 20
563.88334979684691
 30
0.0
 11
919.69783339155106
 21
558.38334979684635
 31
0.0
  0
LINE
  5
AF
  8
0
 10
954.19783339155083
 20
555.88334979684635
 30
0.0
 11
922.19783339155117
 21
555.88334979684635
 31
0.0
  0
LINE
  5
B0
  8
0
 10
954.19783339155117
 20
603.88334979684646
 30
0.0
 11
922.19783339155094
 21
603.88334979684646
 31
0.0
  0
ARC
  5
B1
  8
0
 10
954.19783339155117
 20
601.38334979684635
 30
0.0
 40
2.5
 50
0.0000000000000763
 51
90.000000000000099
  0
ARC
  5
B2
  8
0
 10
922.19783339155094
 20
601.38334979684635
 30
0.0
 40
2.5
 50
90.000000000000185
 51
180.0000000000004
  0
ARC
  5
B3
  8
0
 10
922.19783339155117
 20
558.38334979684635
 30
0.0
 40
2.5
 50
180.0
 51
270.00000000000011
  0
ARC
  5
B4
  8
0
 10
954.19783339155083
 20
558.38334979684635
 30
0.0
 40
2.5
 50
270.00000000000011
 51
0.0000000000000254
  0
LINE
  5
B5
  8
0
 10
924.69783339155072
 20
563.88334979684691
 30
0.0
 11
338.69783339155111
 21
563.88334979684669
 31
0.0
  0
LINE
  5
B6
  8
0
 10
338.69783339155111
 20
595.88334979684691
 30
0.0
 11
924.69783339155072
 21
595.88334979684691
 31
0.0
  0
LINE
  5
B7
  8
1
 10
296.69783339155111
 20
579.88334979684691
 30
0.0
 11
966.69783339155117
 21
579.88334979684691
 31
0.0
  0
ARC
  5
B8
  8
0
 10
167.84611152802091
 20
311.65216480423851
 30
0.0
 40
2.5
 50
5.3231935036615834
 51
106.86015253647621
  0
ARC
  5
B9
  8
0
 10
154.79446053453441
 20
311.65216480423709
 30
0.0
 40
2.5
 50
73.139847463524546
 51
174.67680649633959
  0
ARC
  5
BA
  8
0
 10
161.32028603127759
 20
333.18501416483389
 30
0.0
 40
20.00000000000087
 50
253.1398474635248
 51
286.86015253647611
  0
ARC
  5
BB
  8
2
 10
161.32028603127759
 20
333.18501416483389
 30
0.0
 40
20.000000000000401
 50
286.86015253645911
 51
5.3231935036604812
  0
ARC
  5
BC
  8
0
 10
170.2656136996651
 20
285.685014164834
 30
0.0
 40
2.5
 50
270.00000000000023
 51
5.3231935036608498
  0
ARC
  5
BD
  8
0
 10
152.37495836289051
 20
285.68501416483389
 30
0.0
 40
2.5
 50
174.6768064963394
 51
270.00000000000023
  0
LINE
  5
BE
  8
0
 10
149.88574030111079
 20
285.91694829537471
 30
0.0
 11
152.30524247275471
 21
311.88409893477791
 31
0.0
  0
LINE
  5
BF
  8
0
 10
172.75483176144479
 20
285.91694829537482
 30
0.0
 11
170.33532958980049
 21
311.88409893477927
 31
0.0
  0
ARC
  5
C0
  8
2
 10
161.32028603127759
 20
333.18501416483389
 30
0.0
 40
20.000000000000401
 50
174.67680649633951
 51
253.1398474635408
  0
ARC
  5
C1
  8
0
 10
161.32028603127759
 20
333.18501416483389
 30
0.0
 40
20.0
 50
5.3231935036604741
 51
174.67680649633951
  0
LINE
  5
C2
  8
0
 10
185.3202860312777
 20
291.18501416483412
 30
0.0
 11
181.23403052551529
 21
335.04048720916018
 31
0.0
  0
LINE
  5
C3
  8
0
 10
137.3202860312777
 20
291.1850141648336
 30
0.0
 11
141.40654153704
 21
335.04048720916018
 31
0.0
  0
LINE
  5
C4
  8
0
 10
185.32028603127759
 20
273.185014164834
 30
0.0
 11
185.3202860312777
 21
291.18501416483412
 31
0.0
  0
LINE
  5
C5
  8
0
 10
137.3202860312775
 20
273.18501416483389
 30
0.0
 11
137.3202860312777
 21
291.1850141648336
 31
0.0
  0
LINE
  5
C6
  8
0
 10
154.8202860312779
 20
290.14067659753579
 30
0.0
 11
154.8202860312779
 21
285.18501416483389
 31
0.0
  0
LINE
  5
C7
  8
0
 10
161.3202860312777
 20
289.56012001393469
 30
0.0
 11
161.32028603127759
 21
285.185014164834
 31
0.0
  0
LINE
  5
C8
  8
0
 10
167.8202860312775
 20
290.14067659753579
 30
0.0
 11
167.8202860312775
 21
285.18501416483389
 31
0.0
  0
LINE
  5
C9
  8
0
 10
167.57028603127631
 20
290.28501416483391
 30
0.0
 11
155.0702860312791
 21
290.28501416483391
 31
0.0
  0
LINE
  5
CA
  8
0
 10
167.8202860312775
 20
290.14067659753579
 30
0.0
 11
167.57028603127631
 21
290.28501416483391
 31
0.0
  0
ARC
  5
CB
  8
0
 10
164.5702860312775
 20
280.75352446228709
 30
0.0
 40
9.3871521352487513
 50
69.743841999582841
 51
110.2561580004172
  0
ARC
  5
CC
  8
0
 10
158.0702860312779
 20
280.75352446228709
 30
0.0
 40
9.3871521352487513
 50
69.743841999582841
 51
110.2561580004172
  0
LINE
  5
CD
  8
0
 10
154.8202860312779
 20
290.14067659753579
 30
0.0
 11
155.0702860312791
 21
290.28501416483391
 31
0.0
  0
LINE
  5
CE
  8
0
 10
152.82028603127711
 20
284.78501416483391
 30
0.0
 11
152.82028603127711
 21
283.185014164834
 31
0.0
  0
LINE
  5
CF
  8
0
 10
169.82028603127799
 20
284.78501416483391
 30
0.0
 11
169.82028603127799
 21
283.185014164834
 31
0.0
  0
LINE
  5
D0
  8
0
 10
169.82028603127799
 20
284.78501416483391
 30
0.0
 11
152.82028603127711
 21
284.78501416483391
 31
0.0
  0
LINE
  5
D1
  8
0
 10
154.8202860312779
 20
285.18501416483389
 30
0.0
 11
167.8202860312775
 21
285.18501416483389
 31
0.0
  0
LINE
  5
D2
  8
0
 10
155.4702860312776
 20
285.18501416483389
 30
0.0
 11
155.4702860312776
 21
284.78501416483391
 31
0.0
  0
LINE
  5
D3
  8
0
 10
167.17028603127761
 20
285.18501416483377
 30
0.0
 11
167.17028603127761
 21
284.7850141648338
 31
0.0
  0
LINE
  5
D4
  8
0
 10
152.37495836289051
 20
283.185014164834
 30
0.0
 11
170.2656136996651
 21
283.185014164834
 31
0.0
  0
LINE
  5
D5
  8
0
 10
137.3202860312775
 20
273.18501416483389
 30
0.0
 11
185.32028603127759
 21
273.185014164834
 31
0.0
  0
LINE
  5
D6
  8
0
 10
167.82028603127739
 20
268.81627611791947
 30
0.0
 11
167.57028603127631
 21
268.9606136852176
 31
0.0
  0
ARC
  5
D7
  8
0
 10
164.57028603127739
 20
259.42912398267077
 30
0.0
 40
9.3871521352487513
 50
69.743841999582841
 51
110.2561580004172
  0
ARC
  5
D8
  8
0
 10
158.0702860312779
 20
259.42912398267077
 30
0.0
 40
9.3871521352487513
 50
69.743841999582841
 51
110.2561580004172
  0
LINE
  5
D9
  8
0
 10
154.8202860312779
 20
268.81627611791947
 30
0.0
 11
155.07028603127901
 21
268.9606136852176
 31
0.0
  0
LINE
  5
DA
  8
0
 10
154.8202860312779
 20
262.60495125251572
 30
0.0
 11
155.0702860312791
 21
262.46061368521771
 31
0.0
  0
ARC
  5
DB
  8
0
 10
158.0702860312779
 20
271.99210338776442
 30
0.0
 40
9.3871521352487513
 50
249.7438419995828
 51
290.25615800041709
  0
LINE
  5
DC
  8
0
 10
154.8202860312779
 20
262.60495125251572
 30
0.0
 11
154.8202860312779
 21
268.81627611791959
 31
0.0
  0
LINE
  5
DD
  8
0
 10
161.3202860312777
 20
263.18550783611693
 30
0.0
 11
161.32028603127759
 21
268.23571953432128
 31
0.0
  0
LINE
  5
DE
  8
0
 10
167.8202860312775
 20
262.60495125251572
 30
0.0
 11
167.8202860312775
 21
268.81627611791947
 31
0.0
  0
ARC
  5
DF
  8
0
 10
164.5702860312775
 20
271.99210338776442
 30
0.0
 40
9.3871521352487513
 50
249.7438419995828
 51
290.25615800041709
  0
LINE
  5
E0
  8
0
 10
167.8202860312775
 20
262.60495125251572
 30
0.0
 11
167.57028603127631
 21
262.46061368521771
 31
0.0
  0
LINE
  5
E1
  8
0
 10
167.57028603127631
 20
262.46061368521771
 30
0.0
 11
155.0702860312791
 21
262.46061368521771
 31
0.0
  0
LINE
  5
E2
  8
0
 10
164.12028603127791
 20
259.78501416483391
 30
0.0
 11
158.520286031278
 21
259.78501416483402
 31
0.0
  0
LINE
  5
E3
  8
0
 10
157.32028603127799
 20
273.18501416483389
 30
0.0
 11
157.3202860312779
 21
270.56061368521762
 31
0.0
  0
LINE
  5
E4
  8
3
 10
157.99678603127779
 20
273.18501416483389
 30
0.0
 11
157.99678603127791
 21
270.56061368521762
 31
0.0
  0
LINE
  5
E5
  8
3
 10
164.64378603127801
 20
273.185014164834
 30
0.0
 11
164.64378603127801
 21
270.56061368521762
 31
0.0
  0
LINE
  5
E6
  8
0
 10
165.32028603127799
 20
273.185014164834
 30
0.0
 11
165.32028603127799
 21
270.56061368521762
 31
0.0
  0
LINE
  5
E7
  8
0
 10
165.3202860312779
 20
260.9850141648339
 30
0.0
 11
164.12028603127791
 21
259.78501416483391
 31
0.0
  0
LINE
  5
E8
  8
0
 10
158.520286031278
 20
259.78501416483402
 30
0.0
 11
157.3202860312779
 21
260.9850141648339
 31
0.0
  0
LINE
  5
E9
  8
0
 10
165.3202860312779
 20
260.9850141648339
 30
0.0
 11
157.3202860312779
 21
260.9850141648339
 31
0.0
  0
LINE
  5
EA
  8
0
 10
152.8202860312775
 20
268.96061368521771
 30
0.0
 11
152.8202860312775
 21
270.56061368521762
 31
0.0
  0
LINE
  5
EB
  8
0
 10
169.82028603127841
 20
268.96061368521771
 30
0.0
 11
152.8202860312775
 21
268.96061368521771
 31
0.0
  0
LINE
  5
EC
  8
0
 10
169.82028603127841
 20
268.96061368521771
 30
0.0
 11
169.82028603127841
 21
270.56061368521762
 31
0.0
  0
LINE
  5
ED
  8
0
 10
152.8202860312775
 20
270.56061368521762
 30
0.0
 11
169.82028603127841
 21
270.56061368521762
 31
0.0
  0
LINE
  5
EE
  8
0
 10
165.3202860312781
 20
262.46061368521771
 30
0.0
 11
165.3202860312779
 21
260.9850141648339
 31
0.0
  0
LINE
  5
EF
  8
3
 10
164.64378603127801
 20
262.46061368521771
 30
0.0
 11
164.64378603127801
 21
260.30851416483398
 31
0.0
  0
LINE
  5
F0
  8
0
 10
157.3202860312779
 20
262.46061368521771
 30
0.0
 11
157.3202860312779
 21
260.9850141648339
 31
0.0
  0
LINE
  5
F1
  8
3
 10
157.99678603127791
 20
262.46061368521771
 30
0.0
 11
157.99678603127791
 21
260.30851416483398
 31
0.0
  0
LINE
  5
F2
  8
1
 10
296.69783339155111
 20
333.18501416483389
 30
0.0
 11
966.69783339155094
 21
333.18501416483389
 31
0.0
  0
LINE
  5
F3
  8
3
 10
922.19783339155117
 20
280.685014164834
 30
0.0
 11
922.19783339155117
 21
275.68501416483412
 31
0.0
  0
ARC
  5
F4
  8
0
 10
922.19783339155117
 20
280.685014164834
 30
0.0
 40
2.5
 50
90.0
 51
180.00000000000119
  0
LINE
  5
F5
  8
3
 10
954.19783339155117
 20
288.6850141648107
 30
0.0
 11
954.19783339155117
 21
275.685014164834
 31
0.0
  0
LINE
  5
F6
  8
3
 10
954.19783339155117
 20
350.68501416483389
 30
0.0
 11
954.19783339155117
 21
293.68501416485731
 31
0.0
  0
LINE
  5
F7
  8
3
 10
927.19783339155094
 20
350.685014164834
 30
0.0
 11
927.19783339155094
 21
315.685014164834
 31
0.0
  0
LINE
  5
F8
  8
2
 10
924.69783339155083
 20
348.18501416483389
 30
0.0
 11
951.69783339155117
 21
348.18501416483389
 31
0.0
  0
LINE
  5
F9
  8
2
 10
924.69783339155083
 20
318.18501416483389
 30
0.0
 11
951.69783339155117
 21
318.18501416483389
 31
0.0
  0
ARC
  5
FA
  8
0
 10
929.1978333915514
 20
285.68501416483389
 30
0.0
 40
2.5
 50
270.0
 51
0.0000000000002163
  0
LINE
  5
FB
  8
0
 10
956.69783339155117
 20
350.68501416483389
 30
0.0
 11
956.69783339155117
 21
273.18501416483389
 31
0.0
  0
LINE
  5
FC
  8
0
 10
924.69783339155083
 20
350.68501416483389
 30
0.0
 11
924.69783339155083
 21
315.685014164834
 31
0.0
  0
LINE
  5
FD
  8
0
 10
956.69783339155117
 20
273.18501416483389
 30
0.0
 11
919.69783339155106
 21
273.18501416483412
 31
0.0
  0
LINE
  5
FE
  8
2
 10
951.69783339155094
 20
348.18501416483389
 30
0.0
 11
951.69783339155128
 21
318.18501416483389
 31
0.0
  0
LINE
  5
FF
  8
0
 10
954.19783339155117
 20
353.185014164834
 30
0.0
 11
927.19783339155094
 21
353.185014164834
 31
0.0
  0
LINE
  5
100
  8
0
 10
931.69783339155117
 20
313.18501416483389
 30
0.0
 11
927.19783339155094
 21
313.18501416483389
 31
0.0
  0
ARC
  5
101
  8
0
 10
927.19783339155094
 20
350.685014164834
 30
0.0
 40
2.5
 50
89.999999999999986
 51
180.00000000000071
  0
ARC
  5
102
  8
0
 10
927.19783339155094
 20
315.685014164834
 30
0.0
 40
2.5
 50
179.9999999999994
 51
270.00000000000011
  0
ARC
  5
103
  8
0
 10
954.19783339155117
 20
350.68501416483389
 30
0.0
 40
2.5
 50
0.0000000000000763
 51
90.000000000000028
  0
LINE
  5
104
  8
0
 10
931.69783339155094
 20
333.18501416483389
 30
0.0
 11
931.6978333915514
 21
285.68501416483389
 31
0.0
  0
LINE
  5
105
  8
0
 10
929.1978333915514
 20
283.185014164834
 30
0.0
 11
922.19783339155117
 21
283.185014164834
 31
0.0
  0
LINE
  5
106
  8
0
 10
923.1978333915506
 20
284.78501416483391
 30
0.0
 11
923.1978333915506
 21
283.185014164834
 31
0.0
  0
LINE
  5
107
  8
0
 10
923.1978333915506
 20
284.78501416483391
 30
0.0
 11
931.53021414949001
 21
284.78501416483391
 31
0.0
  0
ARC
  5
108
  8
0
 10
931.69783339155015
 20
277.72123318114348
 30
0.0
 40
12.41944341639239
 50
89.999999999995296
 51
107.58795377399851
  0
LINE
  5
109
  8
0
 10
927.94505664182054
 20
289.56012001393509
 30
0.0
 11
927.94505664181725
 21
285.18501416483389
 31
0.0
  0
LINE
  5
10A
  8
0
 10
924.19227989208616
 20
289.56012001393509
 30
0.0
 11
924.19227989208616
 21
285.18501416483389
 31
0.0
  0
LINE
  5
10B
  8
0
 10
924.19227989208616
 20
289.56012001393509
 30
0.0
 11
925.44783339155254
 21
290.28501416483391
 31
0.0
  0
ARC
  5
10C
  8
0
 10
926.0686682669525
 20
286.81810702458591
 30
0.0
 40
3.3225695729499738
 50
55.615752531959167
 51
115.61575253217551
  0
LINE
  5
10D
  8
0
 10
931.69783339155117
 20
290.28501416483391
 30
0.0
 11
925.44783339155265
 21
290.28501416483391
 31
0.0
  0
LINE
  5
10E
  8
0
 10
931.64732313432251
 20
285.18501416483389
 30
0.0
 11
924.19227989208616
 21
285.18501416483389
 31
0.0
  0
LINE
  5
10F
  8
0
 10
928.89783339155122
 20
259.78501416483391
 30
0.0
 11
934.49783339155113
 21
259.78501416483402
 31
0.0
  0
LINE
  5
110
  8
0
 10
935.69783339155094
 20
273.185014164834
 30
0.0
 11
935.69783339155106
 21
270.56061368521762
 31
0.0
  0
LINE
  5
111
  8
3
 10
935.02133339155137
 20
273.185014164834
 30
0.0
 11
935.02133339155137
 21
270.56061368521762
 31
0.0
  0
LINE
  5
112
  8
3
 10
928.37433339155109
 20
273.185014164834
 30
0.0
 11
928.37433339155109
 21
270.56061368521762
 31
0.0
  0
LINE
  5
113
  8
0
 10
927.69783339155094
 20
273.185014164834
 30
0.0
 11
927.69783339155106
 21
270.56061368521762
 31
0.0
  0
LINE
  5
114
  8
0
 10
927.69783339155106
 20
260.9850141648339
 30
0.0
 11
928.89783339155122
 21
259.78501416483391
 31
0.0
  0
LINE
  5
115
  8
0
 10
934.49783339155113
 20
259.78501416483402
 30
0.0
 11
935.69783339155106
 21
260.9850141648339
 31
0.0
  0
LINE
  5
116
  8
0
 10
927.69783339155106
 20
260.9850141648339
 30
0.0
 11
935.69783339155106
 21
260.9850141648339
 31
0.0
  0
LINE
  5
117
  8
0
 10
925.84783339155103
 20
285.18501416483377
 30
0.0
 11
925.84783339155103
 21
284.7850141648338
 31
0.0
  0
LINE
  5
118
  8
0
 10
940.19783339155174
 20
268.96061368521771
 30
0.0
 11
940.19783339155174
 21
270.56061368521762
 31
0.0
  0
LINE
  5
119
  8
0
 10
923.1978333915506
 20
268.96061368521771
 30
0.0
 11
940.19783339155174
 21
268.96061368521771
 31
0.0
  0
LINE
  5
11A
  8
0
 10
923.1978333915506
 20
268.96061368521771
 30
0.0
 11
923.1978333915506
 21
270.56061368521762
 31
0.0
  0
LINE
  5
11B
  8
0
 10
940.19783339155174
 20
270.56061368521762
 30
0.0
 11
923.1978333915506
 21
270.56061368521762
 31
0.0
  0
LINE
  5
11C
  8
0
 10
927.69783339155106
 20
262.46061368521771
 30
0.0
 11
927.69783339155106
 21
260.9850141648339
 31
0.0
  0
LINE
  5
11D
  8
3
 10
928.37433339155109
 20
262.46061368521771
 30
0.0
 11
928.37433339155109
 21
260.30851416483398
 31
0.0
  0
LINE
  5
11E
  8
0
 10
935.69783339155106
 20
262.46061368521771
 30
0.0
 11
935.69783339155106
 21
260.9850141648339
 31
0.0
  0
LINE
  5
11F
  8
3
 10
935.02133339155137
 20
262.46061368521771
 30
0.0
 11
935.02133339155137
 21
260.30851416483398
 31
0.0
  0
ARC
  5
120
  8
0
 10
926.06866826695182
 20
265.4937065449696
 30
0.0
 40
3.3225695729499738
 50
55.615752531959089
 51
115.61575253217551
  0
LINE
  5
121
  8
0
 10
924.19227989208548
 20
268.23571953431878
 30
0.0
 11
925.44783339155185
 21
268.96061368521771
 31
0.0
  0
LINE
  5
122
  8
0
 10
924.19227989208548
 20
268.23571953431878
 30
0.0
 11
924.19227989208548
 21
263.18550783611653
 31
0.0
  0
LINE
  5
123
  8
0
 10
927.94505664181975
 20
268.23571953431878
 30
0.0
 11
927.94505664181713
 21
263.1855078361167
 31
0.0
  0
LINE
  5
124
  8
0
 10
935.45061014128112
 20
268.23571953431878
 30
0.0
 11
935.45061014128362
 21
263.1855078361167
 31
0.0
  0
LINE
  5
125
  8
0
 10
939.20338689101538
 20
268.23571953431878
 30
0.0
 11
939.20338689101538
 21
263.18550783611653
 31
0.0
  0
LINE
  5
126
  8
0
 10
939.20338689101538
 20
268.23571953431878
 30
0.0
 11
937.94783339154912
 21
268.96061368521771
 31
0.0
  0
ARC
  5
127
  8
0
 10
931.69783339154958
 20
256.39683270152722
 30
0.0
 40
12.41944341639239
 50
72.412046225992569
 51
107.58795377399851
  0
ARC
  5
128
  8
0
 10
937.32699851614905
 20
265.4937065449696
 30
0.0
 40
3.3225695729499738
 50
64.384247467824551
 51
124.3842474680409
  0
ARC
  5
129
  8
0
 10
937.32699851614905
 20
265.92752082546571
 30
0.0
 40
3.3225695729499738
 50
235.615752531959
 51
295.61575253217552
  0
ARC
  5
12A
  8
0
 10
931.69783339154958
 20
275.02439466890809
 30
0.0
 40
12.41944341639239
 50
252.41204622600151
 51
287.58795377400747
  0
LINE
  5
12B
  8
0
 10
939.20338689101538
 20
263.18550783611653
 30
0.0
 11
937.94783339154912
 21
262.46061368521771
 31
0.0
  0
LINE
  5
12C
  8
0
 10
924.19227989208548
 20
263.18550783611653
 30
0.0
 11
925.44783339155185
 21
262.46061368521771
 31
0.0
  0
ARC
  5
12D
  8
0
 10
926.06866826695182
 20
265.92752082546571
 30
0.0
 40
3.3225695729499738
 50
244.38424746782459
 51
304.384247468041
  0
LINE
  5
12E
  8
0
 10
937.94783339155015
 20
262.46061368521771
 30
0.0
 11
925.44783339155208
 21
262.46061368521771
 31
0.0
  0
LINE
  5
12F
  8
0
 10
919.69783339155106
 20
280.68501416483389
 30
0.0
 11
919.69783339155106
 21
273.18501416483412
 31
0.0
  0
LINE
  5
130
  8
1
 10
931.69783339155117
 20
283.185014164834
 30
0.0
 11
931.69783339155163
 21
249.785014164834
 31
0.0
  0
LINE
  5
131
  8
3
 10
954.19783339155117
 20
291.185014164834
 30
0.0
 11
934.19783339155106
 21
291.185014164834
 31
0.0
  0
LINE
  5
132
  8
0
 10
338.69783339155151
 20
349.185014164834
 30
0.0
 11
924.69783339155083
 21
349.185014164834
 31
0.0
  0
LINE
  5
133
  8
0
 10
924.69783339155083
 20
317.18501416483389
 30
0.0
 11
338.69783339155151
 21
317.18501416483389
 31
0.0
  0
LINE
  5
134
  8
1
 10
191.3202860312777
 20
333.18501416483389
 30
0.0
 11
131.32028603127759
 21
333.18501416483389
 31
0.0
  0
LINE
  5
135
  8
1
 10
161.32028603127759
 20
363.18501416483389
 30
0.0
 11
161.32028603127759
 21
249.78501416483391
 31
0.0
  0
LINE
  5
136
  8
3
 10
309.19783339155123
 20
291.185014164834
 30
0.0
 11
329.19783339155123
 21
291.185014164834
 31
0.0
  0
LINE
  5
137
  8
0
 10
343.69783339155123
 20
280.68501416483389
 30
0.0
 11
343.69783339155123
 21
273.18501416483412
 31
0.0
  0
LINE
  5
138
  8
0
 10
325.44783339155208
 20
262.46061368521771
 30
0.0
 11
337.94783339155032
 21
262.46061368521771
 31
0.0
  0
ARC
  5
139
  8
0
 10
337.32699851615041
 20
265.92752082546571
 30
0.0
 40
3.3225695729499738
 50
235.615752531959
 51
295.61575253217552
  0
LINE
  5
13A
  8
0
 10
339.20338689101669
 20
263.18550783611653
 30
0.0
 11
337.94783339155049
 21
262.46061368521771
 31
0.0
  0
LINE
  5
13B
  8
0
 10
324.19227989208702
 20
263.18550783611653
 30
0.0
 11
325.44783339155322
 21
262.46061368521771
 31
0.0
  0
ARC
  5
13C
  8
0
 10
331.69783339155282
 20
275.02439466890809
 30
0.0
 40
12.41944341639239
 50
252.41204622599261
 51
287.58795377399861
  0
ARC
  5
13D
  8
0
 10
326.0686682669533
 20
265.92752082546571
 30
0.0
 40
3.3225695729499738
 50
244.38424746782451
 51
304.384247468041
  0
ARC
  5
13E
  8
0
 10
326.0686682669533
 20
265.4937065449696
 30
0.0
 40
3.3225695729499738
 50
55.615752531959039
 51
115.61575253217551
  0
ARC
  5
13F
  8
0
 10
331.69783339155282
 20
256.39683270152722
 30
0.0
 40
12.41944341639239
 50
72.412046226001479
 51
107.5879537740074
  0
LINE
  5
140
  8
0
 10
324.19227989208702
 20
268.23571953431878
 30
0.0
 11
325.44783339155322
 21
268.96061368521771
 31
0.0
  0
LINE
  5
141
  8
0
 10
324.19227989208702
 20
268.23571953431878
 30
0.0
 11
324.19227989208702
 21
263.18550783611653
 31
0.0
  0
LINE
  5
142
  8
0
 10
327.94505664182122
 20
268.23571953431878
 30
0.0
 11
327.94505664181872
 21
263.1855078361167
 31
0.0
  0
LINE
  5
143
  8
0
 10
335.45061014128248
 20
268.23571953431878
 30
0.0
 11
335.45061014128521
 21
263.1855078361167
 31
0.0
  0
LINE
  5
144
  8
0
 10
339.20338689101669
 20
268.23571953431878
 30
0.0
 11
339.20338689101669
 21
263.18550783611653
 31
0.0
  0
LINE
  5
145
  8
0
 10
339.20338689101669
 20
268.23571953431878
 30
0.0
 11
337.94783339155049
 21
268.96061368521771
 31
0.0
  0
ARC
  5
146
  8
0
 10
337.32699851615041
 20
265.4937065449696
 30
0.0
 40
3.3225695729499738
 50
64.384247467824522
 51
124.3842474680409
  0
LINE
  5
147
  8
3
 10
328.37433339155098
 20
262.46061368521771
 30
0.0
 11
328.37433339155098
 21
260.30851416483398
 31
0.0
  0
LINE
  5
148
  8
0
 10
327.69783339155123
 20
262.46061368521771
 30
0.0
 11
327.69783339155123
 21
260.9850141648339
 31
0.0
  0
LINE
  5
149
  8
3
 10
335.02133339155108
 20
262.46061368521771
 30
0.0
 11
335.02133339155108
 21
260.30851416483398
 31
0.0
  0
LINE
  5
14A
  8
0
 10
335.69783339155123
 20
262.46061368521771
 30
0.0
 11
335.69783339155123
 21
260.9850141648339
 31
0.0
  0
LINE
  5
14B
  8
0
 10
323.19783339155072
 20
270.56061368521762
 30
0.0
 11
340.19783339155163
 21
270.56061368521762
 31
0.0
  0
LINE
  5
14C
  8
0
 10
340.19783339155163
 20
268.96061368521771
 30
0.0
 11
340.19783339155163
 21
270.56061368521762
 31
0.0
  0
LINE
  5
14D
  8
0
 10
340.19783339155163
 20
268.96061368521771
 30
0.0
 11
323.19783339155072
 21
268.96061368521771
 31
0.0
  0
LINE
  5
14E
  8
0
 10
323.19783339155072
 20
268.96061368521771
 30
0.0
 11
323.19783339155072
 21
270.56061368521762
 31
0.0
  0
LINE
  5
14F
  8
0
 10
337.54783339155131
 20
285.18501416483377
 30
0.0
 11
337.54783339155131
 21
284.7850141648338
 31
0.0
  0
LINE
  5
150
  8
0
 10
335.69783339155123
 20
260.9850141648339
 30
0.0
 11
327.69783339155123
 21
260.9850141648339
 31
0.0
  0
LINE
  5
151
  8
0
 10
328.89783339155122
 20
259.78501416483402
 30
0.0
 11
327.69783339155123
 21
260.9850141648339
 31
0.0
  0
LINE
  5
152
  8
0
 10
335.69783339155123
 20
260.9850141648339
 30
0.0
 11
334.49783339155113
 21
259.78501416483391
 31
0.0
  0
LINE
  5
153
  8
0
 10
335.6978333915514
 20
273.185014164834
 30
0.0
 11
335.69783339155123
 21
270.56061368521762
 31
0.0
  0
LINE
  5
154
  8
3
 10
335.02133339155108
 20
273.185014164834
 30
0.0
 11
335.02133339155108
 21
270.56061368521762
 31
0.0
  0
LINE
  5
155
  8
3
 10
328.37433339155098
 20
273.185014164834
 30
0.0
 11
328.37433339155098
 21
270.56061368521762
 31
0.0
  0
LINE
  5
156
  8
0
 10
327.6978333915514
 20
273.185014164834
 30
0.0
 11
327.69783339155123
 21
270.56061368521762
 31
0.0
  0
LINE
  5
157
  8
0
 10
334.49783339155113
 20
259.78501416483391
 30
0.0
 11
328.89783339155122
 21
259.78501416483402
 31
0.0
  0
LINE
  5
158
  8
0
 10
331.74834364877972
 20
285.18501416483389
 30
0.0
 11
339.20338689101612
 21
285.18501416483389
 31
0.0
  0
LINE
  5
159
  8
0
 10
331.69783339155123
 20
290.28501416483391
 30
0.0
 11
337.94783339154958
 21
290.28501416483391
 31
0.0
  0
ARC
  5
15A
  8
0
 10
337.32699851614967
 20
286.81810702458591
 30
0.0
 40
3.3225695729499738
 50
64.384247467824494
 51
124.3842474680408
  0
LINE
  5
15B
  8
0
 10
339.20338689101612
 20
289.56012001393509
 30
0.0
 11
337.94783339154981
 21
290.28501416483391
 31
0.0
  0
LINE
  5
15C
  8
0
 10
339.20338689101612
 20
289.56012001393509
 30
0.0
 11
339.20338689101612
 21
285.18501416483389
 31
0.0
  0
LINE
  5
15D
  8
0
 10
335.4506101412818
 20
289.56012001393509
 30
0.0
 11
335.45061014128498
 21
285.18501416483389
 31
0.0
  0
ARC
  5
15E
  8
0
 10
331.69783339155208
 20
277.72123318114348
 30
0.0
 40
12.41944341639239
 50
72.412046226001479
 51
90.000000000004746
  0
LINE
  5
15F
  8
0
 10
340.19783339155163
 20
284.78501416483391
 30
0.0
 11
331.86545263361239
 21
284.78501416483391
 31
0.0
  0
LINE
  5
160
  8
0
 10
340.19783339155163
 20
284.78501416483391
 30
0.0
 11
340.19783339155163
 21
283.185014164834
 31
0.0
  0
LINE
  5
161
  8
0
 10
334.197833391551
 20
283.185014164834
 30
0.0
 11
341.19783339155123
 21
283.185014164834
 31
0.0
  0
LINE
  5
162
  8
0
 10
331.6978333915514
 20
333.18501416483389
 30
0.0
 11
331.697833391551
 21
285.68501416483389
 31
0.0
  0
ARC
  5
163
  8
0
 10
309.19783339155123
 20
350.68501416483389
 30
0.0
 40
2.5
 50
90.0
 51
179.99999999999989
  0
ARC
  5
164
  8
0
 10
336.1978333915514
 20
315.685014164834
 30
0.0
 40
2.5
 50
270.0
 51
0.0000000000006361
  0
ARC
  5
165
  8
0
 10
336.1978333915514
 20
350.685014164834
 30
0.0
 40
2.5
 50
359.9999999999992
 51
90.000000000000057
  0
LINE
  5
166
  8
0
 10
331.69783339155123
 20
313.18501416483389
 30
0.0
 11
336.1978333915514
 21
313.18501416483389
 31
0.0
  0
LINE
  5
167
  8
0
 10
309.19783339155123
 20
353.185014164834
 30
0.0
 11
336.1978333915514
 21
353.185014164834
 31
0.0
  0
LINE
  5
168
  8
2
 10
311.69783339155111
 20
348.18501416483389
 30
0.0
 11
311.69783339155111
 21
318.18501416483389
 31
0.0
  0
LINE
  5
169
  8
0
 10
306.69783339155123
 20
273.18501416483389
 30
0.0
 11
343.69783339155123
 21
273.18501416483412
 31
0.0
  0
LINE
  5
16A
  8
0
 10
338.6978333915514
 20
350.68501416483389
 30
0.0
 11
338.6978333915514
 21
315.685014164834
 31
0.0
  0
LINE
  5
16B
  8
0
 10
306.69783339155123
 20
350.68501416483389
 30
0.0
 11
306.69783339155123
 21
273.18501416483389
 31
0.0
  0
ARC
  5
16C
  8
0
 10
334.197833391551
 20
285.68501416483389
 30
0.0
 40
2.5
 50
179.9999999999998
 51
270.00000000000011
  0
LINE
  5
16D
  8
2
 10
338.6978333915514
 20
318.18501416483389
 30
0.0
 11
311.69783339155123
 21
318.18501416483389
 31
0.0
  0
LINE
  5
16E
  8
2
 10
338.6978333915514
 20
348.18501416483389
 30
0.0
 11
311.69783339155123
 21
348.18501416483389
 31
0.0
  0
LINE
  5
16F
  8
3
 10
336.1978333915514
 20
350.685014164834
 30
0.0
 11
336.1978333915514
 21
315.685014164834
 31
0.0
  0
LINE
  5
170
  8
3
 10
309.19783339155123
 20
350.68501416483389
 30
0.0
 11
309.19783339155123
 21
293.68501416485731
 31
0.0
  0
LINE
  5
171
  8
3
 10
309.19783339155123
 20
288.6850141648107
 30
0.0
 11
309.19783339155123
 21
275.685014164834
 31
0.0
  0
ARC
  5
172
  8
0
 10
341.19783339155123
 20
280.685014164834
 30
0.0
 40
2.5
 50
359.99999999999881
 51
90.000000000000028
  0
LINE
  5
173
  8
3
 10
341.19783339155123
 20
280.685014164834
 30
0.0
 11
341.19783339155123
 21
275.68501416483412
 31
0.0
  0
ARC
  5
174
  8
0
 10
309.19783339155128
 20
558.38334979684635
 30
0.0
 40
2.5
 50
180.0
 51
270.0
  0
ARC
  5
175
  8
0
 10
341.19783339155111
 20
558.38334979684635
 30
0.0
 40
2.5
 50
270.0
 51
0.0
  0
ARC
  5
176
  8
0
 10
341.19783339155128
 20
601.38334979684635
 30
0.0
 40
2.5
 50
359.9999999999996
 51
89.999999999999815
  0
ARC
  5
177
  8
0
 10
309.197833391551
 20
601.38334979684635
 30
0.0
 40
2.5
 50
89.999999999999915
 51
179.99999999999989
  0
LINE
  5
178
  8
0
 10
309.197833391551
 20
603.88334979684646
 30
0.0
 11
341.19783339155128
 21
603.88334979684646
 31
0.0
  0
LINE
  5
179
  8
0
 10
309.19783339155128
 20
555.88334979684635
 30
0.0
 11
341.19783339155111
 21
555.88334979684635
 31
0.0
  0
LINE
  5
17A
  8
0
 10
343.69783339155128
 20
563.88334979684669
 30
0.0
 11
343.69783339155111
 21
558.38334979684635
 31
0.0
  0
LINE
  5
17B
  8
3
 10
336.19783339155128
 20
597.38334979684714
 30
0.0
 11
336.19783339155128
 21
562.38334979684691
 31
0.0
  0
ARC
  5
17C
  8
0
 10
336.19783339155128
 20
597.38334979684714
 30
0.0
 40
2.5
 50
359.9999999999992
 51
90.000000000000057
  0
LINE
  5
17D
  8
0
 10
331.69783339155111
 20
599.88334979684691
 30
0.0
 11
336.19783339155128
 21
599.88334979684691
 31
0.0
  0
LINE
  5
17E
  8
0
 10
331.69783339155111
 20
559.88334979684691
 30
0.0
 11
336.19783339155128
 21
559.88334979684691
 31
0.0
  0
ARC
  5
17F
  8
0
 10
336.19783339155128
 20
562.38334979684691
 30
0.0
 40
2.5
 50
270.0
 51
0.0000000000006361
  0
LINE
  5
180
  8
0
 10
343.69783339155128
 20
601.38334979684635
 30
0.0
 11
343.69783339155123
 21
595.88334979684691
 31
0.0
  0
LINE
  5
181
  8
0
 10
306.69783339155111
 20
601.38334979684635
 30
0.0
 11
306.69783339155128
 21
558.38334979684635
 31
0.0
  0
LINE
  5
182
  8
0
 10
338.69783339155111
 20
597.38335519164355
 30
0.0
 11
338.69783339155111
 21
562.38334979684691
 31
0.0
  0
LINE
  5
183
  8
0
 10
331.69783339155128
 20
603.65041105385114
 30
0.0
 11
331.69783339155111
 21
599.88334979684691
 31
0.0
  0
LINE
  5
184
  8
3
 10
309.197833391551
 20
601.38334979684635
 30
0.0
 11
309.19783339155128
 21
558.38334979684635
 31
0.0
  0
POLYLINE
  5
185
  8
0
 66
     1
 10
0.0
 20
0.0
 30
0.0
  0
VERTEX
  5
186
  8
0
 10
331.69783339155128
 20
603.65041105385114
 30
0.0
  0
VERTEX
  5
187
  8
0
 10
331.74248049387239
 20
603.70621696708406
 30
0.0
 42
-0.0320998587185313
  0
VERTEX
  5
188
  8
0
 10
332.4300664385849
 20
603.81512361862428
 30
0.0
 42
-0.013583796483866
 70
     2
 50
5.3231935036631777
  0
VERTEX
  5
189
  8
0
 10
333.16322725840251
 20
603.86339214455143
 30
0.0
 42
-0.0096441512384939
  0
VERTEX
  5
18A
  8
0
 10
334.197833391551
 20
603.88334979684646
 30
0.0
 42
-0.0096441512385256
  0
SEQEND
  5
18B
  8
0
  0
POLYLINE
  5
18C
  8
0
 66
     1
 10
0.0
 20
0.0
 30
0.0
  0
VERTEX
  5
18D
  8
0
 10
331.69783339155128
 20
556.11628853984269
 30
0.0
  0
VERTEX
  5
18E
  8
0
 10
331.74248049387239
 20
556.06048262660966
 30
0.0
 42
0.0320998587185313
  0
VERTEX
  5
18F
  8
0
 10
332.4300664385849
 20
555.95157597506955
 30
0.0
 42
0.013583796483866
 70
     2
 50
354.67680649633689
  0
VERTEX
  5
190
  8
0
 10
333.16322725840251
 20
555.9033074491424
 30
0.0
 42
0.0096441512384939
  0
VERTEX
  5
191
  8
0
 10
334.197833391551
 20
555.88334979684726
 30
0.0
 42
0.0096441512385256
  0
SEQEND
  5
192
  8
0
  0
LINE
  5
193
  8
0
 10
331.69783339155128
 20
556.11628853984269
 30
0.0
 11
331.69783339155111
 21
559.88334979684691
 31
0.0
  0
LINE
  5
194
  8
1
 10
331.69783339155111
 20
593.38334979684714
 30
0.0
 11
331.69783339155111
 21
566.38334979684691
 31
0.0
  0
LINE
  5
195
  8
1
 10
331.69783339155123
 20
283.185014164834
 30
0.0
 11
331.69783339155072
 21
249.785014164834
 31
0.0
  0
TEXT
  5
2D0
  8
0
 62
     3
 10
0.0
 20
0.0
 30
0.0
 40
10.0
  1
MH7-600BP
  7
STANDARD1
  0
ENDSEC
  0
EOF
