  0
SECTION
  2
HEADER
  9
$ACADVER
  1
AC1009
  9
$INSBASE
 10
0.0
 20
0.0
 30
0.0
  9
$EXTMIN
 10
0.0
 20
-2.960436562073669
 30
0.0
  9
$EXTMAX
 10
529.73344500000007
 20
374.77696400000002
 30
0.0
  9
$LIMMIN
 10
0.0
 20
0.0
  9
$LIMMAX
 10
750.0
 20
540.0
  9
$ORTHOMODE
 70
     1
  9
$REGENMODE
 70
     1
  9
$FILLMODE
 70
     1
  9
$QTEXTMODE
 70
     0
  9
$MIRRTEXT
 70
     0
  9
$DRAGMODE
 70
     2
  9
$LTSCALE
 40
20.0
  9
$OSMODE
 70
  3071
  9
$ATTMODE
 70
     1
  9
$TEXTSIZE
 40
8.0
  9
$TRACEWID
 40
0.05
  9
$TEXTSTYLE
  7
STANDARD
  9
$CLAYER
  8
0
  9
$CELTYPE
  6
BYLAYER
  9
$CECOLOR
 62
   256
  9
$DIMSCALE
 40
2.0
  9
$DIMASZ
 40
3.0
  9
$DIMEXO
 40
2.0
  9
$DIMDLI
 40
0.38
  9
$DIMRND
 40
0.0
  9
$DIMDLE
 40
0.0
  9
$DIMEXE
 40
2.0
  9
$DIMTP
 40
0.0
  9
$DIMTM
 40
0.0
  9
$DIMTXT
 40
3.2000000000000002
  9
$DIMCEN
 40
0.0
  9
$DIMTSZ
 40
0.0
  9
$DIMTOL
 70
     0
  9
$DIMLIM
 70
     0
  9
$DIMTIH
 70
     0
  9
$DIMTOH
 70
     0
  9
$DIMSE1
 70
     0
  9
$DIMSE2
 70
     0
  9
$DIMTAD
 70
     1
  9
$DIMZIN
 70
     0
  9
$DIMBLK
  1

  9
$DIMASO
 70
     1
  9
$DIMSHO
 70
     0
  9
$DIMPOST
  1

  9
$DIMAPOST
  1

  9
$DIMALT
 70
     0
  9
$DIMALTD
 70
     2
  9
$DIMALTF
 40
25.399999999999999
  9
$DIMLFAC
 40
1.0
  9
$DIMTOFL
 70
     0
  9
$DIMTVP
 40
1.6000000000000001
  9
$DIMTIX
 70
     1
  9
$DIMSOXD
 70
     0
  9
$DIMSAH
 70
     0
  9
$DIMBLK1
  1

  9
$DIMBLK2
  1

  9
$DIMSTYLE
  2
STANDARD
  9
$DIMCLRD
 70
     0
  9
$DIMCLRE
 70
     0
  9
$DIMCLRT
 70
     0
  9
$DIMTFAC
 40
1.0
  9
$DIMGAP
 40
0.09
  9
$LUNITS
 70
     2
  9
$LUPREC
 70
     1
  9
$SKETCHINC
 40
0.1
  9
$FILLETRAD
 40
1.0
  9
$AUNITS
 70
     0
  9
$AUPREC
 70
     0
  9
$MENU
  1
E:\r13\win\SUPPORT\ACAD
  9
$ELEVATION
 40
0.0
  9
$PELEVATION
 40
0.0
  9
$THICKNESS
 40
0.0
  9
$LIMCHECK
 70
     0
  9
$BLIPMODE
 70
     0
  9
$CHAMFERA
 40
0.0
  9
$CHAMFERB
 40
0.0
  9
$SKPOLY
 70
     0
  9
$TDCREATE
 40
2450716.4172785878
  9
$TDUPDATE
 40
2456597.654781308
  9
$TDINDWG
 40
0.0002815394
  9
$TDUSRTIMER
 40
0.0002815394
  9
$USRTIMER
 70
     1
  9
$ANGBASE
 50
0.0
  9
$ANGDIR
 70
     0
  9
$PDMODE
 70
     0
  9
$PDSIZE
 40
0.0
  9
$PLINEWID
 40
0.0
  9
$COORDS
 70
     1
  9
$SPLFRAME
 70
     0
  9
$SPLINETYPE
 70
     6
  9
$SPLINESEGS
 70
     8
  9
$ATTDIA
 70
     0
  9
$ATTREQ
 70
     1
  9
$HANDLING
 70
     1
  9
$HANDSEED
  5
2D8
  9
$SURFTAB1
 70
     6
  9
$SURFTAB2
 70
     6
  9
$SURFTYPE
 70
     6
  9
$SURFU
 70
     6
  9
$SURFV
 70
     6
  9
$UCSNAME
  2

  9
$UCSORG
 10
0.0
 20
0.0
 30
0.0
  9
$UCSXDIR
 10
1.0
 20
0.0
 30
0.0
  9
$UCSYDIR
 10
0.0
 20
1.0
 30
0.0
  9
$PUCSNAME
  2

  9
$PUCSORG
 10
0.0
 20
0.0
 30
0.0
  9
$PUCSXDIR
 10
1.0
 20
0.0
 30
0.0
  9
$PUCSYDIR
 10
0.0
 20
1.0
 30
0.0
  9
$USERI1
 70
     0
  9
$USERI2
 70
     1
  9
$USERI3
 70
     1
  9
$USERI4
 70
     0
  9
$USERI5
 70
     0
  9
$USERR1
 40
0.0
  9
$USERR2
 40
0.0
  9
$USERR3
 40
0.0
  9
$USERR4
 40
0.0
  9
$USERR5
 40
0.0
  9
$WORLDVIEW
 70
     1
  9
$SHADEDGE
 70
     3
  9
$SHADEDIF
 70
    70
  9
$TILEMODE
 70
     1
  9
$MAXACTVP
 70
    16
  9
$PLIMCHECK
 70
     0
  9
$PEXTMIN
 10
1.0000000000000000E+020
 20
1.0000000000000000E+020
 30
1.0000000000000000E+020
  9
$PEXTMAX
 10
-1.0000000000000000E+020
 20
-1.0000000000000000E+020
 30
-1.0000000000000000E+020
  9
$PLIMMIN
 10
0.0
 20
0.0
  9
$PLIMMAX
 10
12.0
 20
9.0
  9
$UNITMODE
 70
     0
  9
$VISRETAIN
 70
     0
  9
$PLINEGEN
 70
     1
  9
$PSLTSCALE
 70
     0
  0
ENDSEC
  0
SECTION
  2
TABLES
  0
TABLE
  2
VPORT
 70
     1
  0
VPORT
  2
*ACTIVE
 70
     0
 10
0.0
 20
0.0
 11
1.0
 21
1.0
 12
374.98855678130462
 22
269.68405869568772
 13
0.0
 23
0.0
 14
20.0
 24
20.0
 15
20.0
 25
20.0
 16
0.0
 26
0.0
 36
1.0
 17
0.0
 27
0.0
 37
0.0
 40
551.57487251346481
 41
2.304913294797688
 42
50.0
 43
0.0
 44
0.0
 50
0.0
 51
0.0
 71
     0
 72
   100
 73
     1
 74
     0
 75
     0
 76
     0
 77
     0
 78
     2
  0
ENDTAB
  0
TABLE
  2
LTYPE
 70
     4
  0
LTYPE
  2
CONTINUOUS
 70
     0
  3
Solid Line
 72
    65
 73
     0
 40
0.0
  0
LTYPE
  2
CENTER
 70
     0
  3
____ _ ____ _ ____ _ ____ _ ____ _ ____ _ ____
 72
    65
 73
     4
 40
2.0
 49
1.25
 49
-0.25
 49
0.25
 49
-0.25
  0
LTYPE
  2
HIDDEN
 70
     0
  3
_ _ _ _ _ _ _ _ _ _ _ _ _ _ _ _ _ _ _ _ _ _ _
 72
    65
 73
     2
 40
0.375
 49
0.25
 49
-0.125
  0
LTYPE
  2
PHANTOM2
 70
     0
  3
___ _ _ ___ _ _ ___ _ _ ___ _ _
 72
    65
 73
     6
 40
1.25
 49
0.625
 49
-0.125
 49
0.125
 49
-0.125
 49
0.125
 49
-0.125
  0
ENDTAB
  0
TABLE
  2
LAYER
 70
     1
  0
LAYER
  2
0
 70
     0
 62
     7
  6
CONTINUOUS
  0
ENDTAB
  0
TABLE
  2
STYLE
 70
     2
  0
STYLE
  2
STANDARD
 70
     0
 40
0.0
 41
1.0
 50
0.0
 71
     0
 42
8.0
  3
SIMPLEX
  4
BIGFONT
  0
STYLE
  2
STANDARD1
 70
     0
 40
0.0
 41
1.0
 50
0.0
 71
     0
 42
3.0
  3
txt
  4

  0
ENDTAB
  0
TABLE
  2
VIEW
 70
     1
  0
VIEW
  2
ALL
 70
     0
 40
540.0
 10
441.5719059999999
 20
270.0
 41
883.14381300000025
 11
0.0
 21
0.0
 31
1.0
 12
0.0
 22
0.0
 32
0.0
 42
0.0
 43
0.0
 44
0.0
 50
0.0
 71
     0
  0
ENDTAB
  0
TABLE
  2
UCS
 70
     0
  0
ENDTAB
  0
TABLE
  2
APPID
 70
     3
  0
APPID
  2
ACAD
 70
     0
  0
APPID
  2
ACAD_MLEADERVER
 70
     0
  0
APPID
  2
ACAD_NAV_VCDISPLAY
 70
     0
  0
ENDTAB
  0
TABLE
  2
DIMSTYLE
 70
     1
  0
DIMSTYLE
  2
STANDARD
 70
     0
  3

  4

  5

  6

  7

 40
1.0
 41
0.18
 42
0.0625
 43
0.38
 44
0.18
 45
0.0
 46
0.0
 47
0.0
 48
0.0
140
0.18
141
0.09
142
0.0
143
25.399999999999999
144
1.0
145
0.0
146
1.0
147
0.09
 71
     0
 72
     0
 73
     1
 74
     1
 75
     0
 76
     0
 77
     0
 78
     0
170
     0
171
     2
172
     0
173
     0
174
     0
175
     0
176
     0
177
     0
178
     0
  0
ENDTAB
  0
ENDSEC
  0
SECTION
  2
BLOCKS
  0
BLOCK
  8
0
  2
$MODEL_SPACE
 70
     0
 10
0.0
 20
0.0
 30
0.0
  3
$MODEL_SPACE
  1

  0
ENDBLK
  5
162
  8
0
  0
BLOCK
 67
     1
  8
0
  2
$PAPER_SPACE
 70
     0
 10
0.0
 20
0.0
 30
0.0
  3
$PAPER_SPACE
  1

  0
ENDBLK
  5
160
 67
     1
  8
0
  0
ENDSEC
  0
SECTION
  2
ENTITIES
  0
LINE
  5
29
  8
0
  6
CENTER
 62
     1
 10
315.73344500000002
 20
238.62059300000001
 30
0.0
 11
499.73344500000002
 21
238.62059300000001
 31
0.0
  0
LINE
  5
2A
  8
0
  6
CONTINUOUS
 62
     7
 10
191.68659099999999
 20
196.62059300000001
 30
0.0
 11
165.68659099999999
 21
196.62059300000001
 31
0.0
  0
LINE
  5
2B
  8
0
  6
CENTER
 62
     1
 10
178.68659099999999
 20
180.02059299999999
 30
0.0
 11
178.68659099999999
 21
261.62059299999999
 31
0.0
  0
LINE
  5
2C
  8
0
  6
CENTER
 62
     1
 10
285.73344500000002
 20
357.77696400000002
 30
0.0
 11
529.73344500000007
 21
357.77696400000002
 31
0.0
  0
LINE
  5
2D
  8
0
  6
CONTINUOUS
 62
     7
 10
295.73344500000002
 20
370.77696400000002
 30
0.0
 11
348.73344500000002
 21
370.77696400000002
 31
0.0
  0
LINE
  5
2E
  8
0
  6
CONTINUOUS
 62
     7
 10
295.73344500000002
 20
344.77696400000002
 30
0.0
 11
295.73344500000002
 21
370.77696400000002
 31
0.0
  0
LINE
  5
2F
  8
0
  6
CONTINUOUS
 62
     7
 10
295.73344500000002
 20
344.77696400000002
 30
0.0
 11
348.73344500000002
 21
344.77696400000002
 31
0.0
  0
LINE
  5
30
  8
0
  6
CENTER
 62
     1
 10
507.73344500000002
 20
227.62059300000001
 30
0.0
 11
507.73344500000002
 21
180.02059299999999
 31
0.0
  0
LINE
  5
31
  8
0
  6
CONTINUOUS
 62
     7
 10
481.45673399999993
 20
251.62059300000001
 30
0.0
 11
464.73344500000002
 21
251.62059300000001
 31
0.0
  0
LINE
  5
32
  8
0
  6
CONTINUOUS
 62
     7
 10
519.73344499999996
 20
196.62059300000001
 30
0.0
 11
474.73344500000002
 21
196.62059300000001
 31
0.0
  0
LINE
  5
33
  8
0
  6
CONTINUOUS
 62
     7
 10
519.73344499999996
 20
344.77696400000002
 30
0.0
 11
466.73344500000002
 21
344.77696400000002
 31
0.0
  0
LINE
  5
34
  8
0
  6
CONTINUOUS
 62
     7
 10
519.73344499999996
 20
344.77696400000002
 30
0.0
 11
519.73344499999996
 21
370.77696400000002
 31
0.0
  0
LINE
  5
35
  8
0
  6
CONTINUOUS
 62
     7
 10
519.73344499999996
 20
370.77696400000002
 30
0.0
 11
466.73344500000002
 21
370.77696400000002
 31
0.0
  0
LINE
  5
36
  8
0
  6
CONTINUOUS
 62
     7
 10
474.73344500000002
 20
206.62059300000001
 30
0.0
 11
474.73344500000002
 21
196.62059300000001
 31
0.0
  0
LINE
  5
37
  8
0
  6
CONTINUOUS
 62
     7
 10
519.73344499999996
 20
196.62059300000001
 30
0.0
 11
519.73344499999996
 21
206.62059300000001
 31
0.0
  0
LINE
  5
38
  8
0
  6
CONTINUOUS
 62
     7
 10
519.73344499999996
 20
206.62059300000001
 30
0.0
 11
492.10570999999987
 21
246.07708700000001
 31
0.0
  0
LINE
  5
39
  8
0
  6
CONTINUOUS
 62
     7
 10
474.73344500000002
 20
206.62059300000001
 30
0.0
 11
468.29697999999991
 21
224.304633
 31
0.0
  0
LINE
  5
3A
  8
0
  6
CONTINUOUS
 62
     7
 10
464.73344500000002
 20
251.62059300000001
 30
0.0
 11
464.73344500000002
 21
225.62059300000001
 31
0.0
  0
LINE
  5
3B
  8
0
  6
CONTINUOUS
 62
     7
 10
464.73344500000002
 20
225.62059300000001
 30
0.0
 11
466.41759499999989
 21
225.62059300000001
 31
0.0
  0
ARC
  5
3C
  8
0
  6
CONTINUOUS
 62
     7
 10
466.41759499999989
 20
223.62059300000001
 30
0.0
 40
2.0
 50
20.0
 51
90.0
  0
ARC
  5
3D
  8
0
  6
CONTINUOUS
 62
     7
 10
481.45673399999993
 20
238.62059300000001
 30
0.0
 40
13.0
 50
35.0
 51
90.0
  0
LINE
  5
3E
  8
0
  6
CENTER
 62
     1
 10
307.73344500000002
 20
227.62059300000001
 30
0.0
 11
307.73344500000002
 21
180.02059299999999
 31
0.0
  0
LINE
  5
3F
  8
0
  6
CONTINUOUS
 62
     7
 10
350.73344500000002
 20
249.62059300000001
 30
0.0
 11
464.73344500000002
 21
249.62059300000001
 31
0.0
  0
LINE
  5
40
  8
0
  6
CONTINUOUS
 62
     7
 10
350.73344500000002
 20
227.62059300000001
 30
0.0
 11
464.73344500000002
 21
227.62059300000001
 31
0.0
  0
LINE
  5
41
  8
0
  6
CONTINUOUS
 62
     7
 10
350.73344500000002
 20
368.77696400000002
 30
0.0
 11
464.73344500000002
 21
368.77696400000002
 31
0.0
  0
LINE
  5
42
  8
0
  6
CONTINUOUS
 62
     7
 10
350.73344500000002
 20
346.77696400000002
 30
0.0
 11
464.73344500000002
 21
346.77696400000002
 31
0.0
  0
LINE
  5
43
  8
0
  6
CONTINUOUS
 62
     7
 10
350.73344500000002
 20
346.77696400000002
 30
0.0
 11
350.73344500000002
 21
368.77696400000002
 31
0.0
  0
LINE
  5
44
  8
0
  6
CONTINUOUS
 62
     7
 10
464.73344500000002
 20
346.77696400000002
 30
0.0
 11
464.73344500000002
 21
368.77696400000002
 31
0.0
  0
ARC
  5
45
  8
0
  6
CONTINUOUS
 62
     7
 10
348.73344500000002
 20
368.77696400000002
 30
0.0
 40
2.0
 50
360.0
 51
90.0
  0
ARC
  5
46
  8
0
  6
CONTINUOUS
 62
     7
 10
348.73344500000002
 20
346.77696400000002
 30
0.0
 40
2.0
 50
270.0
 51
360.0
  0
ARC
  5
47
  8
0
  6
CONTINUOUS
 62
     7
 10
466.73344500000002
 20
368.77696400000002
 30
0.0
 40
2.0
 50
90.0
 51
180.0
  0
ARC
  5
48
  8
0
  6
CONTINUOUS
 62
     7
 10
466.73344500000002
 20
346.77696400000002
 30
0.0
 40
2.0
 50
180.0
 51
270.0
  0
ARC
  5
49
  8
0
  6
CONTINUOUS
 62
     7
 10
313.40847300000001
 20
357.77696400000002
 30
0.0
 40
13.834311
 50
290.0
 51
70.0
  0
LINE
  5
4A
  8
0
  6
CONTINUOUS
 62
     7
 10
295.73344500000002
 20
366.77696400000002
 30
0.0
 11
307.73344500000002
 21
366.77696400000002
 31
0.0
  0
LINE
  5
4B
  8
0
  6
CONTINUOUS
 62
     7
 10
295.73344500000002
 20
348.77696400000002
 30
0.0
 11
307.73344500000002
 21
348.77696400000002
 31
0.0
  0
CIRCLE
  5
4C
  8
0
  6
CONTINUOUS
 62
     7
 10
307.73344500000002
 20
357.77696400000002
 30
0.0
 40
7.0
  0
LINE
  5
4D
  8
0
  6
CONTINUOUS
 62
     7
 10
305.23344500000002
 20
359.22034000000002
 30
0.0
 11
305.23344500000002
 21
356.33358800000002
 31
0.0
  0
LINE
  5
4E
  8
0
  6
CONTINUOUS
 62
     7
 10
307.73344500000002
 20
360.66371500000002
 30
0.0
 11
305.23344500000002
 21
359.22034000000002
 31
0.0
  0
LINE
  5
4F
  8
0
  6
CONTINUOUS
 62
     7
 10
310.23344500000002
 20
359.22034000000002
 30
0.0
 11
307.73344500000002
 21
360.66371500000002
 31
0.0
  0
LINE
  5
50
  8
0
  6
CONTINUOUS
 62
     7
 10
310.23344500000002
 20
356.33358800000002
 30
0.0
 11
310.23344500000002
 21
359.22034000000002
 31
0.0
  0
LINE
  5
51
  8
0
  6
CONTINUOUS
 62
     7
 10
307.73344500000002
 20
354.89021300000002
 30
0.0
 11
310.23344500000002
 21
356.33358800000002
 31
0.0
  0
LINE
  5
52
  8
0
  6
CONTINUOUS
 62
     7
 10
305.23344500000002
 20
356.33358800000002
 30
0.0
 11
307.73344500000002
 21
354.89021300000002
 31
0.0
  0
LINE
  5
53
  8
0
  6
CENTER
 62
     1
 10
307.73344500000002
 20
374.77696400000002
 30
0.0
 11
307.73344500000002
 21
340.77696400000002
 31
0.0
  0
LINE
  5
54
  8
0
  6
CONTINUOUS
 62
     7
 10
510.2334449999999
 20
356.33358800000002
 30
0.0
 11
507.73344500000002
 21
354.89021300000002
 31
0.0
  0
LINE
  5
55
  8
0
  6
CONTINUOUS
 62
     7
 10
507.73344500000002
 20
354.89021300000002
 30
0.0
 11
505.23344500000002
 21
356.33358800000002
 31
0.0
  0
LINE
  5
56
  8
0
  6
CONTINUOUS
 62
     7
 10
505.23344500000002
 20
356.33358800000002
 30
0.0
 11
505.23344500000002
 21
359.22034000000002
 31
0.0
  0
LINE
  5
57
  8
0
  6
CONTINUOUS
 62
     7
 10
505.23344500000002
 20
359.22034000000002
 30
0.0
 11
507.73344500000002
 21
360.66371500000002
 31
0.0
  0
LINE
  5
58
  8
0
  6
CONTINUOUS
 62
     7
 10
507.73344500000002
 20
360.66371500000002
 30
0.0
 11
510.2334449999999
 21
359.22034000000002
 31
0.0
  0
LINE
  5
59
  8
0
  6
CONTINUOUS
 62
     7
 10
510.2334449999999
 20
359.22034000000002
 30
0.0
 11
510.2334449999999
 21
356.33358800000002
 31
0.0
  0
CIRCLE
  5
5A
  8
0
  6
CONTINUOUS
 62
     7
 10
507.73344500000002
 20
357.77696400000002
 30
0.0
 40
7.0
  0
ARC
  5
5B
  8
0
  6
CONTINUOUS
 62
     7
 10
507.73344500000002
 20
357.77696400000002
 30
0.0
 40
9.0
 50
90.0
 51
270.0
  0
LINE
  5
5C
  8
0
  6
CONTINUOUS
 62
     7
 10
519.73344499999996
 20
348.77696400000002
 30
0.0
 11
507.73344500000002
 21
348.77696400000002
 31
0.0
  0
LINE
  5
5D
  8
0
  6
CONTINUOUS
 62
     7
 10
519.73344499999996
 20
366.77696400000002
 30
0.0
 11
507.73344500000002
 21
366.77696400000002
 31
0.0
  0
LINE
  5
5E
  8
0
  6
CENTER
 62
     1
 10
507.73344500000002
 20
374.77696400000002
 30
0.0
 11
507.73344500000002
 21
340.77696400000002
 31
0.0
  0
ARC
  5
5F
  8
0
  6
CONTINUOUS
 62
     7
 10
502.05841600000002
 20
357.77696400000002
 30
0.0
 40
13.834311
 50
110.0
 51
250.0
  0
ARC
  5
60
  8
0
  6
CONTINUOUS
 62
     7
 10
178.68659099999999
 20
238.62059300000001
 30
0.0
 40
13.0
 50
0.0
 51
180.0
  0
LINE
  5
61
  8
0
  6
CONTINUOUS
 62
     7
 10
191.68659099999999
 20
238.62059300000001
 30
0.0
 11
191.68659099999999
 21
196.62059300000001
 31
0.0
  0
LINE
  5
62
  8
0
  6
CONTINUOUS
 62
     7
 10
165.68659099999999
 20
238.62059300000001
 30
0.0
 11
165.68659099999999
 21
196.62059300000001
 31
0.0
  0
LINE
  5
63
  8
0
  6
CENTER
 62
     1
 10
201.68659099999999
 20
238.62059300000001
 30
0.0
 11
155.68659099999999
 21
238.62059300000001
 31
0.0
  0
CIRCLE
  5
64
  8
0
  6
HIDDEN
 62
     2
 10
178.68659099999999
 20
238.62059300000001
 30
0.0
 40
10.0
  0
LINE
  5
65
  8
0
  6
CONTINUOUS
 62
     7
 10
186.68659099999999
 20
206.62059300000001
 30
0.0
 11
170.68659099999999
 21
206.62059300000001
 31
0.0
  0
LINE
  5
66
  8
0
  6
CONTINUOUS
 62
     7
 10
187.68659099999999
 20
223.75836899999999
 30
0.0
 11
187.68659099999999
 21
207.62059300000001
 31
0.0
  0
LINE
  5
67
  8
0
  6
CONTINUOUS
 62
     7
 10
169.68659099999999
 20
223.75836899999999
 30
0.0
 11
169.68659099999999
 21
207.62059300000001
 31
0.0
  0
POLYLINE
  5
68
  8
0
  6
CONTINUOUS
 62
     7
 66
     1
 10
0.0
 20
0.0
 30
0.0
  0
VERTEX
  5
69
  8
0
  6
CONTINUOUS
 62
     7
 10
187.68659099999999
 20
223.75836899999999
 30
0.0
 42
0.07069
  0
VERTEX
  5
6A
  8
0
  6
CONTINUOUS
 62
     7
 10
186.96253899999999
 20
228.85410100000001
 30
0.0
 42
0.082329
  0
VERTEX
  5
6B
  8
0
  6
CONTINUOUS
 62
     7
 10
185.05055200000001
 20
232.847047
 30
0.0
 42
0.106839
 70
     2
 50
125.0
  0
VERTEX
  5
6C
  8
0
  6
CONTINUOUS
 62
     7
 10
181.949702
 20
235.718807
 30
0.0
 42
0.134347
 50
125.0
  0
VERTEX
  5
6D
  8
0
  6
CONTINUOUS
 62
     7
 10
178.68659099999999
 20
236.61170100000001
 30
0.0
 42
0.134347
  0
VERTEX
  5
6E
  8
0
  6
CONTINUOUS
 62
     7
 10
175.42348000000001
 20
235.718807
 30
0.0
 42
0.106839
  0
VERTEX
  5
6F
  8
0
  6
CONTINUOUS
 62
     7
 10
172.32263
 20
232.847047
 30
0.0
 42
0.082329
 70
     2
 50
235.0
  0
VERTEX
  5
70
  8
0
  6
CONTINUOUS
 62
     7
 10
170.41064299999999
 20
228.85410100000001
 30
0.0
 42
0.07069
 50
235.0
  0
VERTEX
  5
71
  8
0
  6
CONTINUOUS
 62
     7
 10
169.68659099999999
 20
223.75836899999999
 30
0.0
 42
0.07069
  0
SEQEND
  5
72
  8
0
  6
CONTINUOUS
 62
     7
  0
POLYLINE
  5
73
  8
0
  6
CONTINUOUS
 62
     7
 66
     1
 10
0.0
 20
0.0
 30
0.0
  0
VERTEX
  5
74
  8
0
  6
CONTINUOUS
 62
     7
 10
307.73344500000002
 20
348.77696400000002
 30
0.0
 42
0.098491
  0
VERTEX
  5
75
  8
0
  6
CONTINUOUS
 62
     7
 10
311.17759599999999
 20
349.46204799999998
 30
0.0
 42
0.098491
  0
VERTEX
  5
76
  8
0
  6
CONTINUOUS
 62
     7
 10
314.09740599999998
 20
351.413003
 30
0.0
 42
0.098491
 70
     2
 50
45.0
  0
VERTEX
  5
77
  8
0
  6
CONTINUOUS
 62
     7
 10
316.04836
 20
354.33281299999999
 30
0.0
 42
0.098491
 50
45.0
  0
VERTEX
  5
78
  8
0
  6
CONTINUOUS
 62
     7
 10
316.73344500000002
 20
357.77696400000002
 30
0.0
 42
0.098491
  0
VERTEX
  5
79
  8
0
  6
CONTINUOUS
 62
     7
 10
316.04836
 20
361.221115
 30
0.0
 42
0.098491
  0
VERTEX
  5
7A
  8
0
  6
CONTINUOUS
 62
     7
 10
314.09740599999998
 20
364.14092499999998
 30
0.0
 42
0.098491
 70
     2
 50
135.0
  0
VERTEX
  5
7B
  8
0
  6
CONTINUOUS
 62
     7
 10
311.17759599999999
 20
366.09188
 30
0.0
 42
0.098491
 50
135.0
  0
VERTEX
  5
7C
  8
0
  6
CONTINUOUS
 62
     7
 10
307.73344500000002
 20
366.77696400000002
 30
0.0
 42
0.098491
  0
SEQEND
  5
7D
  8
0
  6
CONTINUOUS
 62
     7
  0
ARC
  5
7E
  8
0
  6
CONTINUOUS
 62
     7
 10
170.68659099999999
 20
207.62059300000001
 30
0.0
 40
1.0
 50
180.0
 51
270.0
  0
ARC
  5
7F
  8
0
  6
CONTINUOUS
 62
     7
 10
186.68659099999999
 20
207.62059300000001
 30
0.0
 40
1.0
 50
270.0
 51
0.0
  0
LINE
  5
80
  8
0
  6
CONTINUOUS
 62
     7
 10
188.68659099999999
 20
206.62059300000001
 30
0.0
 11
190.68659099999999
 21
206.62059300000001
 31
0.0
  0
LINE
  5
81
  8
0
  6
CONTINUOUS
 62
     7
 10
168.68659099999999
 20
206.62059300000001
 30
0.0
 11
166.68659099999999
 21
206.62059300000001
 31
0.0
  0
LINE
  5
82
  8
0
  6
CONTINUOUS
 62
     3
 10
175.363091
 20
187.9541357414638
 30
0.0
 11
175.363091
 21
186.544093
 31
0.0
  0
LINE
  5
83
  8
0
  6
CONTINUOUS
 62
     7
 10
174.68659099999999
 20
187.9541357414638
 30
0.0
 11
174.68659099999999
 21
187.22059299999989
 31
0.0
  0
LINE
  5
84
  8
0
  6
CONTINUOUS
 62
     7
 10
182.68659099999999
 20
187.9541357414638
 30
0.0
 11
182.68659099999999
 21
187.22059299999989
 31
0.0
  0
LINE
  5
85
  8
0
  6
CONTINUOUS
 62
     3
 10
182.01009099999999
 20
187.9541357414638
 30
0.0
 11
182.01009099999999
 21
186.544093
 31
0.0
  0
LINE
  5
86
  8
0
  6
CONTINUOUS
 62
     7
 10
186.68659099999999
 20
195.4541357414638
 30
0.0
 11
170.68659099999999
 21
195.4541357414638
 31
0.0
  0
LINE
  5
87
  8
0
  6
CONTINUOUS
 62
     7
 10
186.68659099999999
 20
193.9541357414638
 30
0.0
 11
170.68659099999999
 21
193.9541357414638
 31
0.0
  0
LINE
  5
88
  8
0
  6
CONTINUOUS
 62
     7
 10
186.68659099999999
 20
195.4541357414638
 30
0.0
 11
186.68659099999999
 21
193.9541357414638
 31
0.0
  0
LINE
  5
89
  8
0
  6
CONTINUOUS
 62
     7
 10
170.68659099999999
 20
195.4541357414638
 30
0.0
 11
170.68659099999999
 21
193.9541357414638
 31
0.0
  0
LINE
  5
8A
  8
0
  6
CONTINUOUS
 62
     7
 10
182.68659099999999
 20
187.22059299999989
 30
0.0
 11
174.68659099999999
 21
187.22059299999989
 31
0.0
  0
LINE
  5
8B
  8
0
  6
CONTINUOUS
 62
     7
 10
175.88659100000001
 20
186.02059299999999
 30
0.0
 11
174.68659099999999
 21
187.22059299999989
 31
0.0
  0
LINE
  5
8C
  8
0
  6
CONTINUOUS
 62
     7
 10
182.68659099999999
 20
187.22059299999989
 30
0.0
 11
181.486591
 21
186.02059299999999
 31
0.0
  0
LINE
  5
8D
  8
0
  6
CONTINUOUS
 62
     7
 10
181.486591
 20
186.02059299999999
 30
0.0
 11
175.88659100000001
 21
186.02059299999999
 31
0.0
  0
LINE
  5
8E
  8
0
  6
CONTINUOUS
 62
     3
 10
182.01009099999999
 20
196.62059300000001
 30
0.0
 11
182.01009099999999
 21
195.4541357414638
 31
0.0
  0
LINE
  5
8F
  8
0
  6
CONTINUOUS
 62
     7
 10
182.68659099999999
 20
196.62059300000001
 30
0.0
 11
182.68659099999999
 21
195.4541357414638
 31
0.0
  0
LINE
  5
90
  8
0
  6
CONTINUOUS
 62
     3
 10
175.363091
 20
196.62059300000001
 30
0.0
 11
175.363091
 21
195.4541357414638
 31
0.0
  0
LINE
  5
91
  8
0
  6
CONTINUOUS
 62
     7
 10
174.68659099999999
 20
196.62059300000001
 30
0.0
 11
174.68659099999999
 21
195.4541357414638
 31
0.0
  0
LINE
  5
92
  8
0
  6
CONTINUOUS
 62
     7
 10
185.18659099999999
 20
193.8097977414638
 30
0.0
 11
184.93659099999999
 21
193.9541357414638
 31
0.0
  0
ARC
  5
93
  8
0
  6
CONTINUOUS
 62
     7
 10
181.93659099999999
 20
184.42264574146381
 30
0.0
 40
9.3871520000000004
 50
69.743842000000001
 51
110.256158
  0
ARC
  5
94
  8
0
  6
CONTINUOUS
 62
     7
 10
181.93659099999999
 20
197.48562474146379
 30
0.0
 40
9.3871520000000004
 50
249.743842
 51
290.25615800000003
  0
LINE
  5
95
  8
0
  6
CONTINUOUS
 62
     7
 10
185.18659099999999
 20
188.09847274146381
 30
0.0
 11
184.93659099999999
 21
187.9541357414638
 31
0.0
  0
LINE
  5
96
  8
0
  6
CONTINUOUS
 62
     7
 10
185.18659099999999
 20
193.8097977414638
 30
0.0
 11
185.18659099999999
 21
188.09847274146381
 31
0.0
  0
LINE
  5
97
  8
0
  6
CONTINUOUS
 62
     7
 10
178.68659099999999
 20
193.2292417414638
 30
0.0
 11
178.68659099999999
 21
188.67902974146381
 31
0.0
  0
LINE
  5
98
  8
0
  6
CONTINUOUS
 62
     7
 10
172.18659099999999
 20
193.8097977414638
 30
0.0
 11
172.18659099999999
 21
188.09847274146381
 31
0.0
  0
LINE
  5
99
  8
0
  6
CONTINUOUS
 62
     7
 10
172.18659099999999
 20
188.09847274146381
 30
0.0
 11
172.43659099999999
 21
187.9541357414638
 31
0.0
  0
ARC
  5
9A
  8
0
  6
CONTINUOUS
 62
     7
 10
175.43659099999999
 20
197.48562474146379
 30
0.0
 40
9.3871520000000004
 50
249.743842
 51
290.25615800000003
  0
ARC
  5
9B
  8
0
  6
CONTINUOUS
 62
     7
 10
175.43659099999999
 20
184.42264574146381
 30
0.0
 40
9.3871520000000004
 50
69.743842000000001
 51
110.256158
  0
LINE
  5
9C
  8
0
  6
CONTINUOUS
 62
     7
 10
172.18659099999999
 20
193.8097977414638
 30
0.0
 11
172.43659099999999
 21
193.9541357414638
 31
0.0
  0
LINE
  5
9D
  8
0
  6
CONTINUOUS
 62
     7
 10
184.93659099999999
 20
187.9541357414638
 30
0.0
 11
172.43659099999999
 21
187.9541357414638
 31
0.0
  0
LINE
  5
9E
  8
0
  6
CONTINUOUS
 62
     3
 10
504.40994499999999
 20
187.9541357414638
 30
0.0
 11
504.40994499999999
 21
186.544093
 31
0.0
  0
LINE
  5
9F
  8
0
  6
CONTINUOUS
 62
     7
 10
503.73344500000002
 20
187.9541357414638
 30
0.0
 11
503.73344500000002
 21
187.22059299999989
 31
0.0
  0
LINE
  5
A0
  8
0
  6
CONTINUOUS
 62
     7
 10
511.73344500000002
 20
187.9541357414638
 30
0.0
 11
511.73344500000002
 21
187.22059299999989
 31
0.0
  0
LINE
  5
A1
  8
0
  6
CONTINUOUS
 62
     3
 10
511.05694499999998
 20
187.9541357414638
 30
0.0
 11
511.05694499999998
 21
186.544093
 31
0.0
  0
LINE
  5
A2
  8
0
  6
CONTINUOUS
 62
     7
 10
513.98344500000007
 20
187.9541357414638
 30
0.0
 11
501.48344500000002
 21
187.9541357414638
 31
0.0
  0
ARC
  5
A3
  8
0
  6
CONTINUOUS
 62
     7
 10
513.36260999999979
 20
190.48722874146381
 30
0.0
 40
3.3225699999999989
 50
64.384247000000002
 51
124.384247
  0
LINE
  5
A4
  8
0
  6
CONTINUOUS
 62
     7
 10
515.23899800000004
 20
193.2292417414638
 30
0.0
 11
513.98344500000007
 21
193.9541357414638
 31
0.0
  0
LINE
  5
A5
  8
0
  6
CONTINUOUS
 62
     7
 10
515.23899800000004
 20
188.67902974146381
 30
0.0
 11
513.98344500000007
 21
187.9541357414638
 31
0.0
  0
ARC
  5
A6
  8
0
  6
CONTINUOUS
 62
     7
 10
513.36260999999979
 20
191.42104274146379
 30
0.0
 40
3.3225699999999989
 50
235.61575300000001
 51
295.61575299999998
  0
LINE
  5
A7
  8
0
  6
CONTINUOUS
 62
     7
 10
515.23899800000004
 20
193.2292417414638
 30
0.0
 11
515.23899800000004
 21
188.67902974146381
 31
0.0
  0
LINE
  5
A8
  8
0
  6
CONTINUOUS
 62
     7
 10
511.486221
 20
193.2292417414638
 30
0.0
 11
511.486221
 21
188.67902974146381
 31
0.0
  0
LINE
  5
A9
  8
0
  6
CONTINUOUS
 62
     7
 10
503.98066799999992
 20
193.2292417414638
 30
0.0
 11
503.98066799999992
 21
188.67902974146381
 31
0.0
  0
LINE
  5
AA
  8
0
  6
CONTINUOUS
 62
     7
 10
500.227891
 20
193.2292417414638
 30
0.0
 11
500.227891
 21
188.67902974146381
 31
0.0
  0
ARC
  5
AB
  8
0
  6
CONTINUOUS
 62
     7
 10
507.73344500000002
 20
200.51791674146381
 30
0.0
 40
12.419442999999999
 50
252.412046
 51
287.58795400000002
  0
ARC
  5
AC
  8
0
  6
CONTINUOUS
 62
     7
 10
502.10428000000002
 20
191.42104274146379
 30
0.0
 40
3.3225699999999989
 50
244.38424699999999
 51
304.38424700000002
  0
LINE
  5
AD
  8
0
  6
CONTINUOUS
 62
     7
 10
500.227891
 20
188.67902974146381
 30
0.0
 11
501.48344500000002
 21
187.9541357414638
 31
0.0
  0
LINE
  5
AE
  8
0
  6
CONTINUOUS
 62
     7
 10
500.227891
 20
193.2292417414638
 30
0.0
 11
501.48344500000002
 21
193.9541357414638
 31
0.0
  0
ARC
  5
AF
  8
0
  6
CONTINUOUS
 62
     7
 10
507.73344500000002
 20
181.3903547414638
 30
0.0
 40
12.419442999999999
 50
72.412045999999989
 51
107.587954
  0
ARC
  5
B0
  8
0
  6
CONTINUOUS
 62
     7
 10
502.10428000000002
 20
190.48722874146381
 30
0.0
 40
3.3225699999999989
 50
55.615753000000012
 51
115.615753
  0
LINE
  5
B1
  8
0
  6
CONTINUOUS
 62
     7
 10
515.73344499999996
 20
195.4541357414638
 30
0.0
 11
499.73344500000002
 21
195.4541357414638
 31
0.0
  0
LINE
  5
B2
  8
0
  6
CONTINUOUS
 62
     7
 10
515.73344499999996
 20
193.9541357414638
 30
0.0
 11
499.73344500000002
 21
193.9541357414638
 31
0.0
  0
LINE
  5
B3
  8
0
  6
CONTINUOUS
 62
     7
 10
515.73344499999996
 20
195.4541357414638
 30
0.0
 11
515.73344499999996
 21
193.9541357414638
 31
0.0
  0
LINE
  5
B4
  8
0
  6
CONTINUOUS
 62
     7
 10
499.73344500000002
 20
195.4541357414638
 30
0.0
 11
499.73344500000002
 21
193.9541357414638
 31
0.0
  0
LINE
  5
B5
  8
0
  6
CONTINUOUS
 62
     7
 10
511.73344500000002
 20
187.22059299999989
 30
0.0
 11
503.73344500000002
 21
187.22059299999989
 31
0.0
  0
LINE
  5
B6
  8
0
  6
CONTINUOUS
 62
     7
 10
504.93344499999989
 20
186.02059299999999
 30
0.0
 11
503.73344500000002
 21
187.22059299999989
 31
0.0
  0
LINE
  5
B7
  8
0
  6
CONTINUOUS
 62
     7
 10
511.73344500000002
 20
187.22059299999989
 30
0.0
 11
510.53344499999992
 21
186.02059299999999
 31
0.0
  0
LINE
  5
B8
  8
0
  6
CONTINUOUS
 62
     7
 10
510.53344499999992
 20
186.02059299999999
 30
0.0
 11
504.93344499999989
 21
186.02059299999999
 31
0.0
  0
LINE
  5
B9
  8
0
  6
CONTINUOUS
 62
     7
 10
511.73344500000002
 20
196.62059300000001
 30
0.0
 11
511.73344500000002
 21
195.4541357414638
 31
0.0
  0
LINE
  5
BA
  8
0
  6
CONTINUOUS
 62
     3
 10
511.05694499999998
 20
196.62059300000001
 30
0.0
 11
511.05694499999998
 21
195.4541357414638
 31
0.0
  0
LINE
  5
BB
  8
0
  6
CONTINUOUS
 62
     3
 10
504.40994499999999
 20
196.62059300000001
 30
0.0
 11
504.40994499999999
 21
195.4541357414638
 31
0.0
  0
LINE
  5
BC
  8
0
  6
CONTINUOUS
 62
     7
 10
503.73344500000002
 20
196.62059300000001
 30
0.0
 11
503.73344500000002
 21
195.4541357414638
 31
0.0
  0
LINE
  5
BD
  8
0
  6
HIDDEN
 62
     2
 10
464.73344500000002
 20
248.62059300000001
 30
0.0
 11
487.73344500000002
 21
248.62059300000001
 31
0.0
  0
LINE
  5
BE
  8
0
  6
HIDDEN
 62
     2
 10
487.73344500000002
 20
228.62059300000001
 30
0.0
 11
487.73344500000002
 21
248.62059300000001
 31
0.0
  0
LINE
  5
BF
  8
0
  6
HIDDEN
 62
     2
 10
464.73344500000002
 20
228.62059300000001
 30
0.0
 11
487.73344500000002
 21
228.62059300000001
 31
0.0
  0
LINE
  5
C0
  8
0
  6
HIDDEN
 62
     2
 10
350.73344500000002
 20
228.62059300000001
 30
0.0
 11
327.73344500000002
 21
228.62059300000001
 31
0.0
  0
LINE
  5
C1
  8
0
  6
HIDDEN
 62
     2
 10
327.73344500000002
 20
228.62059300000001
 30
0.0
 11
327.73344500000002
 21
248.62059300000001
 31
0.0
  0
LINE
  5
C2
  8
0
  6
HIDDEN
 62
     2
 10
350.73344500000002
 20
248.62059300000001
 30
0.0
 11
327.73344500000002
 21
248.62059300000001
 31
0.0
  0
LINE
  5
C3
  8
0
  6
CONTINUOUS
 62
     7
 10
311.73344500000002
 20
196.62059300000001
 30
0.0
 11
311.73344500000002
 21
195.4541357414638
 31
0.0
  0
LINE
  5
C4
  8
0
  6
CONTINUOUS
 62
     3
 10
311.05694499999998
 20
196.62059300000001
 30
0.0
 11
311.05694499999998
 21
195.4541357414638
 31
0.0
  0
LINE
  5
C5
  8
0
  6
CONTINUOUS
 62
     3
 10
304.40994499999999
 20
196.62059300000001
 30
0.0
 11
304.40994499999999
 21
195.4541357414638
 31
0.0
  0
LINE
  5
C6
  8
0
  6
CONTINUOUS
 62
     7
 10
303.73344500000002
 20
196.62059300000001
 30
0.0
 11
303.73344500000002
 21
195.4541357414638
 31
0.0
  0
LINE
  5
C7
  8
0
  6
CONTINUOUS
 62
     7
 10
304.93344500000001
 20
186.02059299999999
 30
0.0
 11
310.53344499999997
 21
186.02059299999999
 31
0.0
  0
LINE
  5
C8
  8
0
  6
CONTINUOUS
 62
     7
 10
303.73344500000002
 20
187.22059299999989
 30
0.0
 11
304.93344500000001
 21
186.02059299999999
 31
0.0
  0
LINE
  5
C9
  8
0
  6
CONTINUOUS
 62
     7
 10
310.53344499999997
 20
186.02059299999999
 30
0.0
 11
311.73344500000002
 21
187.22059299999989
 31
0.0
  0
LINE
  5
CA
  8
0
  6
CONTINUOUS
 62
     7
 10
303.73344500000002
 20
187.22059299999989
 30
0.0
 11
311.73344500000002
 21
187.22059299999989
 31
0.0
  0
LINE
  5
CB
  8
0
  6
CONTINUOUS
 62
     7
 10
315.73344500000002
 20
195.4541357414638
 30
0.0
 11
315.73344500000002
 21
193.9541357414638
 31
0.0
  0
LINE
  5
CC
  8
0
  6
CONTINUOUS
 62
     7
 10
299.73344500000002
 20
195.4541357414638
 30
0.0
 11
299.73344500000002
 21
193.9541357414638
 31
0.0
  0
LINE
  5
CD
  8
0
  6
CONTINUOUS
 62
     7
 10
299.73344500000002
 20
193.9541357414638
 30
0.0
 11
315.73344500000002
 21
193.9541357414638
 31
0.0
  0
LINE
  5
CE
  8
0
  6
CONTINUOUS
 62
     7
 10
299.73344500000002
 20
195.4541357414638
 30
0.0
 11
315.73344500000002
 21
195.4541357414638
 31
0.0
  0
ARC
  5
CF
  8
0
  6
CONTINUOUS
 62
     7
 10
313.36261000000002
 20
190.48722874146381
 30
0.0
 40
3.3225699999999989
 50
64.384247000000002
 51
124.384247
  0
ARC
  5
D0
  8
0
  6
CONTINUOUS
 62
     7
 10
307.73344500000002
 20
181.3903547414638
 30
0.0
 40
12.419442999999999
 50
72.412045999999989
 51
107.587954
  0
LINE
  5
D1
  8
0
  6
CONTINUOUS
 62
     7
 10
315.23899799999998
 20
193.2292417414638
 30
0.0
 11
313.98344500000002
 21
193.9541357414638
 31
0.0
  0
LINE
  5
D2
  8
0
  6
CONTINUOUS
 62
     7
 10
315.23899799999998
 20
188.67902974146381
 30
0.0
 11
313.98344500000002
 21
187.9541357414638
 31
0.0
  0
ARC
  5
D3
  8
0
  6
CONTINUOUS
 62
     7
 10
313.36261000000002
 20
191.42104274146379
 30
0.0
 40
3.3225699999999989
 50
235.61575300000001
 51
295.61575299999998
  0
ARC
  5
D4
  8
0
  6
CONTINUOUS
 62
     7
 10
307.73344500000002
 20
200.51791674146381
 30
0.0
 40
12.419442999999999
 50
252.412046
 51
287.58795400000002
  0
LINE
  5
D5
  8
0
  6
CONTINUOUS
 62
     7
 10
315.23899799999998
 20
193.2292417414638
 30
0.0
 11
315.23899799999998
 21
188.67902974146381
 31
0.0
  0
LINE
  5
D6
  8
0
  6
CONTINUOUS
 62
     7
 10
311.486221
 20
193.2292417414638
 30
0.0
 11
311.486221
 21
188.67902974146381
 31
0.0
  0
LINE
  5
D7
  8
0
  6
CONTINUOUS
 62
     7
 10
303.98066799999998
 20
193.2292417414638
 30
0.0
 11
303.98066799999998
 21
188.67902974146381
 31
0.0
  0
LINE
  5
D8
  8
0
  6
CONTINUOUS
 62
     7
 10
300.227891
 20
193.2292417414638
 30
0.0
 11
300.227891
 21
188.67902974146381
 31
0.0
  0
ARC
  5
D9
  8
0
  6
CONTINUOUS
 62
     7
 10
302.10428000000002
 20
191.42104274146379
 30
0.0
 40
3.3225699999999989
 50
244.38424699999999
 51
304.38424700000002
  0
LINE
  5
DA
  8
0
  6
CONTINUOUS
 62
     7
 10
300.227891
 20
188.67902974146381
 30
0.0
 11
301.48344500000002
 21
187.9541357414638
 31
0.0
  0
LINE
  5
DB
  8
0
  6
CONTINUOUS
 62
     7
 10
300.227891
 20
193.2292417414638
 30
0.0
 11
301.48344500000002
 21
193.9541357414638
 31
0.0
  0
ARC
  5
DC
  8
0
  6
CONTINUOUS
 62
     7
 10
302.10428000000002
 20
190.48722874146381
 30
0.0
 40
3.3225699999999989
 50
55.615753000000012
 51
115.615753
  0
LINE
  5
DD
  8
0
  6
CONTINUOUS
 62
     7
 10
301.48344500000002
 20
187.9541357414638
 30
0.0
 11
313.98344500000002
 21
187.9541357414638
 31
0.0
  0
LINE
  5
DE
  8
0
  6
CONTINUOUS
 62
     3
 10
304.40994499999999
 20
187.9541357414638
 30
0.0
 11
304.40994499999999
 21
186.544093
 31
0.0
  0
LINE
  5
DF
  8
0
  6
CONTINUOUS
 62
     7
 10
303.73344500000002
 20
187.9541357414638
 30
0.0
 11
303.73344500000002
 21
187.22059299999989
 31
0.0
  0
LINE
  5
E0
  8
0
  6
CONTINUOUS
 62
     7
 10
311.73344500000002
 20
187.9541357414638
 30
0.0
 11
311.73344500000002
 21
187.22059299999989
 31
0.0
  0
LINE
  5
E1
  8
0
  6
CONTINUOUS
 62
     3
 10
311.05694499999998
 20
187.9541357414638
 30
0.0
 11
311.05694499999998
 21
186.544093
 31
0.0
  0
ARC
  5
E2
  8
0
  6
CONTINUOUS
 62
     7
 10
334.01015599999999
 20
238.62059300000001
 30
0.0
 40
13.0
 50
90.0
 51
145.0
  0
ARC
  5
E3
  8
0
  6
CONTINUOUS
 62
     7
 10
349.04929399999997
 20
223.62059300000001
 30
0.0
 40
2.0
 50
90.0
 51
160.0
  0
LINE
  5
E4
  8
0
  6
CONTINUOUS
 62
     7
 10
350.73344500000002
 20
225.62059300000001
 30
0.0
 11
349.04929399999997
 21
225.62059300000001
 31
0.0
  0
LINE
  5
E5
  8
0
  6
CONTINUOUS
 62
     7
 10
350.73344500000002
 20
251.62059300000001
 30
0.0
 11
350.73344500000002
 21
225.62059300000001
 31
0.0
  0
LINE
  5
E6
  8
0
  6
CONTINUOUS
 62
     7
 10
340.73344500000002
 20
206.62059300000001
 30
0.0
 11
347.1699089999999
 21
224.304633
 31
0.0
  0
LINE
  5
E7
  8
0
  6
CONTINUOUS
 62
     7
 10
295.73344500000002
 20
206.62059300000001
 30
0.0
 11
323.36117899999999
 21
246.07708700000001
 31
0.0
  0
LINE
  5
E8
  8
0
  6
CONTINUOUS
 62
     7
 10
295.73344500000002
 20
196.62059300000001
 30
0.0
 11
295.73344500000002
 21
206.62059300000001
 31
0.0
  0
LINE
  5
E9
  8
0
  6
CONTINUOUS
 62
     7
 10
340.73344500000002
 20
206.62059300000001
 30
0.0
 11
340.73344500000002
 21
196.62059300000001
 31
0.0
  0
LINE
  5
EA
  8
0
  6
CONTINUOUS
 62
     7
 10
295.73344500000002
 20
196.62059300000001
 30
0.0
 11
340.73344500000002
 21
196.62059300000001
 31
0.0
  0
LINE
  5
EB
  8
0
  6
CONTINUOUS
 62
     7
 10
334.01015599999999
 20
251.62059300000001
 30
0.0
 11
350.73344500000002
 21
251.62059300000001
 31
0.0
  0
TEXT
  5
24A
  8
0
 62
     3
 10
0.0
 20
0.0
 30
0.0
 40
10.0
  1
MH9-200BP
  7
STANDARD1
  0
ENDSEC
  0
EOF
