  0
SECTION
  2
HEADER
  9
$ACADVER
  1
AC1009
  9
$INSBASE
 10
0.0
 20
0.0
 30
0.0
  9
$EXTMIN
 10
0.0
 20
-2.960436562073669
 30
0.0
  9
$EXTMAX
 10
163.9240891201747
 20
153.6951097142603
 30
0.0
  9
$LIMMIN
 10
0.0
 20
0.0
  9
$LIMMAX
 10
187.5
 20
135.0
  9
$ORTHOMODE
 70
     1
  9
$REGENMODE
 70
     1
  9
$FILLMODE
 70
     1
  9
$QTEXTMODE
 70
     0
  9
$MIRRTEXT
 70
     0
  9
$DRAGMODE
 70
     2
  9
$LTSCALE
 40
5.0
  9
$OSMODE
 70
    37
  9
$ATTMODE
 70
     1
  9
$TEXTSIZE
 40
4.0
  9
$TRACEWID
 40
0.05
  9
$TEXTSTYLE
  7
STANDARD
  9
$CLAYER
  8
0
  9
$CELTYPE
  6
BYLAYER
  9
$CECOLOR
 62
   256
  9
$DIMSCALE
 40
0.5
  9
$DIMASZ
 40
3.0
  9
$DIMEXO
 40
2.0
  9
$DIMDLI
 40
0.38
  9
$DIMRND
 40
0.0
  9
$DIMDLE
 40
0.0
  9
$DIMEXE
 40
2.0
  9
$DIMTP
 40
0.0
  9
$DIMTM
 40
0.0
  9
$DIMTXT
 40
3.0
  9
$DIMCEN
 40
0.0
  9
$DIMTSZ
 40
0.0
  9
$DIMTOL
 70
     0
  9
$DIMLIM
 70
     0
  9
$DIMTIH
 70
     0
  9
$DIMTOH
 70
     0
  9
$DIMSE1
 70
     0
  9
$DIMSE2
 70
     0
  9
$DIMTAD
 70
     1
  9
$DIMZIN
 70
     0
  9
$DIMBLK
  1

  9
$DIMASO
 70
     0
  9
$DIMSHO
 70
     0
  9
$DIMPOST
  1

  9
$DIMAPOST
  1

  9
$DIMALT
 70
     0
  9
$DIMALTD
 70
     2
  9
$DIMALTF
 40
25.399999999999999
  9
$DIMLFAC
 40
1.0
  9
$DIMTOFL
 70
     0
  9
$DIMTVP
 40
1.6000000000000001
  9
$DIMTIX
 70
     1
  9
$DIMSOXD
 70
     0
  9
$DIMSAH
 70
     0
  9
$DIMBLK1
  1

  9
$DIMBLK2
  1

  9
$DIMSTYLE
  2
STANDARD
  9
$DIMCLRD
 70
     0
  9
$DIMCLRE
 70
     0
  9
$DIMCLRT
 70
     0
  9
$DIMTFAC
 40
1.0
  9
$DIMGAP
 40
0.09
  9
$LUNITS
 70
     2
  9
$LUPREC
 70
     4
  9
$SKETCHINC
 40
0.1
  9
$FILLETRAD
 40
3.0
  9
$AUNITS
 70
     0
  9
$AUPREC
 70
     0
  9
$MENU
  1
E:\r13\win\SUPPORT\ACAD
  9
$ELEVATION
 40
0.0
  9
$PELEVATION
 40
0.0
  9
$THICKNESS
 40
0.0
  9
$LIMCHECK
 70
     0
  9
$BLIPMODE
 70
     0
  9
$CHAMFERA
 40
0.0
  9
$CHAMFERB
 40
0.0
  9
$SKPOLY
 70
     0
  9
$TDCREATE
 40
2449840.6143865739
  9
$TDUPDATE
 40
2456805.4603772452
  9
$TDINDWG
 40
0.6383012384
  9
$TDUSRTIMER
 40
0.6383012384
  9
$USRTIMER
 70
     1
  9
$ANGBASE
 50
0.0
  9
$ANGDIR
 70
     0
  9
$PDMODE
 70
     0
  9
$PDSIZE
 40
0.0
  9
$PLINEWID
 40
0.0
  9
$COORDS
 70
     1
  9
$SPLFRAME
 70
     0
  9
$SPLINETYPE
 70
     6
  9
$SPLINESEGS
 70
     8
  9
$ATTDIA
 70
     0
  9
$ATTREQ
 70
     1
  9
$HANDLING
 70
     1
  9
$HANDSEED
  5
1621
  9
$SURFTAB1
 70
     6
  9
$SURFTAB2
 70
     6
  9
$SURFTYPE
 70
     6
  9
$SURFU
 70
     6
  9
$SURFV
 70
     6
  9
$UCSNAME
  2

  9
$UCSORG
 10
0.0
 20
0.0
 30
0.0
  9
$UCSXDIR
 10
1.0
 20
0.0
 30
0.0
  9
$UCSYDIR
 10
0.0
 20
1.0
 30
0.0
  9
$PUCSNAME
  2

  9
$PUCSORG
 10
0.0
 20
0.0
 30
0.0
  9
$PUCSXDIR
 10
1.0
 20
0.0
 30
0.0
  9
$PUCSYDIR
 10
0.0
 20
1.0
 30
0.0
  9
$USERI1
 70
     0
  9
$USERI2
 70
     1
  9
$USERI3
 70
     1
  9
$USERI4
 70
     0
  9
$USERI5
 70
     0
  9
$USERR1
 40
0.0
  9
$USERR2
 40
0.0
  9
$USERR3
 40
0.0
  9
$USERR4
 40
0.0
  9
$USERR5
 40
0.0
  9
$WORLDVIEW
 70
     1
  9
$SHADEDGE
 70
     3
  9
$SHADEDIF
 70
    70
  9
$TILEMODE
 70
     1
  9
$MAXACTVP
 70
    16
  9
$PLIMCHECK
 70
     0
  9
$PEXTMIN
 10
1.0000000000000000E+020
 20
1.0000000000000000E+020
 30
1.0000000000000000E+020
  9
$PEXTMAX
 10
-1.0000000000000000E+020
 20
-1.0000000000000000E+020
 30
-1.0000000000000000E+020
  9
$PLIMMIN
 10
0.0
 20
0.0
  9
$PLIMMAX
 10
12.0
 20
9.0
  9
$UNITMODE
 70
     0
  9
$VISRETAIN
 70
     0
  9
$PLINEGEN
 70
     0
  9
$PSLTSCALE
 70
     0
  0
ENDSEC
  0
SECTION
  2
TABLES
  0
TABLE
  2
VPORT
 70
     1
  0
VPORT
  2
*ACTIVE
 70
     0
 10
0.0
 20
0.0
 11
1.0
 21
1.0
 12
235.653889718502
 22
135.0
 13
0.0
 23
0.0
 14
5.0
 24
5.0
 15
5.0
 25
5.0
 16
0.0
 26
0.0
 36
1.0
 17
0.0
 27
0.0
 37
0.0
 40
270.1424402583549
 41
1.7454798331015291
 42
50.0
 43
0.0
 44
0.0
 50
0.0
 51
0.0
 71
     0
 72
   100
 73
     1
 74
     0
 75
     0
 76
     0
 77
     0
 78
     0
  0
ENDTAB
  0
TABLE
  2
LTYPE
 70
     3
  0
LTYPE
  2
CONTINUOUS
 70
     0
  3
Solid Line
 72
    65
 73
     0
 40
0.0
  0
LTYPE
  2
CENTER
 70
     0
  3
____ _ ____ _ ____ _ ____ _ ____ _ ____ _ ____
 72
    65
 73
     4
 40
2.0
 49
1.25
 49
-0.25
 49
0.25
 49
-0.25
  0
LTYPE
  2
PHANTOM2
 70
     0
  3
___ _ _ ___ _ _ ___ _ _ ___ _ _
 72
    65
 73
     6
 40
1.25
 49
0.625
 49
-0.125
 49
0.125
 49
-0.125
 49
0.125
 49
-0.125
  0
ENDTAB
  0
TABLE
  2
LAYER
 70
     3
  0
LAYER
  2
0
 70
     0
 62
     7
  6
CONTINUOUS
  0
LAYER
  2
1
 70
     0
 62
     1
  6
CENTER
  0
LAYER
  2
3
 70
     0
 62
     3
  6
CONTINUOUS
  0
ENDTAB
  0
TABLE
  2
STYLE
 70
     2
  0
STYLE
  2
STANDARD
 70
     0
 40
0.0
 41
1.0
 50
0.0
 71
     0
 42
4.0
  3
TXT
  4
BIGFONT
  0
STYLE
  2
STANDARD1
 70
     0
 40
0.0
 41
1.0
 50
0.0
 71
     0
 42
3.0
  3
txt
  4

  0
ENDTAB
  0
TABLE
  2
VIEW
 70
     1
  0
VIEW
  2
ALL
 70
     0
 40
179.66152299999999
 10
141.903918
 20
89.830760999999995
 41
0.0
 11
0.0
 21
0.0
 31
1.0
 12
0.0
 22
0.0
 32
0.0
 42
0.0
 43
0.0
 44
0.0
 50
0.0
 71
     0
  0
ENDTAB
  0
TABLE
  2
UCS
 70
     0
  0
ENDTAB
  0
TABLE
  2
APPID
 70
     5
  0
APPID
  2
ACAD
 70
     0
  0
APPID
  2
DCO15
 70
     0
  0
APPID
  2
ACAD_MLEADERVER
 70
     0
  0
APPID
  2
ACAD_EXEMPT_FROM_CAD_STANDARDS
 70
     0
  0
APPID
  2
ACAD_NAV_VCDISPLAY
 70
     0
  0
ENDTAB
  0
TABLE
  2
DIMSTYLE
 70
     1
  0
DIMSTYLE
  2
STANDARD
 70
     0
  3

  4

  5

  6

  7

 40
1.0
 41
0.18
 42
0.0625
 43
0.38
 44
0.18
 45
0.0
 46
0.0
 47
0.0
 48
0.0
140
0.18
141
0.09
142
0.0
143
25.399999999999999
144
1.0
145
0.0
146
1.0
147
0.09
 71
     0
 72
     0
 73
     1
 74
     1
 75
     0
 76
     0
 77
     0
 78
     0
170
     0
171
     2
172
     0
173
     0
174
     0
175
     0
176
     0
177
     0
178
     0
  0
ENDTAB
  0
ENDSEC
  0
SECTION
  2
BLOCKS
  0
BLOCK
  8
0
  2
$MODEL_SPACE
 70
     0
 10
0.0
 20
0.0
 30
0.0
  3
$MODEL_SPACE
  1

  0
ENDBLK
  5
1BD
  8
0
  0
BLOCK
 67
     1
  8
0
  2
$PAPER_SPACE
 70
     0
 10
0.0
 20
0.0
 30
0.0
  3
$PAPER_SPACE
  1

  0
ENDBLK
  5
1BB
 67
     1
  8
0
  0
ENDSEC
  0
SECTION
  2
ENTITIES
  0
TEXT
  5
137E
  8
0
 62
     3
 10
0.0
 20
0.0
 30
0.0
 40
10.0
  1
MKR5X10-RE-SUS
  7
STANDARD1
  0
LINE
  5
1469
  8
0
 10
91.924089120174685
 20
79.515109714260277
 30
0.0
 11
91.924089120174685
 21
83.515109714260277
 31
0.0
  0
LINE
  5
146A
  8
0
 10
81.924089120174685
 20
83.515109714260277
 30
0.0
 11
81.924089120174685
 21
79.515109714260277
 31
0.0
  0
LINE
  5
146B
  8
0
 10
81.924089120174685
 20
79.515109714260277
 30
0.0
 11
91.924089120174685
 21
79.515109714260277
 31
0.0
  0
LINE
  5
146C
  8
0
 10
107.6344091965686
 20
99.726761484489089
 30
0.0
 11
106.63199844142009
 21
99.779295606095857
 31
0.0
  0
LINE
  5
146D
  8
0
 10
93.414089120174694
 20
83.515109714260277
 30
0.0
 11
80.414089120174708
 21
83.515109714260277
 31
0.0
  0
LINE
  5
146E
  8
1
 10
86.924089120174685
 20
109.6951097142603
 30
0.0
 11
86.924089120174685
 21
64.515109714260277
 31
0.0
  0
CIRCLE
  5
146F
  8
0
 10
86.914089120174694
 20
32.515610611498573
 30
0.0
 40
6.5000000000000027
  0
LINE
  5
1470
  8
1
 10
86.924089120174685
 20
44.515109714260269
 30
0.0
 11
86.924089120174685
 21
20.516111508736909
 31
0.0
  0
LINE
  5
1471
  8
1
 10
74.924089120174699
 20
32.515610611498587
 30
0.0
 11
121.9240891201747
 21
32.515610611498573
 31
0.0
  0
ARC
  5
1472
  8
0
 10
134.7465767798486
 20
-43.674445226991217
 30
0.0
 40
154.48348284385381
 50
97.469471040419862
 51
109.8554732163571
  0
ARC
  5
1473
  8
0
 10
123.76132217246411
 20
42.608058691372428
 30
0.0
 40
60.0
 50
108.4332757577457
 51
117.1298324454325
  0
ARC
  5
1474
  8
0
 10
86.924089120174685
 20
96.505109714260286
 30
0.0
 40
8.0
 50
110.15731621557551
 51
119.9999999999999
  0
LINE
  5
1475
  8
0
 10
82.924089120174813
 20
103.4333129445358
 30
0.0
 11
87.582459515610537
 21
103.4333129445359
 31
0.0
  0
LINE
  5
1476
  8
0
 10
89.437175627081857
 20
104.0151097142603
 30
0.0
 11
84.167297506722605
 21
104.01510971426021
 31
0.0
  0
LINE
  5
1477
  8
1
 10
86.924089120174685
 20
153.6951097142603
 30
0.0
 11
86.924089120174685
 21
129.6951097142603
 31
0.0
  0
LINE
  5
1478
  8
1
 10
121.9240891201747
 20
141.6951097142603
 30
0.0
 11
75.414089120174694
 21
141.6951097142603
 31
0.0
  0
CIRCLE
  5
1479
  8
0
 10
87.206466992609876
 20
141.6951097142603
 30
0.0
 40
4.6971000970094821
  0
CIRCLE
  5
147A
  8
0
 10
86.924089120174685
 20
141.6951097142603
 30
0.0
 40
4.0
  0
ARC
  5
147B
  8
0
 10
85.093427214162773
 20
142.75204285849151
 30
0.0
 40
0.6912500000000005
 50
309.68887794065978
 51
16.658241772777071
  0
ARC
  5
147C
  8
0
 10
86.134089120174735
 20
143.06342985223981
 30
0.0
 40
0.3949999999999998
 50
43.341758227221113
 51
196.6582417727771
  0
ARC
  5
147D
  8
0
 10
86.924089120174756
 20
143.80897600272269
 30
0.0
 40
0.6912499999999989
 50
223.34175822722111
 51
316.65824177277892
  0
ARC
  5
147E
  8
0
 10
87.714089120174719
 20
143.06342985223981
 30
0.0
 40
0.3950000000000002
 50
343.34175822722278
 51
136.65824177277881
  0
ARC
  5
147F
  8
0
 10
85.093427214162773
 20
140.63817657002909
 30
0.0
 40
0.691250000000001
 50
343.34175822722278
 51
50.311122059331602
  0
ARC
  5
1480
  8
0
 10
86.134089120174735
 20
140.3267895762809
 30
0.0
 40
0.3950000000000001
 50
163.3417582272229
 51
316.65824177277892
  0
ARC
  5
1481
  8
0
 10
86.924089120174756
 20
139.58124342579791
 30
0.0
 40
0.6912500000000003
 50
43.341758227221113
 51
136.65824177277511
  0
ARC
  5
1482
  8
0
 10
87.714089120174719
 20
140.3267895762809
 30
0.0
 40
0.3949999999999998
 50
223.34175822722111
 51
16.658241772777071
  0
ARC
  5
1483
  8
0
 10
88.754751026186682
 20
140.63817657002909
 30
0.0
 40
0.6912500000000003
 50
129.68887794066839
 51
196.6582417727771
  0
ARC
  5
1484
  8
0
 10
88.754751026186682
 20
142.75204285849151
 30
0.0
 40
0.6912500000000011
 50
163.3417582272229
 51
230.31112205934409
  0
LINE
  5
1485
  8
0
 10
84.174089120174685
 20
141.17010971426029
 30
0.0
 11
85.534872219308795
 21
141.17010971426029
 31
0.0
  0
LINE
  5
1486
  8
0
 10
84.174089120174685
 20
142.2201097142603
 30
0.0
 11
85.534872219308681
 21
142.2201097142603
 31
0.0
  0
LINE
  5
1487
  8
0
 10
88.313306021040773
 20
142.22010971426019
 30
0.0
 11
89.674089120174699
 21
142.22010971426019
 31
0.0
  0
LINE
  5
1488
  8
0
 10
88.313306021040717
 20
141.17010971426029
 30
0.0
 11
89.674089120174699
 21
141.17010971426029
 31
0.0
  0
ARC
  5
1489
  8
0
 10
86.924089120174685
 20
141.6951097142603
 30
0.0
 40
2.7567916134521511
 50
355.97735839170292
 51
4.0226416083008427
  0
LINE
  5
148A
  8
0
 10
89.674089120174699
 20
142.22010971426019
 30
0.0
 11
89.674089120174699
 21
141.17010971426029
 31
0.0
  0
LINE
  5
148B
  8
0
 10
84.174089120174756
 20
142.2201097142603
 30
0.0
 11
84.174089120174756
 21
141.17010971426029
 31
0.0
  0
ARC
  5
148C
  8
0
 10
86.924089120174685
 20
141.6951097142603
 30
0.0
 40
2.7567916134521511
 50
10.97839132993831
 51
169.02160867006171
  0
ARC
  5
148D
  8
0
 10
86.924089120174685
 20
141.6951097142603
 30
0.0
 40
2.7567916134521511
 50
190.97839132993829
 51
349.0216086700616
  0
ARC
  5
148E
  8
0
 10
86.924089120174685
 20
141.6951097142603
 30
0.0
 40
2.7567916134521511
 50
175.9773583916959
 51
184.0226416083039
  0
ARC
  5
148F
  8
0
 10
113.4240891201747
 20
141.6951097142603
 30
0.0
 40
3.5
 50
270.0
 51
90.0
  0
LINE
  5
1490
  8
0
 10
113.4240891201747
 20
145.1951097142603
 30
0.0
 11
103.3286708905446
 21
145.54764948717991
 31
0.0
  0
ARC
  5
1491
  8
0
 10
100.06614855451841
 20
165.27975398738289
 30
0.0
 40
20.0
 50
241.1551953734398
 51
279.38839404878382
  0
ARC
  5
1492
  8
0
 10
100.06614855451841
 20
118.11046544113761
 30
0.0
 40
20.0
 50
80.611605951216163
 51
118.8448046265602
  0
LINE
  5
1493
  8
0
 10
113.4240891201747
 20
138.1951097142603
 30
0.0
 11
103.3286708905446
 21
137.84256994134051
 31
0.0
  0
LINE
  5
1494
  8
0
 10
116.9164785163582
 20
107.340798228765
 30
0.0
 11
116.6785752858638
 21
104.6215518612175
 31
0.0
  0
LINE
  5
1495
  8
0
 10
109.190184203296
 20
99.890280026816626
 30
0.0
 11
113.7290726739069
 21
101.1064715270517
 31
0.0
  0
ARC
  5
1496
  8
0
 10
86.924089120174685
 20
141.69510971426021
 30
0.0
 40
6.9999999999999867
 50
60.063458135212777
 51
299.93654186477971
  0
ARC
  5
1497
  8
0
 10
100.06614855451841
 20
56.100254884621258
 30
0.0
 40
20.0
 50
241.1551953734398
 51
279.38839404878382
  0
LINE
  5
1498
  8
0
 10
113.4240891201747
 20
29.01561061149857
 30
0.0
 11
103.3286708905446
 21
28.6630708385789
 31
0.0
  0
LINE
  5
1499
  8
0
 10
113.4240891201747
 20
36.01561061149858
 30
0.0
 11
103.3286708905446
 21
36.368150384418279
 31
0.0
  0
ARC
  5
149A
  8
0
 10
113.4240891201747
 20
32.515610611498573
 30
0.0
 40
3.5
 50
270.0
 51
90.0
  0
ARC
  5
149B
  8
0
 10
100.06614855451841
 20
8.9309663383759172
 30
0.0
 40
20.0
 50
80.611605951216163
 51
118.8448046265602
  0
ARC
  5
149C
  8
0
 10
86.924089120174685
 20
32.515610611498587
 30
0.0
 40
6.9999999999999867
 50
60.06345813521277
 51
299.93654186477971
  0
CIRCLE
  5
149D
  8
0
 10
86.924089120174685
 20
32.515610611498573
 30
0.0
 40
5.0
  0
LINE
  5
149E
  8
0
 10
32.924089120174763
 20
103.4333129445358
 30
0.0
 11
32.924089120174763
 21
102.9106848302776
 31
0.0
  0
LINE
  5
149F
  8
0
 10
39.68088073362685
 20
104.0151097142603
 30
0.0
 11
34.167297506722598
 21
104.01510971426021
 31
0.0
  0
LINE
  5
14A0
  8
0
 10
32.924089120174813
 20
103.4333129445358
 30
0.0
 11
40.924089120174578
 21
103.4333129445359
 31
0.0
  0
ARC
  5
14A1
  8
0
 10
36.924089120174699
 20
96.505109714260286
 30
0.0
 40
8.0
 50
110.15731621557551
 51
119.9999999999999
  0
LINE
  5
14A2
  8
1
 10
36.924089120174699
 20
114.5151097142603
 30
0.0
 11
36.924089120174699
 21
64.515109714260277
 31
0.0
  0
LINE
  5
14A3
  8
0
 10
43.414089120174701
 20
83.515109714260277
 30
0.0
 11
30.414089120174712
 21
83.515109714260277
 31
0.0
  0
LINE
  5
14A4
  8
0
 10
31.924089120174699
 20
79.515109714260277
 30
0.0
 11
41.924089120174692
 21
79.515109714260277
 31
0.0
  0
LINE
  5
14A5
  8
0
 10
31.924089120174699
 20
83.515109714260277
 30
0.0
 11
31.924089120174699
 21
79.515109714260277
 31
0.0
  0
LINE
  5
14A6
  8
0
 10
41.924089120174692
 20
79.515109714260277
 30
0.0
 11
41.924089120174692
 21
83.515109714260277
 31
0.0
  0
ARC
  5
14A7
  8
0
 10
36.924089120174763
 20
96.505109714260286
 30
0.0
 40
8.0
 50
60.000000000000021
 51
69.842683784424494
  0
LINE
  5
14A8
  8
0
 10
40.924089120174699
 20
103.4333129445358
 30
0.0
 11
40.924089120174699
 21
102.9415692472849
 31
0.0
  0
ARC
  5
14A9
  8
0
 10
114.9240891201747
 20
107.5151097142603
 30
0.0
 40
2.0
 50
355.00000000000102
 51
97.470773899546202
  0
ARC
  5
14AA
  8
0
 10
112.69379649349681
 20
104.970174832208
 30
0.0
 40
4.0
 50
285.00000000000119
 51
355.00000000000182
  0
ARC
  5
14AB
  8
0
 10
107.89608897778329
 20
104.7199091582619
 30
0.0
 40
5.0
 50
267.00000000000091
 51
285.00000000000119
  0
ARC
  5
14AC
  8
0
 10
106.3703186602053
 20
94.786147932323004
 30
0.0
 40
5.0
 50
87.000000000000924
 51
108.4332757577457
  0
LINE
  5
14AD
  8
0
 10
82.924089120174813
 20
103.4333129445358
 30
0.0
 11
82.924089120174813
 21
101.85760019370041
 31
0.0
  0
LINE
  5
14AE
  8
0
 10
29.924089120174699
 20
99.633601580097789
 30
0.0
 11
30.414089120174712
 21
83.515109714260277
 31
0.0
  0
ARC
  5
14AF
  8
0
 10
33.423007551502572
 20
99.7206062404004
 30
0.0
 40
3.5
 50
98.195322102675235
 51
181.42443239553509
  0
ARC
  5
14B0
  8
0
 10
40.42517068884689
 20
99.7206062404004
 30
0.0
 40
3.5
 50
358.57556760446482
 51
81.804677897324765
  0
LINE
  5
14B1
  8
0
 10
43.924089120174699
 20
99.633601580097789
 30
0.0
 11
43.434089120174683
 21
83.515109714260277
 31
0.0
  0
LINE
  5
14B2
  8
0
 10
79.96684730160257
 20
98.227076274908285
 30
0.0
 11
80.414089120174708
 21
83.515109714260277
 31
0.0
  0
ARC
  5
14B3
  8
0
 10
83.465231155899744
 20
98.333426676848745
 30
0.0
 40
3.5
 50
109.8554732163571
 51
181.74124778465571
  0
LINE
  5
14B4
  8
0
 10
93.683171345747084
 20
91.708639973062816
 30
0.0
 11
93.43408912017469
 21
83.515109714260277
 31
0.0
  0
ARC
  5
14B5
  8
0
 10
98.680862566171641
 20
91.556710827433633
 30
0.0
 40
5.0
 50
117.1298324454325
 51
178.25875221534449
  0
ARC
  5
14B6
  8
0
 10
36.897247505967577
 20
109.8789185907893
 30
0.0
 40
8.0213633068033552
 50
237.4461954631978
 51
302.67864018981129
  0
LINE
  5
14B7
  8
0
 10
163.9240891201747
 20
99.633601580097789
 30
0.0
 11
163.43408912017469
 21
83.515109714260277
 31
0.0
  0
ARC
  5
14B8
  8
0
 10
160.42517068884689
 20
99.7206062404004
 30
0.0
 40
3.5
 50
358.57556760446482
 51
90.0
  0
ARC
  5
14B9
  8
0
 10
153.42300755150259
 20
99.7206062404004
 30
0.0
 40
3.5
 50
90.0
 51
181.42443239553509
  0
LINE
  5
14BA
  8
0
 10
149.9240891201747
 20
99.633601580097789
 30
0.0
 11
150.41408912017471
 21
83.515109714260277
 31
0.0
  0
LINE
  5
14BB
  8
0
 10
160.9240891201747
 20
103.4333129445358
 30
0.0
 11
160.9240891201747
 21
103.1848637941745
 31
0.0
  0
ARC
  5
14BC
  8
0
 10
156.9240891201747
 20
96.505109714260286
 30
0.0
 40
8.0
 50
60.000000000000021
 51
64.055520227629984
  0
LINE
  5
14BD
  8
0
 10
161.9240891201747
 20
79.515109714260277
 30
0.0
 11
161.9240891201747
 21
83.515109714260277
 31
0.0
  0
LINE
  5
14BE
  8
0
 10
151.9240891201747
 20
83.515109714260277
 30
0.0
 11
151.9240891201747
 21
79.515109714260277
 31
0.0
  0
LINE
  5
14BF
  8
0
 10
151.9240891201747
 20
79.515109714260277
 30
0.0
 11
161.9240891201747
 21
79.515109714260277
 31
0.0
  0
LINE
  5
14C0
  8
0
 10
163.41408912017471
 20
83.515109714260277
 30
0.0
 11
150.41408912017471
 21
83.515109714260277
 31
0.0
  0
LINE
  5
14C1
  8
1
 10
156.9240891201747
 20
114.5151097142603
 30
0.0
 11
156.9240891201747
 21
64.515109714260277
 31
0.0
  0
ARC
  5
14C2
  8
0
 10
156.9240891201747
 20
96.505109714260286
 30
0.0
 40
8.0
 50
115.94447977237
 51
119.9999999999999
  0
LINE
  5
14C3
  8
0
 10
152.92408912017481
 20
103.4333129445358
 30
0.0
 11
153.4240891201747
 21
103.4333129445359
 31
0.0
  0
LINE
  5
14C4
  8
0
 10
152.9240891201747
 20
103.4333129445358
 30
0.0
 11
152.9240891201747
 21
103.1848637941745
 31
0.0
  0
LINE
  5
14C5
  8
0
 10
156.4240891201747
 20
99.726761484489117
 30
0.0
 11
157.4240891201747
 21
99.726761484489117
 31
0.0
  0
LINE
  5
14C6
  8
0
 10
153.4240891201747
 20
106.51510971426021
 30
0.0
 11
153.4240891201747
 21
102.726761484489
 31
0.0
  0
LINE
  5
14C7
  8
0
 10
160.4240891201747
 20
106.5151097142603
 30
0.0
 11
160.4240891201747
 21
102.7267614844891
 31
0.0
  0
LINE
  5
14C8
  8
0
 10
157.4240891201747
 20
109.5151097142603
 30
0.0
 11
156.42408912017461
 21
109.5151097142603
 31
0.0
  0
ARC
  5
14C9
  8
0
 10
156.4240891201747
 20
106.5151097142603
 30
0.0
 40
3.0
 50
90.0
 51
180.00000000000099
  0
ARC
  5
14CA
  8
0
 10
157.4240891201747
 20
106.5151097142603
 30
0.0
 40
3.0
 50
0.0
 51
90.0
  0
ARC
  5
14CB
  8
0
 10
157.4240891201747
 20
102.7267614844891
 30
0.0
 40
3.0
 50
270.0
 51
0.0
  0
ARC
  5
14CC
  8
0
 10
156.4240891201747
 20
102.7267614844891
 30
0.0
 40
3.0
 50
180.00000000000111
 51
270.0
  0
LINE
  5
14CD
  8
0
 10
160.4240891201747
 20
103.4333129445359
 30
0.0
 11
160.9240891201745
 21
103.4333129445359
 31
0.0
  0
ARC
  5
14CE
  8
0
 10
162.23562510912811
 20
90.505695027651825
 30
0.0
 40
12.13041221981074
 50
127.31444595213731
 51
157.13084794564651
  0
ARC
  5
14CF
  8
0
 10
151.61255313122129
 20
90.505695027651825
 30
0.0
 40
12.13041221981074
 50
22.86915205435351
 51
52.685554047862659
  0
ARC
  5
14D0
  8
0
 10
37.424089120174763
 20
106.5151097142603
 30
0.0
 40
3.0
 50
0.0
 51
90.0
  0
LINE
  5
14D1
  8
0
 10
40.424089120174749
 20
106.5151097142603
 30
0.0
 11
40.424089120174749
 21
103.69885699922931
 31
0.0
  0
ARC
  5
14D2
  8
0
 10
36.424089120174699
 20
106.5151097142603
 30
0.0
 40
3.0
 50
90.0
 51
180.00000000000099
  0
LINE
  5
14D3
  8
0
 10
33.424089120174699
 20
106.51510971426021
 30
0.0
 11
33.424089120174763
 21
103.69885699922931
 31
0.0
  0
LINE
  5
14D4
  8
0
 10
37.424089120174699
 20
109.5151097142603
 30
0.0
 11
36.424089120174642
 21
109.5151097142603
 31
0.0
  0
LINE
  5
150C
  8
0
 10
34.424089120174699
 20
79.515109714260291
 30
0.0
 11
34.424089120174699
 21
70.415109714260296
 31
0.0
  0
LINE
  5
150D
  8
3
 10
34.857089120174521
 20
77.515109714260291
 30
0.0
 11
34.857089120174471
 21
69.982109714260503
 31
0.0
  0
LINE
  5
150E
  8
3
 10
38.991089120174877
 20
77.515109714260291
 30
0.0
 11
38.991089120174877
 21
69.982109714260503
 31
0.0
  0
LINE
  5
150F
  8
0
 10
39.424089120174699
 20
79.515109714260262
 30
0.0
 11
39.424089120174699
 21
70.415109714260268
 31
0.0
  0
LINE
  5
1510
  8
0
 10
38.524089120174658
 20
69.515109714260262
 30
0.0
 11
35.324089120174683
 21
69.515109714260291
 31
0.0
  0
LINE
  5
1511
  8
0
 10
39.424089120174699
 20
77.515109714260262
 30
0.0
 11
34.424089120174699
 21
77.515109714260291
 31
0.0
  0
LINE
  5
1512
  8
3
 10
38.991089120174877
 20
77.515109714260262
 30
0.0
 11
39.424089120174699
 21
78.265087713937191
 31
0.0
  0
LINE
  5
1513
  8
0
 10
39.424089120174699
 20
70.415109714260268
 30
0.0
 11
38.524089120174658
 21
69.515109714260262
 31
0.0
  0
LINE
  5
1514
  8
0
 10
35.324089120174683
 20
69.515109714260291
 30
0.0
 11
34.424089120174699
 21
70.415109714260296
 31
0.0
  0
LINE
  5
1515
  8
0
 10
39.424089120174699
 20
70.415109714260296
 30
0.0
 11
34.424089120174699
 21
70.415109714260325
 31
0.0
  0
LINE
  5
1516
  8
3
 10
34.857089120174521
 20
77.515109714260291
 30
0.0
 11
34.424089120174699
 21
78.26508771393722
 31
0.0
  0
LINE
  5
1517
  8
0
 10
84.424089120174685
 20
79.515109714260291
 30
0.0
 11
84.424089120174685
 21
70.415109714260296
 31
0.0
  0
LINE
  5
1518
  8
3
 10
84.857089120174521
 20
77.515109714260291
 30
0.0
 11
84.857089120174464
 21
69.982109714260503
 31
0.0
  0
LINE
  5
1519
  8
3
 10
88.991089120174877
 20
77.515109714260291
 30
0.0
 11
88.991089120174877
 21
69.982109714260503
 31
0.0
  0
LINE
  5
151A
  8
0
 10
89.424089120174685
 20
79.515109714260262
 30
0.0
 11
89.424089120174685
 21
70.415109714260268
 31
0.0
  0
LINE
  5
151B
  8
0
 10
88.524089120174665
 20
69.515109714260262
 30
0.0
 11
85.324089120174676
 21
69.515109714260291
 31
0.0
  0
LINE
  5
151C
  8
0
 10
89.424089120174685
 20
77.515109714260262
 30
0.0
 11
84.424089120174685
 21
77.515109714260291
 31
0.0
  0
LINE
  5
151D
  8
3
 10
88.991089120174877
 20
77.515109714260262
 30
0.0
 11
89.424089120174685
 21
78.265087713937191
 31
0.0
  0
LINE
  5
151E
  8
0
 10
89.424089120174685
 20
70.415109714260268
 30
0.0
 11
88.524089120174665
 21
69.515109714260262
 31
0.0
  0
LINE
  5
151F
  8
0
 10
85.324089120174676
 20
69.515109714260291
 30
0.0
 11
84.424089120174685
 21
70.415109714260296
 31
0.0
  0
LINE
  5
1520
  8
0
 10
89.424089120174685
 20
70.415109714260296
 30
0.0
 11
84.424089120174685
 21
70.415109714260325
 31
0.0
  0
LINE
  5
1521
  8
3
 10
84.857089120174521
 20
77.515109714260291
 30
0.0
 11
84.424089120174685
 21
78.26508771393722
 31
0.0
  0
LINE
  5
1522
  8
0
 10
154.4240891201747
 20
79.515109714260291
 30
0.0
 11
154.4240891201747
 21
70.415109714260296
 31
0.0
  0
LINE
  5
1523
  8
3
 10
154.85708912017449
 20
77.515109714260291
 30
0.0
 11
154.85708912017441
 21
69.982109714260503
 31
0.0
  0
LINE
  5
1524
  8
3
 10
158.99108912017479
 20
77.515109714260291
 30
0.0
 11
158.99108912017479
 21
69.982109714260503
 31
0.0
  0
LINE
  5
1525
  8
0
 10
159.4240891201747
 20
79.515109714260262
 30
0.0
 11
159.4240891201747
 21
70.415109714260268
 31
0.0
  0
LINE
  5
1526
  8
0
 10
158.52408912017461
 20
69.515109714260262
 30
0.0
 11
155.32408912017459
 21
69.515109714260291
 31
0.0
  0
LINE
  5
1527
  8
0
 10
159.4240891201747
 20
77.515109714260262
 30
0.0
 11
154.4240891201747
 21
77.515109714260291
 31
0.0
  0
LINE
  5
1528
  8
3
 10
158.99108912017479
 20
77.515109714260262
 30
0.0
 11
159.4240891201747
 21
78.265087713937191
 31
0.0
  0
LINE
  5
1529
  8
0
 10
159.4240891201747
 20
70.415109714260268
 30
0.0
 11
158.52408912017461
 21
69.515109714260262
 31
0.0
  0
LINE
  5
152A
  8
0
 10
155.32408912017459
 20
69.515109714260291
 30
0.0
 11
154.4240891201747
 21
70.415109714260296
 31
0.0
  0
LINE
  5
152B
  8
0
 10
159.4240891201747
 20
70.415109714260296
 30
0.0
 11
154.4240891201747
 21
70.415109714260325
 31
0.0
  0
LINE
  5
152C
  8
3
 10
154.85708912017449
 20
77.515109714260291
 30
0.0
 11
154.4240891201747
 21
78.26508771393722
 31
0.0
  0
CIRCLE
  5
152D
  8
3
 10
86.924089120174685
 20
32.515610611498573
 30
0.0
 40
2.0670000000001769
  0
CIRCLE
  5
152E
  8
0
 10
86.924089120174685
 20
32.515610611498573
 30
0.0
 40
2.500000000000028
  0
ENDSEC
  0
EOF
