  0
SECTION
  2
HEADER
  9
$ACADVER
  1
AC1009
  9
$INSBASE
 10
0.0
 20
0.0
 30
0.0
  9
$EXTMIN
 10
0.0
 20
-1.4802182810368341
 30
0.0
  9
$EXTMAX
 10
273.0
 20
138.0000000000025
 30
0.0
  9
$LIMMIN
 10
0.0
 20
0.0
  9
$LIMMAX
 10
385.0
 20
270.0
  9
$ORTHOMODE
 70
     1
  9
$REGENMODE
 70
     1
  9
$FILLMODE
 70
     1
  9
$QTEXTMODE
 70
     0
  9
$MIRRTEXT
 70
     0
  9
$DRAGMODE
 70
     2
  9
$LTSCALE
 40
10.0
  9
$OSMODE
 70
    37
  9
$ATTMODE
 70
     1
  9
$TEXTSIZE
 40
4.000000000000048
  9
$TRACEWID
 40
0.05
  9
$TEXTSTYLE
  7
STANDARD
  9
$CLAYER
  8
0
  9
$CELTYPE
  6
BYLAYER
  9
$CECOLOR
 62
   256
  9
$DIMSCALE
 40
1.0
  9
$DIMASZ
 40
3.0
  9
$DIMEXO
 40
2.0
  9
$DIMDLI
 40
0.38
  9
$DIMRND
 40
0.0
  9
$DIMDLE
 40
0.0
  9
$DIMEXE
 40
2.0
  9
$DIMTP
 40
0.0
  9
$DIMTM
 40
0.0
  9
$DIMTXT
 40
3.0
  9
$DIMCEN
 40
0.0
  9
$DIMTSZ
 40
0.0
  9
$DIMTOL
 70
     0
  9
$DIMLIM
 70
     0
  9
$DIMTIH
 70
     0
  9
$DIMTOH
 70
     0
  9
$DIMSE1
 70
     0
  9
$DIMSE2
 70
     0
  9
$DIMTAD
 70
     1
  9
$DIMZIN
 70
     0
  9
$DIMBLK
  1

  9
$DIMASO
 70
     0
  9
$DIMSHO
 70
     0
  9
$DIMPOST
  1

  9
$DIMAPOST
  1

  9
$DIMALT
 70
     0
  9
$DIMALTD
 70
     2
  9
$DIMALTF
 40
25.399999999999999
  9
$DIMLFAC
 40
1.0
  9
$DIMTOFL
 70
     1
  9
$DIMTVP
 40
1.6000000000000001
  9
$DIMTIX
 70
     1
  9
$DIMSOXD
 70
     0
  9
$DIMSAH
 70
     0
  9
$DIMBLK1
  1

  9
$DIMBLK2
  1

  9
$DIMSTYLE
  2
STANDARD
  9
$DIMCLRD
 70
     0
  9
$DIMCLRE
 70
     0
  9
$DIMCLRT
 70
     0
  9
$DIMTFAC
 40
1.0
  9
$DIMGAP
 40
1.0
  9
$LUNITS
 70
     2
  9
$LUPREC
 70
     4
  9
$SKETCHINC
 40
0.1
  9
$FILLETRAD
 40
0.0
  9
$AUNITS
 70
     0
  9
$AUPREC
 70
     4
  9
$MENU
  1
E:\r13\win\SUPPORT\ACAD
  9
$ELEVATION
 40
0.0
  9
$PELEVATION
 40
0.0
  9
$THICKNESS
 40
0.0
  9
$LIMCHECK
 70
     0
  9
$BLIPMODE
 70
     0
  9
$CHAMFERA
 40
0.0
  9
$CHAMFERB
 40
0.0
  9
$SKPOLY
 70
     0
  9
$TDCREATE
 40
2450280.598206134
  9
$TDUPDATE
 40
2458249.5921934601
  9
$TDINDWG
 40
0.0610954167
  9
$TDUSRTIMER
 40
0.0610954167
  9
$USRTIMER
 70
     1
  9
$ANGBASE
 50
0.0
  9
$ANGDIR
 70
     0
  9
$PDMODE
 70
     0
  9
$PDSIZE
 40
0.0
  9
$PLINEWID
 40
0.0
  9
$COORDS
 70
     1
  9
$SPLFRAME
 70
     0
  9
$SPLINETYPE
 70
     6
  9
$SPLINESEGS
 70
     8
  9
$ATTDIA
 70
     0
  9
$ATTREQ
 70
     1
  9
$HANDLING
 70
     1
  9
$HANDSEED
  5
927
  9
$SURFTAB1
 70
     6
  9
$SURFTAB2
 70
     6
  9
$SURFTYPE
 70
     6
  9
$SURFU
 70
     6
  9
$SURFV
 70
     6
  9
$UCSNAME
  2

  9
$UCSORG
 10
0.0
 20
0.0
 30
0.0
  9
$UCSXDIR
 10
1.0
 20
0.0
 30
0.0
  9
$UCSYDIR
 10
0.0
 20
1.0
 30
0.0
  9
$PUCSNAME
  2

  9
$PUCSORG
 10
0.0
 20
0.0
 30
0.0
  9
$PUCSXDIR
 10
1.0
 20
0.0
 30
0.0
  9
$PUCSYDIR
 10
0.0
 20
1.0
 30
0.0
  9
$USERI1
 70
     3
  9
$USERI2
 70
     1
  9
$USERI3
 70
     0
  9
$USERI4
 70
     0
  9
$USERI5
 70
     0
  9
$USERR1
 40
1.0
  9
$USERR2
 40
3.0
  9
$USERR3
 40
3.0
  9
$USERR4
 40
3.0
  9
$USERR5
 40
10.0
  9
$WORLDVIEW
 70
     1
  9
$SHADEDGE
 70
     3
  9
$SHADEDIF
 70
    70
  9
$TILEMODE
 70
     1
  9
$MAXACTVP
 70
    16
  9
$PLIMCHECK
 70
     0
  9
$PEXTMIN
 10
1.0000000000000000E+020
 20
1.0000000000000000E+020
 30
1.0000000000000000E+020
  9
$PEXTMAX
 10
-1.0000000000000000E+020
 20
-1.0000000000000000E+020
 30
-1.0000000000000000E+020
  9
$PLIMMIN
 10
0.0
 20
0.0
  9
$PLIMMAX
 10
12.0
 20
9.0
  9
$UNITMODE
 70
     0
  9
$VISRETAIN
 70
     0
  9
$PLINEGEN
 70
     0
  9
$PSLTSCALE
 70
     0
  0
ENDSEC
  0
SECTION
  2
TABLES
  0
TABLE
  2
VPORT
 70
     1
  0
VPORT
  2
*ACTIVE
 70
     0
 10
0.0
 20
0.0
 11
1.0
 21
1.0
 12
136.4886814737815
 22
68.6861596764832
 13
0.0
 23
0.0
 14
5.0
 24
5.0
 15
10.0
 25
10.0
 16
0.0
 26
0.0
 36
1.0
 17
0.0
 27
0.0
 37
0.0
 40
142.35517224200581
 41
2.0984455958549222
 42
50.0
 43
0.0
 44
0.0
 50
0.0
 51
0.0
 71
     0
 72
   500
 73
     1
 74
     0
 75
     0
 76
     0
 77
     0
 78
     2
  0
ENDTAB
  0
TABLE
  2
LTYPE
 70
     4
  0
LTYPE
  2
CONTINUOUS
 70
     0
  3
Solid Line
 72
    65
 73
     0
 40
0.0
  0
LTYPE
  2
CENTER
 70
     0
  3
____ _ ____ _ ____ _ ____ _ ____ _ ____ _ ____
 72
    65
 73
     4
 40
2.0
 49
1.25
 49
-0.25
 49
0.25
 49
-0.25
  0
LTYPE
  2
HIDDEN
 70
     0
  3
_ _ _ _ _ _ _ _ _ _ _ _ _ _ _ _ _ _ _ _ _ _ _
 72
    65
 73
     2
 40
0.375
 49
0.25
 49
-0.125
  0
LTYPE
  2
PHANTOM2
 70
     0
  3
___ _ _ ___ _ _ ___ _ _ ___ _ _
 72
    65
 73
     6
 40
1.25
 49
0.625
 49
-0.125
 49
0.125
 49
-0.125
 49
0.125
 49
-0.125
  0
ENDTAB
  0
TABLE
  2
LAYER
 70
     4
  0
LAYER
  2
0
 70
     0
 62
     7
  6
CONTINUOUS
  0
LAYER
  2
1
 70
     0
 62
     1
  6
CENTER
  0
LAYER
  2
3
 70
     0
 62
     3
  6
CONTINUOUS
  0
LAYER
  2
2
 70
     0
 62
     2
  6
HIDDEN
  0
ENDTAB
  0
TABLE
  2
STYLE
 70
     2
  0
STYLE
  2
STANDARD
 70
     0
 40
0.0
 41
1.0
 50
0.0
 71
     0
 42
4.000000000000048
  3
SIMPLEX
  4
BIGFONT
  0
STYLE
  2
STANDARD1
 70
     0
 40
0.0
 41
1.0
 50
0.0
 71
     0
 42
3.0
  3
txt
  4

  0
ENDTAB
  0
TABLE
  2
VIEW
 70
     0
  0
ENDTAB
  0
TABLE
  2
UCS
 70
     0
  0
ENDTAB
  0
TABLE
  2
APPID
 70
     4
  0
APPID
  2
ACAD
 70
     0
  0
APPID
  2
ACAD_MLEADERVER
 70
     0
  0
APPID
  2
ACAD_EXEMPT_FROM_CAD_STANDARDS
 70
     0
  0
APPID
  2
ACAD_NAV_VCDISPLAY
 70
     0
  0
ENDTAB
  0
TABLE
  2
DIMSTYLE
 70
     1
  0
DIMSTYLE
  2
STANDARD
 70
     0
  3

  4

  5

  6

  7

 40
1.0
 41
0.18
 42
0.0625
 43
0.38
 44
0.18
 45
0.0
 46
0.0
 47
0.0
 48
0.0
140
0.18
141
0.09
142
0.0
143
25.399999999999999
144
1.0
145
0.0
146
1.0
147
0.09
 71
     0
 72
     0
 73
     1
 74
     1
 75
     0
 76
     0
 77
     0
 78
     0
170
     0
171
     2
172
     0
173
     0
174
     0
175
     0
176
     0
177
     0
178
     0
  0
ENDTAB
  0
ENDSEC
  0
SECTION
  2
BLOCKS
  0
BLOCK
  8
0
  2
$MODEL_SPACE
 70
     0
 10
0.0
 20
0.0
 30
0.0
  3
$MODEL_SPACE
  1

  0
ENDBLK
  5
560
  8
0
  0
BLOCK
 67
     1
  8
0
  2
$PAPER_SPACE
 70
     0
 10
0.0
 20
0.0
 30
0.0
  3
$PAPER_SPACE
  1

  0
ENDBLK
  5
55E
 67
     1
  8
0
  0
ENDSEC
  0
SECTION
  2
ENTITIES
  0
LINE
  5
2D5
  8
0
 10
22.00000000000102
 20
36.015172442699452
 30
0.0
 11
31.50000000000102
 21
30.530344885397259
 31
0.0
  0
LINE
  5
2D6
  8
0
 10
31.50000000000102
 20
30.530344885397259
 30
0.0
 11
41.000000000000107
 21
36.015172442699452
 31
0.0
  0
LINE
  5
2D7
  8
0
 10
41.000000000000107
 20
36.015172442699452
 30
0.0
 11
41.000000000000107
 21
46.984827557303902
 31
0.0
  0
LINE
  5
2D8
  8
0
 10
41.000000000000107
 20
46.984827557303902
 30
0.0
 11
31.50000000000011
 21
52.46965511460246
 31
0.0
  0
LINE
  5
2D9
  8
0
 10
31.50000000000011
 20
52.46965511460246
 30
0.0
 11
21.999999999999211
 21
46.984827557300257
 31
0.0
  0
LINE
  5
2DA
  8
0
 10
21.999999999999211
 20
46.984827557300257
 30
0.0
 11
22.00000000000102
 21
36.015172442699452
 31
0.0
  0
CIRCLE
  5
2DC
  8
0
 10
31.5
 20
41.499999999999829
 30
0.0
 40
3.9999999999999849
  0
CIRCLE
  5
2DD
  8
3
 10
31.5
 20
41.499999999999829
 30
0.0
 40
7.187999999994573
  0
CIRCLE
  5
2DE
  8
0
 10
31.5
 20
41.499999999999829
 30
0.0
 40
7.9999999999515552
  0
LINE
  5
2DF
  8
1
 10
10.0
 20
41.499999999999829
 30
0.0
 11
52.999999999999822
 21
41.499999999999829
 31
0.0
  0
LINE
  5
2E0
  8
1
 10
31.50000000000011
 20
62.999999999999773
 30
0.0
 11
31.50000000000011
 21
20.0
 31
0.0
  0
CIRCLE
  5
2E1
  8
0
 10
31.5
 20
41.499999999999829
 30
0.0
 40
16.5
  0
CIRCLE
  5
2E8
  8
0
 10
251.50000000000011
 20
41.499999999999837
 30
0.0
 40
16.5
  0
LINE
  5
2E9
  8
1
 10
230.0000000000002
 20
41.49999999999995
 30
0.0
 11
273.0
 21
41.49999999999995
 31
0.0
  0
LINE
  5
2EA
  8
1
 10
251.50000000000011
 20
19.99999999999984
 30
0.0
 11
251.50000000000011
 21
62.999999999999673
 31
0.0
  0
ARC
  5
2F8
  8
0
 10
173.5
 20
55.500000000006693
 30
0.0
 40
2.4999999999958362
 50
36.869897645717408
 51
90.0
  0
ARC
  5
2F9
  8
0
 10
173.5
 20
27.49999999999288
 30
0.0
 40
2.4999999999958362
 50
270.0
 51
323.13010235428231
  0
LINE
  5
2FC
  8
0
 10
151.50000000000011
 20
31.999994605201941
 30
0.0
 11
151.50000000000011
 21
50.999999999999808
 31
0.0
  0
LINE
  5
2FD
  8
0
 10
150.65149422912199
 20
30.530344894329389
 30
0.0
 11
141.50000000000011
 21
30.530344894329389
 31
0.0
  0
LINE
  5
2FE
  8
0
 10
141.50000000000011
 20
36.015172447163472
 30
0.0
 11
150.65149422912199
 21
36.015172447163408
 31
0.0
  0
LINE
  5
2FF
  8
0
 10
150.65149422912211
 20
52.469655105675919
 30
0.0
 11
141.50000000000011
 21
52.469655105675869
 31
0.0
  0
LINE
  5
300
  8
0
 10
141.50000000000011
 20
46.984827552834922
 30
0.0
 11
150.65149422912199
 21
46.984827552834922
 31
0.0
  0
LINE
  5
301
  8
0
 10
151.50000000000011
 20
50.999999999999808
 30
0.0
 11
150.65149422912211
 21
52.469655105675919
 31
0.0
  0
ARC
  5
302
  8
0
 10
146.64393676086041
 20
49.727241329255477
 30
0.0
 40
4.8560632391392371
 50
325.61575270219419
 51
359.9999999999992
  0
ARC
  5
303
  8
0
 10
133.34850569979929
 20
41.49999999999919
 30
0.0
 40
18.151494300200689
 50
342.41204631707029
 51
17.58795368292968
  0
ARC
  5
304
  8
0
 10
146.64393676086041
 20
33.272753275946272
 30
0.0
 40
4.8560632391392371
 50
0.0000000000008142
 51
34.38424729780575
  0
LINE
  5
305
  8
0
 10
151.50000000000011
 20
31.999994605201941
 30
0.0
 11
150.65149422912211
 21
30.53033949952588
 31
0.0
  0
LINE
  5
306
  8
0
 10
141.50000000000011
 20
52.469655105675869
 30
0.0
 11
141.5
 21
30.530344894329389
 31
0.0
  0
LINE
  5
307
  8
0
 10
152.50000000000011
 20
50.999999999999758
 30
0.0
 11
151.50000000000011
 21
49.999999999999638
 31
0.0
  0
LINE
  5
308
  8
0
 10
152.5000000000002
 20
31.999999999999758
 30
0.0
 11
151.50000000000011
 21
32.999999999999822
 31
0.0
  0
LINE
  5
309
  8
0
 10
163.50000000000011
 20
31.999999999999812
 30
0.0
 11
173.5
 21
24.99999999999703
 31
0.0
  0
LINE
  5
30A
  8
0
 10
163.5
 20
50.999999999999702
 30
0.0
 11
173.50000000000011
 21
57.999999999999751
 31
0.0
  0
LINE
  5
30B
  8
0
 10
152.50000000000011
 20
50.999999999999758
 30
0.0
 11
152.50000000000011
 21
31.999999999999758
 31
0.0
  0
LINE
  5
30C
  8
0
 10
163.5
 20
50.999999999999702
 30
0.0
 11
163.50000000000011
 21
31.999999999999812
 31
0.0
  0
LINE
  5
30D
  8
0
 10
173.5
 20
24.999999999999758
 30
0.0
 11
173.50000000000011
 21
57.999999999999751
 31
0.0
  0
LINE
  5
310
  8
0
 10
175.50000000000011
 20
25.999999999999758
 30
0.0
 11
175.50000000000011
 21
56.999999999999758
 31
0.0
  0
LINE
  5
314
  8
1
 10
180.50000000000011
 20
41.499999999999758
 30
0.0
 11
102.5000000000001
 21
41.499999999999758
 31
0.0
  0
LINE
  5
315
  8
0
 10
115.5000000000001
 20
48.499999999989129
 30
0.0
 11
116.5000000000001
 21
49.499999999989129
 31
0.0
  0
LINE
  5
316
  8
3
 10
138.50000000000011
 20
48.687999999994403
 30
0.0
 11
115.6880000000054
 21
48.687999999994403
 31
0.0
  0
LINE
  5
317
  8
0
 10
152.50000000000011
 20
50.999999999999702
 30
0.0
 11
163.5
 21
50.999999999999702
 31
0.0
  0
LINE
  5
318
  8
3
 10
138.5
 20
34.312000000005121
 30
0.0
 11
115.6880000000055
 21
34.312000000005042
 31
0.0
  0
LINE
  5
319
  8
0
 10
152.50000000000011
 20
31.999999999999812
 30
0.0
 11
163.50000000000011
 21
31.999999999999812
 31
0.0
  0
LINE
  5
31A
  8
0
 10
115.5000000000001
 20
34.500000000010452
 30
0.0
 11
116.5000000000001
 21
33.500000000010452
 31
0.0
  0
LINE
  5
31B
  8
0
 10
115.5000000000001
 20
48.499999999989129
 30
0.0
 11
115.5000000000001
 21
34.500000000010452
 31
0.0
  0
LINE
  5
31C
  8
0
 10
116.5000000000001
 20
49.499999999989129
 30
0.0
 11
116.5000000000001
 21
33.500000000010452
 31
0.0
  0
LINE
  5
37A
  8
0
 10
109.8000000000001
 20
45.499999999999751
 30
0.0
 11
109.8000000000001
 21
37.499999999999758
 31
0.0
  0
LINE
  5
37B
  8
0
 10
109.8000000000001
 20
37.499999999999758
 30
0.0
 11
115.5000000000001
 21
37.499999999999758
 31
0.0
  0
LINE
  5
37C
  8
0
 10
109.8000000000001
 20
45.499999999999751
 30
0.0
 11
115.5000000000001
 21
45.499999999999751
 31
0.0
  0
LINE
  5
38E
  8
0
 10
138.50000000000011
 20
49.500000000000213
 30
0.0
 11
138.5
 21
33.499999999999332
 31
0.0
  0
LINE
  5
38F
  8
3
 10
138.50000000000011
 20
48.687999999994403
 30
0.0
 11
139.9064252557574
 21
49.500000000000952
 31
0.0
  0
LINE
  5
390
  8
3
 10
138.50000000000011
 20
34.312000000005121
 30
0.0
 11
139.9064252557574
 21
33.499999999998572
 31
0.0
  0
LINE
  5
3D7
  8
1
 10
180.50000000000011
 20
121.4999999999997
 30
0.0
 11
102.5000000000001
 21
121.4999999999997
 31
0.0
  0
LINE
  5
3D8
  8
0
 10
152.50000000000011
 20
111.9999999999998
 30
0.0
 11
163.5
 21
111.9999999999998
 31
0.0
  0
LINE
  5
3D9
  8
0
 10
152.50000000000011
 20
130.99999999999969
 30
0.0
 11
163.50000000000011
 21
130.99999999999969
 31
0.0
  0
LINE
  5
3DC
  8
3
 10
138.50000000000011
 20
114.3120000000051
 30
0.0
 11
115.6880000000054
 21
114.3120000000051
 31
0.0
  0
LINE
  5
3DD
  8
3
 10
138.5
 20
128.68799999999439
 30
0.0
 11
115.6880000000051
 21
128.6879999999941
 31
0.0
  0
LINE
  5
3E0
  8
0
 10
116.5000000000001
 20
113.5000000000104
 30
0.0
 11
116.5000000000001
 21
129.49999999998909
 31
0.0
  0
LINE
  5
3E1
  8
0
 10
115.5000000000001
 20
114.5000000000104
 30
0.0
 11
115.5000000000001
 21
128.49999999998909
 31
0.0
  0
LINE
  5
3E5
  8
0
 10
115.5000000000001
 20
128.49999999998909
 30
0.0
 11
116.5000000000001
 21
129.49999999998909
 31
0.0
  0
LINE
  5
3E8
  8
0
 10
115.5000000000001
 20
114.5000000000104
 30
0.0
 11
116.5000000000001
 21
113.5000000000104
 31
0.0
  0
ARC
  5
3E9
  8
0
 10
137.61899765243689
 20
126.2499999999997
 30
0.0
 40
13.719683889994901
 50
339.74384199960662
 51
20.256158000393359
  0
LINE
  5
3EA
  8
0
 10
141.50000000000011
 20
130.99999999999969
 30
0.0
 11
141.5
 21
111.9999999999998
 31
0.0
  0
LINE
  5
3EB
  8
0
 10
151.5000000000002
 20
130.72058823529261
 30
0.0
 11
151.5000000000002
 21
112.27941176470679
 31
0.0
  0
LINE
  5
3EC
  8
0
 10
152.50000000000011
 20
111.9999999999997
 30
0.0
 11
152.50000000000011
 21
130.9999999999998
 31
0.0
  0
LINE
  5
3ED
  8
0
 10
151.3386815424318
 20
130.9999999999998
 30
0.0
 11
141.50000000000011
 21
130.99999999999969
 31
0.0
  0
LINE
  5
3EE
  8
0
 10
151.3386815424318
 20
130.9999999999998
 30
0.0
 11
151.5000000000002
 21
130.72058823529269
 31
0.0
  0
LINE
  5
3EF
  8
0
 10
152.5000000000002
 20
130.9999999999998
 30
0.0
 11
151.50000000000011
 21
129.99999999999969
 31
0.0
  0
LINE
  5
3F0
  8
0
 10
151.3386815424318
 20
111.9999999999997
 30
0.0
 11
141.5
 21
111.9999999999998
 31
0.0
  0
LINE
  5
3F1
  8
0
 10
150.49017576640051
 20
121.4999999999997
 30
0.0
 11
141.50000000000011
 21
121.4999999999997
 31
0.0
  0
LINE
  5
3F2
  8
0
 10
138.50000000000011
 20
113.4999999999993
 30
0.0
 11
138.5
 21
129.50000000000011
 31
0.0
  0
LINE
  5
3F3
  8
3
 10
138.50000000000011
 20
128.68799999999439
 30
0.0
 11
139.9064252557574
 21
129.50000000000091
 31
0.0
  0
LINE
  5
3F4
  8
3
 10
138.50000000000011
 20
114.3120000000051
 30
0.0
 11
139.9064252557574
 21
113.49999999999849
 31
0.0
  0
ARC
  5
3F5
  8
0
 10
137.61899765243689
 20
116.7499999999997
 30
0.0
 40
13.719683889994901
 50
339.74384199960662
 51
20.256158000393359
  0
LINE
  5
3F6
  8
0
 10
151.3386815424318
 20
111.9999999999997
 30
0.0
 11
151.5000000000002
 21
112.27941176470679
 31
0.0
  0
LINE
  5
3F7
  8
0
 10
152.50000000000011
 20
111.9999999999997
 30
0.0
 11
151.50000000000011
 21
112.9999999999999
 31
0.0
  0
LINE
  5
3F9
  8
0
 10
163.5
 20
111.9999999999998
 30
0.0
 11
173.50000000000011
 21
104.9999999999997
 31
0.0
  0
LINE
  5
3FA
  8
0
 10
173.5
 20
137.99999999999969
 30
0.0
 11
173.50000000000011
 21
104.9999999999997
 31
0.0
  0
LINE
  5
3FB
  8
0
 10
175.50000000000011
 20
136.99999999999969
 30
0.0
 11
175.50000000000011
 21
105.9999999999997
 31
0.0
  0
LINE
  5
3FD
  8
0
 10
163.5
 20
111.9999999999998
 30
0.0
 11
163.50000000000011
 21
130.99999999999969
 31
0.0
  0
LINE
  5
3FF
  8
0
 10
163.50000000000011
 20
130.99999999999969
 30
0.0
 11
173.5
 21
138.0000000000025
 31
0.0
  0
ARC
  5
400
  8
0
 10
173.5
 20
135.50000000000659
 30
0.0
 40
2.4999999999958362
 50
36.869897645717408
 51
90.0
  0
ARC
  5
408
  8
0
 10
173.5
 20
107.4999999999928
 30
0.0
 40
2.4999999999958362
 50
270.0
 51
323.13010235428231
  0
LINE
  5
571
  8
0
 10
109.8000000000001
 20
45.499999999999751
 30
0.0
 11
108.0886465944386
 21
44.511949650620281
 31
0.0
  0
ARC
  5
5A0
  8
0
 10
115.5000000000001
 20
41.499999999999787
 30
0.0
 40
8.0
 50
157.88333686751579
 51
202.11666313248469
  0
LINE
  5
5B8
  8
0
 10
108.0886465944386
 20
44.511949650620288
 30
0.0
 11
108.0886465944387
 21
38.488050349379243
 31
0.0
  0
LINE
  5
5B9
  8
0
 10
109.8000000000001
 20
37.499999999999758
 30
0.0
 11
108.0886465944386
 21
38.488050349379243
 31
0.0
  0
LINE
  5
5BA
  8
0
 10
109.8000000000001
 20
117.4999999999997
 30
0.0
 11
108.0886465944386
 21
118.48805034937919
 31
0.0
  0
LINE
  5
5BB
  8
0
 10
108.0886465944386
 20
124.51194965062029
 30
0.0
 11
108.0886465944387
 21
118.48805034937919
 31
0.0
  0
ARC
  5
5BC
  8
0
 10
115.5000000000001
 20
121.4999999999998
 30
0.0
 40
8.0
 50
157.88333686751579
 51
202.11666313248469
  0
LINE
  5
5BD
  8
0
 10
109.8000000000001
 20
125.4999999999997
 30
0.0
 11
108.0886465944386
 21
124.51194965062029
 31
0.0
  0
LINE
  5
5BE
  8
0
 10
109.8000000000001
 20
125.4999999999997
 30
0.0
 11
115.5000000000001
 21
125.4999999999997
 31
0.0
  0
LINE
  5
5BF
  8
0
 10
109.8000000000001
 20
117.4999999999997
 30
0.0
 11
115.5000000000001
 21
117.4999999999997
 31
0.0
  0
LINE
  5
5C0
  8
0
 10
109.8000000000001
 20
125.4999999999997
 30
0.0
 11
109.8000000000001
 21
117.4999999999997
 31
0.0
  0
CIRCLE
  5
5C2
  8
0
 10
31.499999999999911
 20
41.499999999999829
 30
0.0
 40
3.0119496506205792
  0
LINE
  5
685
  8
0
 10
116.5000000000002
 20
33.500000000010303
 30
0.0
 11
141.50000000000011
 21
33.499999999997833
 31
0.0
  0
LINE
  5
687
  8
0
 10
116.4999999999999
 20
49.499999999988987
 30
0.0
 11
141.50000000000011
 21
49.500000000001748
 31
0.0
  0
LINE
  5
68A
  8
0
 10
116.4999999999998
 20
113.5000000000106
 30
0.0
 11
141.50000000000011
 21
113.4999999999978
 31
0.0
  0
LINE
  5
68C
  8
0
 10
116.5000000000001
 20
129.49999999998909
 30
0.0
 11
141.50000000000011
 21
129.50000000000171
 31
0.0
  0
TEXT
  5
738
  8
0
 62
     3
 10
0.0
 20
0.0
 30
0.0
 40
5.0
  1
MNDXN16
  7
STANDARD1
  0
ENDSEC
  0
EOF
