  0
SECTION
  2
HEADER
  9
$ACADVER
  1
AC1009
  9
$INSBASE
 10
0.0
 20
0.0
 30
0.0
  9
$EXTMIN
 10
0.0
 20
-2.960436562073669
 30
0.0
  9
$EXTMAX
 10
249.40000000000001
 20
155.40000000000001
 30
0.0
  9
$LIMMIN
 10
0.0
 20
0.0
  9
$LIMMAX
 10
187.5
 20
135.0
  9
$ORTHOMODE
 70
     1
  9
$REGENMODE
 70
     1
  9
$FILLMODE
 70
     1
  9
$QTEXTMODE
 70
     0
  9
$MIRRTEXT
 70
     0
  9
$DRAGMODE
 70
     2
  9
$LTSCALE
 40
5.0
  9
$OSMODE
 70
    37
  9
$ATTMODE
 70
     1
  9
$TEXTSIZE
 40
0.2
  9
$TRACEWID
 40
0.05
  9
$TEXTSTYLE
  7
STANDARD
  9
$CLAYER
  8
0
  9
$CELTYPE
  6
BYLAYER
  9
$CECOLOR
 62
   256
  9
$DIMSCALE
 40
0.5
  9
$DIMASZ
 40
3.0
  9
$DIMEXO
 40
2.0
  9
$DIMDLI
 40
0.38
  9
$DIMRND
 40
0.0
  9
$DIMDLE
 40
0.0
  9
$DIMEXE
 40
2.0
  9
$DIMTP
 40
0.0
  9
$DIMTM
 40
0.0
  9
$DIMTXT
 40
3.2000000000000002
  9
$DIMCEN
 40
0.0
  9
$DIMTSZ
 40
0.0
  9
$DIMTOL
 70
     0
  9
$DIMLIM
 70
     0
  9
$DIMTIH
 70
     0
  9
$DIMTOH
 70
     0
  9
$DIMSE1
 70
     0
  9
$DIMSE2
 70
     0
  9
$DIMTAD
 70
     1
  9
$DIMZIN
 70
     0
  9
$DIMBLK
  1

  9
$DIMASO
 70
     1
  9
$DIMSHO
 70
     0
  9
$DIMPOST
  1

  9
$DIMAPOST
  1

  9
$DIMALT
 70
     0
  9
$DIMALTD
 70
     2
  9
$DIMALTF
 40
25.399999999999999
  9
$DIMLFAC
 40
1.0
  9
$DIMTOFL
 70
     1
  9
$DIMTVP
 40
1.6000000000000001
  9
$DIMTIX
 70
     0
  9
$DIMSOXD
 70
     0
  9
$DIMSAH
 70
     0
  9
$DIMBLK1
  1

  9
$DIMBLK2
  1

  9
$DIMSTYLE
  2
STANDARD
  9
$DIMCLRD
 70
     0
  9
$DIMCLRE
 70
     0
  9
$DIMCLRT
 70
     0
  9
$DIMTFAC
 40
1.0
  9
$DIMGAP
 40
0.5
  9
$LUNITS
 70
     2
  9
$LUPREC
 70
     1
  9
$SKETCHINC
 40
0.1
  9
$FILLETRAD
 40
0.0
  9
$AUNITS
 70
     0
  9
$AUPREC
 70
     1
  9
$MENU
  1
E:\r13\win\SUPPORT\ACAD
  9
$ELEVATION
 40
0.0
  9
$PELEVATION
 40
0.0
  9
$THICKNESS
 40
0.0
  9
$LIMCHECK
 70
     0
  9
$BLIPMODE
 70
     0
  9
$CHAMFERA
 40
0.0
  9
$CHAMFERB
 40
0.0
  9
$SKPOLY
 70
     0
  9
$TDCREATE
 40
2449839.7949652779
  9
$TDUPDATE
 40
2457534.4791780212
  9
$TDINDWG
 40
0.1173481019
  9
$TDUSRTIMER
 40
0.1173481019
  9
$USRTIMER
 70
     1
  9
$ANGBASE
 50
0.0
  9
$ANGDIR
 70
     0
  9
$PDMODE
 70
     0
  9
$PDSIZE
 40
0.0
  9
$PLINEWID
 40
0.0
  9
$COORDS
 70
     1
  9
$SPLFRAME
 70
     0
  9
$SPLINETYPE
 70
     6
  9
$SPLINESEGS
 70
     8
  9
$ATTDIA
 70
     0
  9
$ATTREQ
 70
     1
  9
$HANDLING
 70
     1
  9
$HANDSEED
  5
1101
  9
$SURFTAB1
 70
     6
  9
$SURFTAB2
 70
     6
  9
$SURFTYPE
 70
     6
  9
$SURFU
 70
     6
  9
$SURFV
 70
     6
  9
$UCSNAME
  2

  9
$UCSORG
 10
0.0
 20
0.0
 30
0.0
  9
$UCSXDIR
 10
1.0
 20
0.0
 30
0.0
  9
$UCSYDIR
 10
0.0
 20
1.0
 30
0.0
  9
$PUCSNAME
  2

  9
$PUCSORG
 10
0.0
 20
0.0
 30
0.0
  9
$PUCSXDIR
 10
1.0
 20
0.0
 30
0.0
  9
$PUCSYDIR
 10
0.0
 20
1.0
 30
0.0
  9
$USERI1
 70
     0
  9
$USERI2
 70
     1
  9
$USERI3
 70
     1
  9
$USERI4
 70
     0
  9
$USERI5
 70
     0
  9
$USERR1
 40
0.0
  9
$USERR2
 40
0.0
  9
$USERR3
 40
0.0
  9
$USERR4
 40
0.0
  9
$USERR5
 40
0.0
  9
$WORLDVIEW
 70
     1
  9
$SHADEDGE
 70
     3
  9
$SHADEDIF
 70
    70
  9
$TILEMODE
 70
     1
  9
$MAXACTVP
 70
    16
  9
$PLIMCHECK
 70
     0
  9
$PEXTMIN
 10
1.0000000000000000E+020
 20
1.0000000000000000E+020
 30
1.0000000000000000E+020
  9
$PEXTMAX
 10
-1.0000000000000000E+020
 20
-1.0000000000000000E+020
 30
-1.0000000000000000E+020
  9
$PLIMMIN
 10
0.0
 20
0.0
  9
$PLIMMAX
 10
12.0
 20
9.0
  9
$UNITMODE
 70
     0
  9
$VISRETAIN
 70
     0
  9
$PLINEGEN
 70
     0
  9
$PSLTSCALE
 70
     0
  0
ENDSEC
  0
SECTION
  2
TABLES
  0
TABLE
  2
VPORT
 70
     1
  0
VPORT
  2
*ACTIVE
 70
     0
 10
0.0
 20
0.0
 11
1.0
 21
1.0
 12
172.54273504273499
 22
95.0
 13
0.0
 23
0.0
 14
5.0
 24
5.0
 15
5.0
 25
5.0
 16
0.0
 26
0.0
 36
1.0
 17
0.0
 27
0.0
 37
0.0
 40
190.0
 41
1.816239316239316
 42
50.0
 43
0.0
 44
0.0
 50
0.0
 51
0.0
 71
     0
 72
   500
 73
     1
 74
     0
 75
     0
 76
     0
 77
     0
 78
     2
  0
ENDTAB
  0
TABLE
  2
LTYPE
 70
     4
  0
LTYPE
  2
CONTINUOUS
 70
     0
  3
Solid Line
 72
    65
 73
     0
 40
0.0
  0
LTYPE
  2
CENTER
 70
     0
  3
____ _ ____ _ ____ _ ____ _ ____ _ ____ _ ____
 72
    65
 73
     4
 40
2.0
 49
1.25
 49
-0.25
 49
0.25
 49
-0.25
  0
LTYPE
  2
PHANTOM2
 70
     0
  3
___ _ _ ___ _ _ ___ _ _ ___ _ _
 72
    65
 73
     6
 40
1.25
 49
0.625
 49
-0.125
 49
0.125
 49
-0.125
 49
0.125
 49
-0.125
  0
LTYPE
  2
HIDDEN
 70
     0
  3
_ _ _ _ _ _ _ _ _ _ _ _ _ _ _ _ _ _ _ _ _ _ _
 72
    65
 73
     2
 40
0.375
 49
0.25
 49
-0.125
  0
ENDTAB
  0
TABLE
  2
LAYER
 70
     5
  0
LAYER
  2
0
 70
     0
 62
     7
  6
CONTINUOUS
  0
LAYER
  2
1
 70
     0
 62
     1
  6
CENTER
  0
LAYER
  2
3
 70
     0
 62
     3
  6
CONTINUOUS
  0
LAYER
  2
2
 70
     0
 62
     2
  6
HIDDEN
  0
LAYER
  2
DEFPOINTS
 70
     0
 62
     7
  6
CONTINUOUS
  0
ENDTAB
  0
TABLE
  2
STYLE
 70
     2
  0
STYLE
  2
STANDARD
 70
     0
 40
0.0
 41
1.0
 50
0.0
 71
     0
 42
0.2
  3
TXT
  4
BIGFONT
  0
STYLE
  2
STANDARD1
 70
     0
 40
0.0
 41
1.0
 50
0.0
 71
     0
 42
3.0
  3
txt
  4

  0
ENDTAB
  0
TABLE
  2
VIEW
 70
     1
  0
VIEW
  2
ALL
 70
     0
 40
179.5384664489153
 10
146.94997169852391
 20
89.769233224457665
 41
0.0
 11
0.0
 21
0.0
 31
1.0
 12
0.0
 22
0.0
 32
0.0
 42
0.0
 43
0.0
 44
0.0
 50
0.0
 71
     0
  0
ENDTAB
  0
TABLE
  2
UCS
 70
     0
  0
ENDTAB
  0
TABLE
  2
APPID
 70
     6
  0
APPID
  2
ACAD
 70
     0
  0
APPID
  2
ACAD_MLEADERVER
 70
     0
  0
APPID
  2
ACAD_EXEMPT_FROM_CAD_STANDARDS
 70
     0
  0
APPID
  2
ACAD_NAV_VCDISPLAY
 70
     0
  0
APPID
  2
ACAD_DSTYLE_DIMJAG
 70
     0
  0
APPID
  2
ACAD_DSTYLE_DIMTALN
 70
     0
  0
ENDTAB
  0
TABLE
  2
DIMSTYLE
 70
     1
  0
DIMSTYLE
  2
STANDARD
 70
     0
  3

  4

  5

  6

  7

 40
1.0
 41
0.18
 42
0.0625
 43
0.38
 44
0.18
 45
0.0
 46
0.0
 47
0.0
 48
0.0
140
0.18
141
0.09
142
0.0
143
25.399999999999999
144
1.0
145
0.0
146
1.0
147
0.09
 71
     0
 72
     0
 73
     1
 74
     1
 75
     0
 76
     0
 77
     0
 78
     0
170
     0
171
     2
172
     0
173
     0
174
     0
175
     0
176
     0
177
     0
178
     0
  0
ENDTAB
  0
ENDSEC
  0
SECTION
  2
BLOCKS
  0
BLOCK
  8
0
  2
$MODEL_SPACE
 70
     0
 10
0.0
 20
0.0
 30
0.0
  3
$MODEL_SPACE
  1

  0
ENDBLK
  5
131
  8
0
  0
BLOCK
 67
     1
  8
0
  2
$PAPER_SPACE
 70
     0
 10
0.0
 20
0.0
 30
0.0
  3
$PAPER_SPACE
  1

  0
ENDBLK
  5
12F
 67
     1
  8
0
  0
ENDSEC
  0
SECTION
  2
ENTITIES
  0
TEXT
  5
223
  8
0
 62
     3
 10
0.0
 20
0.0
 30
0.0
 40
10.0
  1
MPN-3/4HT
  7
STANDARD1
  0
LINE
  5
D82
  8
1
 10
112.7
 20
47.599999999999987
 30
0.0
 11
161.69999999999999
 21
47.599999999999987
 31
0.0
  0
LINE
  5
D83
  8
0
 10
159.19999999999999
 20
51.600000000000001
 30
0.0
 11
159.19999999999999
 21
43.599999999999987
 31
0.0
  0
LINE
  5
D84
  8
0
 10
142.19999999999999
 20
43.599999999999987
 30
0.0
 11
159.19999999999999
 21
43.599999999999987
 31
0.0
  0
LINE
  5
D85
  8
0
 10
159.19999999999999
 20
51.600000000000001
 30
0.0
 11
142.19999999999999
 21
51.600000000000001
 31
0.0
  0
LINE
  5
D86
  8
0
 10
142.19999999999999
 20
52.949999999999989
 30
0.0
 11
142.19999999999999
 21
42.25
 31
0.0
  0
LINE
  5
D87
  8
0
 10
142.19999999999999
 20
52.949999999999989
 30
0.0
 11
141.94999999999999
 21
53.199999999999989
 31
0.0
  0
LINE
  5
D88
  8
0
 10
141.94999999999999
 20
42.0
 30
0.0
 11
142.19999999999999
 21
42.25
 31
0.0
  0
LINE
  5
D89
  8
0
 10
141.94999999999999
 20
53.199999999999989
 30
0.0
 11
141.94999999999999
 21
42.0
 31
0.0
  0
LINE
  5
D8A
  8
0
 10
135.19999999999999
 20
42.0
 30
0.0
 11
141.94999999999999
 21
42.0
 31
0.0
  0
LINE
  5
D8B
  8
0
 10
141.94999999999999
 20
53.199999999999989
 30
0.0
 11
135.19999999999999
 21
53.199999999999989
 31
0.0
  0
LINE
  5
D8C
  8
0
 10
116.1237604307034
 20
65.199999999999989
 30
0.0
 11
115.2
 21
63.599999999999987
 31
0.0
  0
LINE
  5
D8D
  8
0
 10
115.2
 20
63.599999999999987
 30
0.0
 11
115.2
 21
31.600000000000001
 31
0.0
  0
LINE
  5
D8E
  8
0
 10
115.2
 20
31.600000000000001
 30
0.0
 11
116.1237604307034
 21
30.0
 31
0.0
  0
LINE
  5
D8F
  8
0
 10
124.2
 20
37.023599999999988
 30
0.0
 11
124.7
 21
37.023599999999988
 31
0.0
  0
LINE
  5
D90
  8
0
 10
124.7
 20
58.176400000000001
 30
0.0
 11
124.2
 21
58.176400000000001
 31
0.0
  0
LINE
  5
D91
  8
0
 10
124.7
 20
60.82050000000001
 30
0.0
 11
124.7
 21
34.379499999999993
 31
0.0
  0
LINE
  5
D92
  8
0
 10
124.7
 20
34.379499999999993
 30
0.0
 11
134.19999999999999
 21
34.379499999999993
 31
0.0
  0
LINE
  5
D93
  8
0
 10
134.19999999999999
 20
60.82050000000001
 30
0.0
 11
124.7
 21
60.82050000000001
 31
0.0
  0
LINE
  5
D94
  8
0
 10
135.19999999999999
 20
59.820500000000003
 30
0.0
 11
135.19999999999999
 21
35.379499999999993
 31
0.0
  0
LINE
  5
D95
  8
0
 10
134.19999999999999
 20
60.82050000000001
 30
0.0
 11
134.19999999999999
 21
34.379499999999993
 31
0.0
  0
LINE
  5
D96
  8
0
 10
135.19999999999999
 20
59.820500000000003
 30
0.0
 11
134.19999999999999
 21
60.82050000000001
 31
0.0
  0
LINE
  5
D97
  8
0
 10
134.19999999999999
 20
34.379499999999993
 30
0.0
 11
135.19999999999999
 21
35.379499999999993
 31
0.0
  0
LINE
  5
D98
  8
0
 10
124.2
 20
61.887166666666673
 30
0.0
 11
124.2
 21
33.312833333333323
 31
0.0
  0
LINE
  5
D99
  8
0
 10
123.7
 20
33.312833333333323
 30
0.0
 11
124.2
 21
33.312833333333323
 31
0.0
  0
LINE
  5
D9A
  8
0
 10
124.2
 20
61.887166666666673
 30
0.0
 11
123.7
 21
61.887166666666673
 31
0.0
  0
POLYLINE
  5
D9B
  8
0
 66
     1
 10
0.0
 20
0.0
 30
0.0
  0
VERTEX
  5
10B4
  8
0
 10
115.2
 20
61.456406460551023
 30
0.0
  0
VERTEX
  5
10B5
  8
0
 10
115.221139284312
 20
61.997931776411178
 30
0.0
  0
VERTEX
  5
10B6
  8
0
 10
115.2842695153881
 20
62.539457092271327
 30
0.0
  0
VERTEX
  5
10B7
  8
0
 10
115.414190142986
 20
63.188907567925298
 30
0.0
  0
VERTEX
  5
10B8
  8
0
 10
115.5996652195019
 20
63.835003304348483
 30
0.0
  0
VERTEX
  5
10B9
  8
0
 10
115.838229128872
 20
64.481109970057815
 30
0.0
  0
VERTEX
  5
10BA
  8
0
 10
116.1237604307034
 20
65.122467016515685
 30
0.0
  0
SEQEND
  5
10BB
  8
0
  0
POLYLINE
  5
D9C
  8
0
 66
     1
 10
0.0
 20
0.0
 30
0.0
  0
VERTEX
  5
10BC
  8
0
 10
116.1237604307034
 20
30.0775329834843
 30
0.0
  0
VERTEX
  5
10BD
  8
0
 10
115.7374066113987
 20
30.975357848325501
 30
0.0
  0
VERTEX
  5
10BE
  8
0
 10
115.4461219638924
 20
31.88461586707248
 30
0.0
  0
VERTEX
  5
10BF
  8
0
 10
115.3397893337624
 20
32.346666516703777
 30
0.0
  0
VERTEX
  5
10C0
  8
0
 10
115.2626681357744
 20
32.810158682136489
 30
0.0
  0
VERTEX
  5
10C1
  8
0
 10
115.21574587941291
 20
33.276615646938041
 30
0.0
  0
VERTEX
  5
10C2
  8
0
 10
115.2
 20
33.743593539448973
 30
0.0
  0
SEQEND
  5
10C3
  8
0
  0
POLYLINE
  5
D9D
  8
0
 66
     1
 10
0.0
 20
0.0
 30
0.0
  0
VERTEX
  5
10C4
  8
0
 10
115.2
 20
47.599999999999987
 30
0.0
  0
VERTEX
  5
10C5
  8
0
 10
115.25273333336141
 20
49.312051523068902
 30
0.0
  0
VERTEX
  5
10C6
  8
0
 10
115.4091673050137
 20
51.02410304613781
 30
0.0
  0
VERTEX
  5
10C7
  8
0
 10
115.66523906102439
 20
52.741547264708153
 30
0.0
  0
VERTEX
  5
10C8
  8
0
 10
116.01057839237779
 20
54.448206092275591
 30
0.0
  0
VERTEX
  5
10C9
  8
0
 10
116.1237604307034
 20
54.932121111929348
 30
0.0
  0
SEQEND
  5
10CA
  8
0
  0
POLYLINE
  5
D9E
  8
0
 66
     1
 10
0.0
 20
0.0
 30
0.0
  0
VERTEX
  5
10CB
  8
0
 10
116.1237604307034
 20
57.790345904586353
 30
0.0
  0
VERTEX
  5
10CC
  8
0
 10
115.7374066113987
 20
58.688170769427558
 30
0.0
  0
VERTEX
  5
10CD
  8
0
 10
115.4461219638924
 20
59.597428788174511
 30
0.0
  0
VERTEX
  5
10CE
  8
0
 10
115.3397893337624
 20
60.059479437805827
 30
0.0
  0
VERTEX
  5
10CF
  8
0
 10
115.2626681357744
 20
60.522971603238517
 30
0.0
  0
VERTEX
  5
10D0
  8
0
 10
115.21574587941291
 20
60.989428568040069
 30
0.0
  0
VERTEX
  5
10D1
  8
0
 10
115.2
 20
61.456406460551023
 30
0.0
  0
SEQEND
  5
10D2
  8
0
  0
POLYLINE
  5
D9F
  8
0
 66
     1
 10
0.0
 20
0.0
 30
0.0
  0
VERTEX
  5
10D3
  8
0
 10
115.2
 20
33.743593539448973
 30
0.0
  0
VERTEX
  5
10D4
  8
0
 10
115.221139284312
 20
34.285118855309143
 30
0.0
  0
VERTEX
  5
10D5
  8
0
 10
115.2842695153881
 20
34.826644171169292
 30
0.0
  0
VERTEX
  5
10D6
  8
0
 10
115.414190142986
 20
35.476094646823263
 30
0.0
  0
VERTEX
  5
10D7
  8
0
 10
115.5996652195019
 20
36.122190383246448
 30
0.0
  0
VERTEX
  5
10D8
  8
0
 10
115.838229128872
 20
36.768297048955787
 30
0.0
  0
VERTEX
  5
10D9
  8
0
 10
116.1237604307034
 20
37.409654095413643
 30
0.0
  0
SEQEND
  5
10DA
  8
0
  0
POLYLINE
  5
DA0
  8
0
 66
     1
 10
0.0
 20
0.0
 30
0.0
  0
VERTEX
  5
10DB
  8
0
 10
116.1237604307034
 20
40.267878888070648
 30
0.0
  0
VERTEX
  5
10DC
  8
0
 10
115.859562749285
 20
41.446859501902352
 30
0.0
  0
VERTEX
  5
10DD
  8
0
 10
115.6347244209084
 20
42.633932233231228
 30
0.0
  0
VERTEX
  5
10DE
  8
0
 10
115.4524077259355
 20
43.83451035206329
 30
0.0
  0
VERTEX
  5
10DF
  8
0
 10
115.3173773341977
 20
45.041280686877762
 30
0.0
  0
VERTEX
  5
10E0
  8
0
 10
115.2296058566838
 20
46.317988823940389
 30
0.0
  0
VERTEX
  5
10E1
  8
0
 10
115.2
 20
47.599999999999987
 30
0.0
  0
SEQEND
  5
10E2
  8
0
  0
LINE
  5
DA1
  8
0
 10
123.7
 20
65.199999999999989
 30
0.0
 11
123.7
 21
30.0
 31
0.0
  0
LINE
  5
DA2
  8
0
 10
122.2
 20
54.932121111929348
 30
0.0
 11
122.2
 21
40.267878888070648
 31
0.0
  0
LINE
  5
DA3
  8
0
 10
116.1237604307034
 20
65.122467016515685
 30
0.0
 11
122.2
 21
65.122467016515685
 31
0.0
  0
LINE
  5
DA4
  8
0
 10
122.2
 20
65.122467016515685
 30
0.0
 11
122.2
 21
57.790345904586353
 31
0.0
  0
LINE
  5
DA5
  8
0
 10
122.2
 20
57.790345904586353
 30
0.0
 11
116.1237604307034
 21
57.790345904586353
 31
0.0
  0
LINE
  5
DA6
  8
0
 10
116.1237604307034
 20
57.790345904586353
 30
0.0
 11
116.1237604307034
 21
54.932121111929348
 31
0.0
  0
LINE
  5
DA7
  8
0
 10
116.1237604307034
 20
54.932121111929348
 30
0.0
 11
122.2
 21
54.932121111929348
 31
0.0
  0
LINE
  5
DA8
  8
0
 10
122.2
 20
40.267878888070648
 30
0.0
 11
116.1237604307034
 21
40.267878888070648
 31
0.0
  0
LINE
  5
DA9
  8
0
 10
116.1237604307034
 20
40.267878888070648
 30
0.0
 11
116.1237604307034
 21
37.409654095413643
 31
0.0
  0
LINE
  5
DAA
  8
0
 10
116.1237604307034
 20
37.409654095413643
 30
0.0
 11
122.2
 21
37.409654095413657
 31
0.0
  0
LINE
  5
DAB
  8
0
 10
122.2
 20
37.409654095413657
 30
0.0
 11
122.2
 21
30.0775329834843
 31
0.0
  0
LINE
  5
DAC
  8
0
 10
122.2
 20
30.0775329834843
 30
0.0
 11
116.1237604307034
 21
30.0775329834843
 31
0.0
  0
LINE
  5
DAD
  8
0
 10
116.1237604307034
 20
30.0775329834843
 30
0.0
 11
116.1237604307034
 21
30.0
 31
0.0
  0
LINE
  5
DAE
  8
0
 10
116.1237604307034
 20
30.0
 30
0.0
 11
123.7
 21
30.0
 31
0.0
  0
LINE
  5
DAF
  8
0
 10
123.7
 20
65.199999999999989
 30
0.0
 11
116.1237604307034
 21
65.199999999999989
 31
0.0
  0
LINE
  5
DB0
  8
0
 10
116.1237604307034
 20
65.199999999999989
 30
0.0
 11
116.1237604307034
 21
65.122467016515685
 31
0.0
  0
LINE
  5
DB1
  8
3
 10
135.19999999999999
 20
59.658499999999997
 30
0.0
 11
124.7
 21
59.658499999999997
 31
0.0
  0
LINE
  5
DB2
  8
3
 10
135.19999999999999
 20
35.541499999999992
 30
0.0
 11
124.7
 21
35.541499999999992
 31
0.0
  0
LINE
  5
DB7
  8
1
 10
112.7
 20
132.80000000000001
 30
0.0
 11
161.69999999999999
 21
132.80000000000001
 31
0.0
  0
LINE
  5
DB8
  8
0
 10
142.19999999999999
 20
128.80000000000001
 30
0.0
 11
159.19999999999999
 21
128.80000000000001
 31
0.0
  0
LINE
  5
DB9
  8
0
 10
159.19999999999999
 20
136.80000000000001
 30
0.0
 11
142.19999999999999
 21
136.80000000000001
 31
0.0
  0
LINE
  5
DBA
  8
0
 10
159.19999999999999
 20
136.80000000000001
 30
0.0
 11
159.19999999999999
 21
128.80000000000001
 31
0.0
  0
LINE
  5
DBB
  8
0
 10
142.19999999999999
 20
138.14999999999989
 30
0.0
 11
141.94999999999999
 21
138.40000000000001
 31
0.0
  0
LINE
  5
DBC
  8
0
 10
141.94999999999999
 20
127.2
 30
0.0
 11
142.19999999999999
 21
127.45
 31
0.0
  0
LINE
  5
DBD
  8
0
 10
142.19999999999999
 20
138.14999999999989
 30
0.0
 11
142.19999999999999
 21
127.45
 31
0.0
  0
LINE
  5
DBE
  8
0
 10
135.19999999999999
 20
127.2
 30
0.0
 11
141.94999999999999
 21
127.2
 31
0.0
  0
LINE
  5
DBF
  8
0
 10
141.94999999999999
 20
138.40000000000001
 30
0.0
 11
135.19999999999999
 21
138.40000000000001
 31
0.0
  0
LINE
  5
DC0
  8
0
 10
141.94999999999999
 20
138.40000000000001
 30
0.0
 11
141.94999999999999
 21
127.2
 31
0.0
  0
LINE
  5
DC1
  8
0
 10
124.2
 20
122.2236
 30
0.0
 11
124.7
 21
122.2236
 31
0.0
  0
LINE
  5
DC2
  8
0
 10
124.7
 20
143.37639999999999
 30
0.0
 11
124.2
 21
143.37639999999999
 31
0.0
  0
LINE
  5
DC3
  8
0
 10
135.19999999999999
 20
145.0205
 30
0.0
 11
134.19999999999999
 21
146.0205
 31
0.0
  0
LINE
  5
DC4
  8
0
 10
134.19999999999999
 20
119.5794999999999
 30
0.0
 11
135.19999999999999
 21
120.5794999999999
 31
0.0
  0
LINE
  5
DC5
  8
0
 10
135.19999999999999
 20
145.0205
 30
0.0
 11
135.19999999999999
 21
120.5794999999999
 31
0.0
  0
LINE
  5
DC6
  8
0
 10
124.7
 20
119.5794999999999
 30
0.0
 11
134.19999999999999
 21
119.5794999999999
 31
0.0
  0
LINE
  5
DC7
  8
0
 10
134.19999999999999
 20
146.0205
 30
0.0
 11
124.7
 21
146.0205
 31
0.0
  0
LINE
  5
DC8
  8
0
 10
134.19999999999999
 20
146.0205
 30
0.0
 11
134.19999999999999
 21
119.5794999999999
 31
0.0
  0
LINE
  5
DC9
  8
0
 10
124.7
 20
146.0205
 30
0.0
 11
124.7
 21
119.5794999999999
 31
0.0
  0
LINE
  5
DCA
  8
0
 10
122.2
 20
148.7999999999999
 30
0.0
 11
115.2
 21
148.7999999999999
 31
0.0
  0
LINE
  5
DCB
  8
0
 10
115.2
 20
148.7999999999999
 30
0.0
 11
115.2
 21
116.8
 31
0.0
  0
LINE
  5
DCC
  8
0
 10
115.2
 20
116.8
 30
0.0
 11
122.2
 21
116.8
 31
0.0
  0
LINE
  5
DCD
  8
0
 10
123.7
 20
118.5128333333333
 30
0.0
 11
124.2
 21
118.5128333333333
 31
0.0
  0
LINE
  5
DCE
  8
0
 10
124.2
 20
147.0871666666666
 30
0.0
 11
123.7
 21
147.0871666666666
 31
0.0
  0
LINE
  5
DCF
  8
0
 10
124.2
 20
147.0871666666666
 30
0.0
 11
124.2
 21
118.5128333333333
 31
0.0
  0
POLYLINE
  5
DD0
  8
0
 66
     1
 10
0.0
 20
0.0
 30
0.0
  0
VERTEX
  5
10E3
  8
0
 10
115.2
 20
140.80000000000001
 30
0.0
  0
VERTEX
  5
10E4
  8
0
 10
115.221139284312
 20
141.7379493606546
 30
0.0
  0
VERTEX
  5
10E5
  8
0
 10
115.2842695153881
 20
142.6758987213091
 30
0.0
  0
VERTEX
  5
10E6
  8
0
 10
115.414190142986
 20
143.80077994214159
 30
0.0
  0
VERTEX
  5
10E7
  8
0
 10
115.5996652195019
 20
144.91985058418021
 30
0.0
  0
VERTEX
  5
10E8
  8
0
 10
115.838229128872
 20
146.0389401562976
 30
0.0
  0
VERTEX
  5
10E9
  8
0
 10
116.1237604307034
 20
147.149803146555
 30
0.0
  0
SEQEND
  5
10EA
  8
0
  0
POLYLINE
  5
DD1
  8
0
 66
     1
 10
0.0
 20
0.0
 30
0.0
  0
VERTEX
  5
10EB
  8
0
 10
116.1237604307034
 20
118.45019685344499
 30
0.0
  0
VERTEX
  5
10EC
  8
0
 10
115.7370110703518
 20
120.00749489662169
 30
0.0
  0
VERTEX
  5
10ED
  8
0
 10
115.4461219638924
 20
121.5801562213077
 30
0.0
  0
VERTEX
  5
10EE
  8
0
 10
115.3107844278539
 20
122.6499291861649
 30
0.0
  0
VERTEX
  5
10EF
  8
0
 10
115.22804532905
 20
123.7241815607601
 30
0.0
  0
VERTEX
  5
10F0
  8
0
 10
115.2
 20
124.7999999999999
 30
0.0
  0
SEQEND
  5
10F1
  8
0
  0
LINE
  5
DD2
  8
0
 10
116.1237604307034
 20
148.7999999999999
 30
0.0
 11
116.1237604307034
 21
147.149803146555
 31
0.0
  0
LINE
  5
DD3
  8
0
 10
116.1237604307034
 20
147.149803146555
 30
0.0
 11
122.2
 21
147.149803146555
 31
0.0
  0
LINE
  5
DD4
  8
0
 10
122.2
 20
147.149803146555
 30
0.0
 11
122.2
 21
134.45019685344491
 31
0.0
  0
LINE
  5
DD5
  8
0
 10
122.2
 20
134.45019685344491
 30
0.0
 11
116.1237604307034
 21
134.45019685344491
 31
0.0
  0
LINE
  5
DD6
  8
0
 10
116.1237604307034
 20
131.149803146555
 30
0.0
 11
122.2
 21
131.149803146555
 31
0.0
  0
LINE
  5
DD7
  8
0
 10
122.2
 20
131.149803146555
 30
0.0
 11
122.2
 21
118.45019685344499
 31
0.0
  0
LINE
  5
DD8
  8
0
 10
122.2
 20
118.45019685344499
 30
0.0
 11
116.1237604307034
 21
118.45019685344499
 31
0.0
  0
LINE
  5
DD9
  8
0
 10
116.1237604307034
 20
118.45019685344499
 30
0.0
 11
116.1237604307034
 21
116.8
 31
0.0
  0
LINE
  5
DDA
  8
0
 10
122.2
 20
116.8
 30
0.0
 11
122.2
 21
115.2
 31
0.0
  0
LINE
  5
DDB
  8
0
 10
122.2
 20
115.2
 30
0.0
 11
123.7
 21
115.2
 31
0.0
  0
LINE
  5
DDC
  8
0
 10
123.7
 20
150.40000000000001
 30
0.0
 11
122.2
 21
150.40000000000001
 31
0.0
  0
LINE
  5
DDD
  8
0
 10
123.7
 20
150.40000000000001
 30
0.0
 11
123.7
 21
115.2
 31
0.0
  0
LINE
  5
DDE
  8
0
 10
122.2
 20
150.40000000000001
 30
0.0
 11
122.2
 21
148.7999999999999
 31
0.0
  0
LINE
  5
DDF
  8
0
 10
116.1237604307034
 20
134.45019685344491
 30
0.0
 11
116.1237604307034
 21
131.149803146555
 31
0.0
  0
POLYLINE
  5
DE0
  8
0
 66
     1
 10
0.0
 20
0.0
 30
0.0
  0
VERTEX
  5
10F2
  8
0
 10
116.1237604307034
 20
134.45019685344491
 30
0.0
  0
VERTEX
  5
10F3
  8
0
 10
115.7370110703518
 20
136.00749489662169
 30
0.0
  0
VERTEX
  5
10F4
  8
0
 10
115.4461219638924
 20
137.5801562213077
 30
0.0
  0
VERTEX
  5
10F5
  8
0
 10
115.3107844278539
 20
138.64992918616491
 30
0.0
  0
VERTEX
  5
10F6
  8
0
 10
115.22804532905
 20
139.7241815607602
 30
0.0
  0
VERTEX
  5
10F7
  8
0
 10
115.2
 20
140.80000000000001
 30
0.0
  0
SEQEND
  5
10F8
  8
0
  0
POLYLINE
  5
DE1
  8
0
 66
     1
 10
0.0
 20
0.0
 30
0.0
  0
VERTEX
  5
10F9
  8
0
 10
115.2
 20
124.7999999999999
 30
0.0
  0
VERTEX
  5
10FA
  8
0
 10
115.221139284312
 20
125.7379493606545
 30
0.0
  0
VERTEX
  5
10FB
  8
0
 10
115.2842695153881
 20
126.6758987213091
 30
0.0
  0
VERTEX
  5
10FC
  8
0
 10
115.414190142986
 20
127.8007799421416
 30
0.0
  0
VERTEX
  5
10FD
  8
0
 10
115.5996652195019
 20
128.91985058418021
 30
0.0
  0
VERTEX
  5
10FE
  8
0
 10
115.838229128872
 20
130.03894015629771
 30
0.0
  0
VERTEX
  5
10FF
  8
0
 10
116.1237604307034
 20
131.149803146555
 30
0.0
  0
SEQEND
  5
1100
  8
0
  0
LINE
  5
DE2
  8
3
 10
135.19999999999999
 20
144.85849999999999
 30
0.0
 11
124.7
 21
144.85849999999999
 31
0.0
  0
LINE
  5
DE3
  8
3
 10
135.19999999999999
 20
120.7414999999999
 30
0.0
 11
124.7
 21
120.7414999999999
 31
0.0
  0
LINE
  5
DE4
  8
0
 10
65.122467016515685
 20
134.45019685344491
 30
0.0
 11
57.790345904586353
 21
147.149803146555
 31
0.0
  0
LINE
  5
DE5
  8
0
 10
57.790345904586353
 20
118.45019685344499
 30
0.0
 11
65.122467016515685
 21
131.149803146555
 31
0.0
  0
LINE
  5
DE6
  8
0
 10
40.267878888070612
 20
116.8
 30
0.0
 11
54.932121111929312
 21
116.8
 31
0.0
  0
LINE
  5
DE7
  8
0
 10
54.932121111929384
 20
148.7999999999999
 30
0.0
 11
40.267878888070662
 21
148.7999999999999
 31
0.0
  0
LINE
  5
DE8
  8
0
 10
37.409654095413629
 20
147.149803146555
 30
0.0
 11
30.0775329834843
 21
134.45019685344491
 31
0.0
  0
LINE
  5
DE9
  8
0
 10
30.0775329834843
 20
131.149803146555
 30
0.0
 11
37.409654095413629
 21
118.45019685344499
 31
0.0
  0
CIRCLE
  5
DEA
  8
0
 10
47.599999999999987
 20
132.80000000000001
 30
0.0
 40
10.5764
  0
CIRCLE
  5
DEB
  8
0
 10
47.599999999999987
 20
132.80000000000001
 30
0.0
 40
16.000000000000021
  0
LINE
  5
DEC
  8
1
 10
25.0
 20
132.80000000000001
 30
0.0
 11
70.199999999999989
 21
132.80000000000001
 31
0.0
  0
LINE
  5
DED
  8
1
 10
47.599999999999987
 20
110.2
 30
0.0
 11
47.599999999999987
 21
155.40000000000001
 31
0.0
  0
CIRCLE
  5
DEE
  8
0
 10
47.599999999999987
 20
132.80000000000001
 30
0.0
 40
17.600000000000001
  0
LINE
  5
DFE
  8
1
 10
204.2000000000001
 20
132.80000000000001
 30
0.0
 11
249.40000000000001
 21
132.80000000000001
 31
0.0
  0
LINE
  5
DFF
  8
1
 10
226.80000000000001
 20
110.2
 30
0.0
 11
226.80000000000001
 21
155.40000000000001
 31
0.0
  0
CIRCLE
  5
E00
  8
0
 10
226.80000000000001
 20
132.80000000000001
 30
0.0
 40
17.600000000000001
  0
CIRCLE
  5
E01
  8
0
 10
226.80000000000001
 20
132.80000000000001
 30
0.0
 40
14.287166666666669
  0
CIRCLE
  5
E03
  8
0
 10
226.80000000000001
 20
132.80000000000001
 30
0.0
 40
13.220499999999999
  0
CIRCLE
  5
E04
  8
0
 10
226.80000000000001
 20
132.80000000000001
 30
0.0
 40
5.5999999999999988
  0
CIRCLE
  5
E06
  8
0
 10
226.80000000000001
 20
132.80000000000001
 30
0.0
 40
4.0
  0
CIRCLE
  5
E07
  8
3
 10
226.80000000000001
 20
132.80000000000001
 30
0.0
 40
12.0585
  0
ENDSEC
  0
EOF
