  0
SECTION
  2
HEADER
  9
$ACADVER
  1
AC1009
  9
$INSBASE
 10
0.0
 20
0.0
 30
0.0
  9
$EXTMIN
 10
0.0
 20
-2.960436562073669
 30
0.0
  9
$EXTMAX
 10
618.99998784069976
 20
258.0000002680996
 30
0.0
  9
$LIMMIN
 10
0.0
 20
0.0
  9
$LIMMAX
 10
1125.0
 20
810.0
  9
$ORTHOMODE
 70
     1
  9
$REGENMODE
 70
     1
  9
$FILLMODE
 70
     1
  9
$QTEXTMODE
 70
     0
  9
$MIRRTEXT
 70
     0
  9
$DRAGMODE
 70
     2
  9
$LTSCALE
 40
30.0
  9
$OSMODE
 70
    37
  9
$ATTMODE
 70
     1
  9
$TEXTSIZE
 40
8.0000000000000497
  9
$TRACEWID
 40
0.05
  9
$TEXTSTYLE
  7
STANDARD
  9
$CLAYER
  8
0
  9
$CELTYPE
  6
BYLAYER
  9
$CECOLOR
 62
   256
  9
$DIMSCALE
 40
3.0
  9
$DIMASZ
 40
3.0
  9
$DIMEXO
 40
2.0
  9
$DIMDLI
 40
0.38
  9
$DIMRND
 40
0.0
  9
$DIMDLE
 40
0.0
  9
$DIMEXE
 40
2.0
  9
$DIMTP
 40
0.0
  9
$DIMTM
 40
0.0
  9
$DIMTXT
 40
3.2000000000000002
  9
$DIMCEN
 40
0.0
  9
$DIMTSZ
 40
0.0
  9
$DIMTOL
 70
     0
  9
$DIMLIM
 70
     0
  9
$DIMTIH
 70
     0
  9
$DIMTOH
 70
     0
  9
$DIMSE1
 70
     0
  9
$DIMSE2
 70
     0
  9
$DIMTAD
 70
     1
  9
$DIMZIN
 70
     0
  9
$DIMBLK
  1

  9
$DIMASO
 70
     1
  9
$DIMSHO
 70
     0
  9
$DIMPOST
  1

  9
$DIMAPOST
  1

  9
$DIMALT
 70
     0
  9
$DIMALTD
 70
     2
  9
$DIMALTF
 40
25.399999999999999
  9
$DIMLFAC
 40
1.0
  9
$DIMTOFL
 70
     1
  9
$DIMTVP
 40
1.6000000000000001
  9
$DIMTIX
 70
     1
  9
$DIMSOXD
 70
     0
  9
$DIMSAH
 70
     0
  9
$DIMBLK1
  1

  9
$DIMBLK2
  1

  9
$DIMSTYLE
  2
STANDARD
  9
$DIMCLRD
 70
     0
  9
$DIMCLRE
 70
     0
  9
$DIMCLRT
 70
     0
  9
$DIMTFAC
 40
1.0
  9
$DIMGAP
 40
0.09
  9
$LUNITS
 70
     2
  9
$LUPREC
 70
     4
  9
$SKETCHINC
 40
0.1
  9
$FILLETRAD
 40
20.0
  9
$AUNITS
 70
     0
  9
$AUPREC
 70
     4
  9
$MENU
  1
E:\r13\win\SUPPORT\ACAD
  9
$ELEVATION
 40
0.0
  9
$PELEVATION
 40
0.0
  9
$THICKNESS
 40
0.0
  9
$LIMCHECK
 70
     0
  9
$BLIPMODE
 70
     0
  9
$CHAMFERA
 40
0.0
  9
$CHAMFERB
 40
0.0
  9
$SKPOLY
 70
     0
  9
$TDCREATE
 40
2449840.644942129
  9
$TDUPDATE
 40
2457711.3984756828
  9
$TDINDWG
 40
0.0423588657
  9
$TDUSRTIMER
 40
0.0423588657
  9
$USRTIMER
 70
     1
  9
$ANGBASE
 50
0.0
  9
$ANGDIR
 70
     0
  9
$PDMODE
 70
    35
  9
$PDSIZE
 40
0.0
  9
$PLINEWID
 40
0.0
  9
$COORDS
 70
     1
  9
$SPLFRAME
 70
     0
  9
$SPLINETYPE
 70
     6
  9
$SPLINESEGS
 70
     8
  9
$ATTDIA
 70
     0
  9
$ATTREQ
 70
     1
  9
$HANDLING
 70
     1
  9
$HANDSEED
  5
AAA
  9
$SURFTAB1
 70
     6
  9
$SURFTAB2
 70
     6
  9
$SURFTYPE
 70
     6
  9
$SURFU
 70
     6
  9
$SURFV
 70
     6
  9
$UCSNAME
  2

  9
$UCSORG
 10
0.0
 20
0.0
 30
0.0
  9
$UCSXDIR
 10
1.0
 20
0.0
 30
0.0
  9
$UCSYDIR
 10
0.0
 20
1.0
 30
0.0
  9
$PUCSNAME
  2

  9
$PUCSORG
 10
0.0
 20
0.0
 30
0.0
  9
$PUCSXDIR
 10
1.0
 20
0.0
 30
0.0
  9
$PUCSYDIR
 10
0.0
 20
1.0
 30
0.0
  9
$USERI1
 70
     0
  9
$USERI2
 70
     1
  9
$USERI3
 70
     1
  9
$USERI4
 70
     0
  9
$USERI5
 70
     0
  9
$USERR1
 40
0.0
  9
$USERR2
 40
0.0
  9
$USERR3
 40
0.0
  9
$USERR4
 40
0.0
  9
$USERR5
 40
0.0
  9
$WORLDVIEW
 70
     1
  9
$SHADEDGE
 70
     3
  9
$SHADEDIF
 70
    70
  9
$TILEMODE
 70
     1
  9
$MAXACTVP
 70
    16
  9
$PLIMCHECK
 70
     0
  9
$PEXTMIN
 10
1.0000000000000000E+020
 20
1.0000000000000000E+020
 30
1.0000000000000000E+020
  9
$PEXTMAX
 10
-1.0000000000000000E+020
 20
-1.0000000000000000E+020
 30
-1.0000000000000000E+020
  9
$PLIMMIN
 10
0.0
 20
0.0
  9
$PLIMMAX
 10
12.0
 20
9.0
  9
$UNITMODE
 70
     0
  9
$VISRETAIN
 70
     0
  9
$PLINEGEN
 70
     0
  9
$PSLTSCALE
 70
     0
  0
ENDSEC
  0
SECTION
  2
TABLES
  0
TABLE
  2
VPORT
 70
     1
  0
VPORT
  2
*ACTIVE
 70
     0
 10
0.0
 20
0.0
 11
1.0
 21
1.0
 12
457.25856261761402
 22
127.5027574633301
 13
0.0
 23
0.0
 14
30.0
 24
30.0
 15
30.0
 25
30.0
 16
0.0
 26
0.0
 36
1.0
 17
0.0
 27
0.0
 37
0.0
 40
505.82847562198242
 41
1.816239316239316
 42
50.0
 43
0.0
 44
0.0
 50
0.0
 51
0.0
 71
     0
 72
   500
 73
     1
 74
     0
 75
     0
 76
     0
 77
     0
 78
     0
  0
ENDTAB
  0
TABLE
  2
LTYPE
 70
     4
  0
LTYPE
  2
CONTINUOUS
 70
     0
  3
Solid Line
 72
    65
 73
     0
 40
0.0
  0
LTYPE
  2
CENTER
 70
     0
  3
____ _ ____ _ ____ _ ____ _ ____ _ ____ _ ____
 72
    65
 73
     4
 40
2.0
 49
1.25
 49
-0.25
 49
0.25
 49
-0.25
  0
LTYPE
  2
HIDDEN
 70
     0
  3
_ _ _ _ _ _ _ _ _ _ _ _ _ _ _ _ _ _ _ _ _ _ _
 72
    65
 73
     2
 40
0.375
 49
0.25
 49
-0.125
  0
LTYPE
  2
PHANTOM2
 70
     0
  3
___ _ _ ___ _ _ ___ _ _ ___ _ _
 72
    65
 73
     6
 40
1.25
 49
0.625
 49
-0.125
 49
0.125
 49
-0.125
 49
0.125
 49
-0.125
  0
ENDTAB
  0
TABLE
  2
LAYER
 70
     4
  0
LAYER
  2
0
 70
     0
 62
     7
  6
CONTINUOUS
  0
LAYER
  2
1
 70
     0
 62
     1
  6
CENTER
  0
LAYER
  2
3
 70
     0
 62
     3
  6
CONTINUOUS
  0
LAYER
  2
2
 70
     0
 62
     2
  6
HIDDEN
  0
ENDTAB
  0
TABLE
  2
STYLE
 70
     2
  0
STYLE
  2
STANDARD
 70
     0
 40
0.0
 41
1.0
 50
0.0
 71
     0
 42
8.0000000000000497
  3
TXT
  4
BIGFONT
  0
STYLE
  2
STANDARD1
 70
     0
 40
0.0
 41
1.0
 50
0.0
 71
     0
 42
3.0
  3
txt
  4

  0
ENDTAB
  0
TABLE
  2
VIEW
 70
     1
  0
VIEW
  2
ALL
 70
     0
 40
810.0
 10
639.77067226890745
 20
405.0
 41
0.0
 11
0.0
 21
0.0
 31
1.0
 12
0.0
 22
0.0
 32
0.0
 42
0.0
 43
0.0
 44
0.0
 50
0.0
 71
     0
  0
ENDTAB
  0
TABLE
  2
UCS
 70
     0
  0
ENDTAB
  0
TABLE
  2
APPID
 70
     6
  0
APPID
  2
ACAD
 70
     0
  0
APPID
  2
ACAD_MLEADERVER
 70
     0
  0
APPID
  2
ACAD_EXEMPT_FROM_CAD_STANDARDS
 70
     0
  0
APPID
  2
ACAD_NAV_VCDISPLAY
 70
     0
  0
APPID
  2
ACAECLAYERSTANDARD
 70
     0
  0
APPID
  2
ACCMTRANSPARENCY
 70
     0
  0
ENDTAB
  0
TABLE
  2
DIMSTYLE
 70
     2
  0
DIMSTYLE
  2
STANDARD
 70
     0
  3

  4

  5

  6

  7

 40
1.0
 41
0.18
 42
0.0625
 43
0.38
 44
0.18
 45
0.0
 46
0.0
 47
0.0
 48
0.0
140
0.18
141
0.09
142
0.0
143
25.399999999999999
144
1.0
145
0.0
146
1.0
147
0.09
 71
     0
 72
     0
 73
     1
 74
     1
 75
     0
 76
     0
 77
     0
 78
     0
170
     0
171
     2
172
     0
173
     0
174
     0
175
     0
176
     0
177
     0
178
     0
  0
DIMSTYLE
  2
ISO-25
 70
     0
  3

  4

  5

  6

  7

 40
1.0
 41
2.5
 42
0.625
 43
3.75
 44
1.25
 45
0.0
 46
0.0
 47
0.0
 48
0.0
140
2.5
141
2.5
142
0.0
143
0.0393700787
144
1.0
145
0.0
146
1.0
147
0.625
 71
     0
 72
     0
 73
     0
 74
     0
 75
     0
 76
     0
 77
     1
 78
     8
170
     0
171
     3
172
     1
173
     0
174
     0
175
     0
176
     0
177
     0
178
     0
  0
ENDTAB
  0
ENDSEC
  0
SECTION
  2
BLOCKS
  0
BLOCK
  8
0
  2
$MODEL_SPACE
 70
     0
 10
0.0
 20
0.0
 30
0.0
  3
$MODEL_SPACE
  1

  0
ENDBLK
  5
1DA
  8
0
  0
BLOCK
 67
     1
  8
0
  2
$PAPER_SPACE
 70
     0
 10
0.0
 20
0.0
 30
0.0
  3
$PAPER_SPACE
  1

  0
ENDBLK
  5
1D8
 67
     1
  8
0
  0
BLOCK
  8
0
  2
A$C00652CDA
 70
     0
 10
0.0
 20
0.0
 30
0.0
  3
A$C00652CDA
  1

  0
LINE
  5
31F
  8
0
 10
871.89285096042522
 20
316.9372784827147
 30
0.0
 11
171.8928628813253
 21
316.9372784827147
 31
0.0
  0
LINE
  5
320
  8
0
 10
171.8928628813253
 20
316.9372784827147
 30
0.0
 11
171.8928628813253
 21
304.9372783784147
 31
0.0
  0
LINE
  5
321
  8
0
 10
171.8928628813253
 20
304.9372783784147
 30
0.0
 11
190.5683070097061
 21
304.9372783784147
 31
0.0
  0
LINE
  5
322
  8
0
 10
203.21741875294421
 20
304.9372783784147
 30
0.0
 11
240.56830641142531
 21
304.9372783784147
 31
0.0
  0
LINE
  5
323
  8
0
 10
253.21741786112511
 20
304.9372783784147
 30
0.0
 11
340.5683004510251
 21
304.9372783784147
 31
0.0
  0
LINE
  5
324
  8
0
 10
353.21741935132502
 20
304.9372783784147
 30
0.0
 11
440.56830700970619
 21
304.9372783784147
 31
0.0
  0
LINE
  5
325
  8
0
 10
453.21741875294413
 20
304.9372783784147
 30
0.0
 11
540.56830700970625
 21
304.9372783784147
 31
0.0
  0
LINE
  5
326
  8
0
 10
553.21741875294413
 20
304.9372783784147
 30
0.0
 11
640.56830700970613
 21
304.9372783784147
 31
0.0
  0
LINE
  5
327
  8
0
 10
653.21741875294447
 20
304.9372783784147
 30
0.0
 11
740.56830700970613
 21
304.9372783784147
 31
0.0
  0
LINE
  5
328
  8
0
 10
753.21741875294447
 20
304.9372783784147
 30
0.0
 11
790.5683332335251
 21
304.9372783784147
 31
0.0
  0
ARC
  5
329
  8
0
 10
796.89286288132485
 20
295.93727876581443
 30
0.0
 40
11.000000000001579
 50
54.903198772401183
 51
125.0968012275988
  0
LINE
  5
32A
  8
0
 10
803.21739252922509
 20
304.9372783784147
 30
0.0
 11
840.56830700970556
 21
304.9372783784147
 31
0.0
  0
LINE
  5
32B
  8
0
 10
853.21741875294379
 20
304.9372783784147
 30
0.0
 11
871.89285096042522
 21
304.9372783784147
 31
0.0
  0
LINE
  5
32C
  8
0
 10
871.89285096042522
 20
304.9372783784147
 30
0.0
 11
871.89285096042522
 21
316.9372784827147
 31
0.0
  0
LINE
  5
32D
  8
0
 10
803.21739252922509
 20
286.93727915321438
 30
0.0
 11
840.56830700970511
 21
286.93727915321438
 31
0.0
  0
ARC
  5
32E
  8
0
 10
796.89286288132485
 20
295.93727876581443
 30
0.0
 40
11.000000000001799
 50
234.9031987724012
 51
305.0968012275988
  0
LINE
  5
32F
  8
0
 10
753.21741875294481
 20
286.93727915321438
 30
0.0
 11
790.5683332335251
 21
286.93727915321438
 31
0.0
  0
LINE
  5
330
  8
0
 10
653.21741875294481
 20
286.93727915321438
 30
0.0
 11
740.56830700970556
 21
286.93727915321438
 31
0.0
  0
LINE
  5
331
  8
0
 10
553.21741875294515
 20
286.93727915321438
 30
0.0
 11
640.56830700970556
 21
286.93727915321438
 31
0.0
  0
LINE
  5
332
  8
0
 10
453.21741875294492
 20
286.93727915321438
 30
0.0
 11
540.56830700970556
 21
286.93727915321438
 31
0.0
  0
LINE
  5
333
  8
0
 10
353.21741935132502
 20
286.93727915321438
 30
0.0
 11
440.56830700970539
 21
286.93727915321438
 31
0.0
  0
LINE
  5
334
  8
0
 10
253.21741786112511
 20
286.93727915321438
 30
0.0
 11
340.5683004510251
 21
286.93727915321438
 31
0.0
  0
LINE
  5
335
  8
0
 10
203.21741875294501
 20
286.93727915321438
 30
0.0
 11
240.56830641142531
 21
286.93727915321438
 31
0.0
  0
LINE
  5
336
  8
0
 10
171.8928628813253
 20
286.93727915321438
 30
0.0
 11
190.56830700970531
 21
286.93727915321438
 31
0.0
  0
LINE
  5
337
  8
0
 10
171.8928628813253
 20
286.93727915321438
 30
0.0
 11
171.8928628813253
 21
274.93727904891449
 31
0.0
  0
LINE
  5
338
  8
0
 10
871.89285096042522
 20
274.93727904891449
 30
0.0
 11
171.8928628813253
 21
274.93727904891449
 31
0.0
  0
LINE
  5
339
  8
0
 10
871.89285096042522
 20
274.93727904891449
 30
0.0
 11
871.89285096042522
 21
286.93727915321438
 31
0.0
  0
LINE
  5
33A
  8
0
 10
853.21741875294447
 20
286.93727915321438
 30
0.0
 11
871.89285096042522
 21
286.93727915321438
 31
0.0
  0
LINE
  5
33B
  8
0
 10
871.89285096042522
 20
287.93727838581458
 30
0.0
 11
871.89285096042522
 21
286.93727915321438
 31
0.0
  0
LINE
  5
33C
  8
0
 10
871.89285096042522
 20
287.93727838581458
 30
0.0
 11
852.89285715932488
 21
287.93727838581458
 31
0.0
  0
LINE
  5
33D
  8
0
 10
190.8928622704253
 20
287.93727838581458
 30
0.0
 11
171.8928628813253
 21
287.93727838581458
 31
0.0
  0
LINE
  5
33E
  8
0
 10
171.8928628813253
 20
286.93727915321438
 30
0.0
 11
171.8928628813253
 21
287.93727838581458
 31
0.0
  0
LINE
  5
33F
  8
0
 10
871.89285096042522
 20
303.93727914581439
 30
0.0
 11
852.89285715932488
 21
303.93727914581439
 31
0.0
  0
LINE
  5
340
  8
0
 10
871.89285096042522
 20
304.9372783784147
 30
0.0
 11
871.89285096042522
 21
303.93727914581439
 31
0.0
  0
LINE
  5
341
  8
0
 10
171.8928628813253
 20
303.93727914581439
 30
0.0
 11
171.8928628813253
 21
304.9372783784147
 31
0.0
  0
LINE
  5
342
  8
0
 10
190.8928622704253
 20
303.93727914581439
 30
0.0
 11
171.8928628813253
 21
303.93727914581439
 31
0.0
  0
LINE
  5
343
  8
0
 10
540.89285072202517
 20
303.93727914581439
 30
0.0
 11
452.8928511988251
 21
303.93727914581439
 31
0.0
  0
LINE
  5
344
  8
0
 10
540.89285072202517
 20
287.93727838581458
 30
0.0
 11
452.8928511988251
 21
287.93727838581458
 31
0.0
  0
LINE
  5
345
  8
0
 10
640.8928745638251
 20
287.93727838581458
 30
0.0
 11
552.89287504072513
 21
287.93727838581458
 31
0.0
  0
LINE
  5
346
  8
0
 10
171.8928628813253
 20
317.9372786466144
 30
0.0
 11
871.89285096042522
 21
317.9372786466144
 31
0.0
  0
LINE
  5
347
  8
0
 10
871.89285096042522
 20
317.9372786466144
 30
0.0
 11
871.89285096042522
 21
316.9372784827147
 31
0.0
  0
LINE
  5
348
  8
0
 10
171.8928628813253
 20
316.9372784827147
 30
0.0
 11
171.8928628813253
 21
317.9372786466144
 31
0.0
  0
LINE
  5
349
  8
0
 10
840.89289244522513
 20
287.93727838581458
 30
0.0
 11
802.89284523842491
 21
287.93727838581458
 31
0.0
  0
LINE
  5
34A
  8
0
 10
803.21739252922509
 20
286.93727915321438
 30
0.0
 11
802.89284523842491
 21
287.93727838581458
 31
0.0
  0
LINE
  5
34B
  8
0
 10
440.89285668252512
 20
287.93727838581458
 30
0.0
 11
352.8928571593251
 21
287.93727838581458
 31
0.0
  0
LINE
  5
34C
  8
0
 10
240.89286115282511
 20
287.93727838581458
 30
0.0
 11
202.89286237472521
 21
287.93727838581458
 31
0.0
  0
LINE
  5
34D
  8
0
 10
440.89285668252512
 20
303.93727914581439
 30
0.0
 11
352.8928571593251
 21
303.93727914581439
 31
0.0
  0
LINE
  5
34E
  8
0
 10
240.89286115282511
 20
303.93727914581439
 30
0.0
 11
202.89286237472521
 21
303.93727914581439
 31
0.0
  0
LINE
  5
34F
  8
0
 10
740.8928686034252
 20
287.93727838581458
 30
0.0
 11
652.89286908022495
 21
287.93727838581458
 31
0.0
  0
LINE
  5
350
  8
0
 10
790.89288052432516
 20
287.93727838581458
 30
0.0
 11
790.5683332335251
 21
286.93727915321438
 31
0.0
  0
LINE
  5
351
  8
0
 10
790.89288052432516
 20
287.93727838581458
 30
0.0
 11
752.89283331742502
 21
287.93727838581458
 31
0.0
  0
LINE
  5
352
  8
0
 10
790.89288052432516
 20
303.93727914581439
 30
0.0
 11
752.89283331742502
 21
303.93727914581439
 31
0.0
  0
LINE
  5
353
  8
0
 10
790.5683332335251
 20
304.9372783784147
 30
0.0
 11
790.89288052432516
 21
303.93727914581439
 31
0.0
  0
LINE
  5
354
  8
0
 10
640.8928745638251
 20
303.93727914581439
 30
0.0
 11
552.89287504072513
 21
303.93727914581439
 31
0.0
  0
LINE
  5
355
  8
0
 10
171.8928628813253
 20
273.93727888501468
 30
0.0
 11
871.89285096042522
 21
273.93727888501468
 31
0.0
  0
LINE
  5
356
  8
0
 10
871.89285096042522
 20
274.93727904891449
 30
0.0
 11
871.89285096042522
 21
273.93727888501468
 31
0.0
  0
LINE
  5
357
  8
0
 10
171.8928628813253
 20
273.93727888501468
 30
0.0
 11
171.8928628813253
 21
274.93727904891449
 31
0.0
  0
LINE
  5
358
  8
0
 10
802.89284523842491
 20
303.93727914581439
 30
0.0
 11
803.21739252922509
 21
304.9372783784147
 31
0.0
  0
LINE
  5
359
  8
0
 10
840.89289244522513
 20
303.93727914581439
 30
0.0
 11
802.89284523842491
 21
303.93727914581439
 31
0.0
  0
LINE
  5
35A
  8
0
 10
740.8928686034252
 20
303.93727914581439
 30
0.0
 11
652.89286908022495
 21
303.93727914581439
 31
0.0
  0
LINE
  5
35B
  8
0
 10
340.89286264292502
 20
303.93727914581439
 30
0.0
 11
252.89286311982531
 21
303.93727914581439
 31
0.0
  0
LINE
  5
35C
  8
0
 10
340.89286264292502
 20
287.93727838581458
 30
0.0
 11
252.89286311982531
 21
287.93727838581458
 31
0.0
  0
LINE
  5
35D
  8
0
 10
871.89285096042522
 20
287.93727838581458
 30
0.0
 11
871.89285096042522
 21
303.93727914581439
 31
0.0
  0
LINE
  5
35E
  8
0
 10
171.8928628813253
 20
303.93727914581439
 30
0.0
 11
171.8928628813253
 21
287.93727838581458
 31
0.0
  0
CIRCLE
  5
35F
  8
0
 10
246.8928628813253
 20
295.93727876581443
 30
0.0
 40
6.0
  0
CIRCLE
  5
360
  8
0
 10
796.89286288132485
 20
295.93727876581443
 30
0.0
 40
6.0
  0
CIRCLE
  5
361
  8
0
 10
746.8928628813253
 20
295.93727876581443
 30
0.0
 40
6.25
  0
CIRCLE
  5
362
  8
0
 10
646.8928628813253
 20
295.93727876581443
 30
0.0
 40
6.25
  0
CIRCLE
  5
363
  8
0
 10
846.89286288132496
 20
295.93727876581443
 30
0.0
 40
6.25
  0
CIRCLE
  5
364
  8
0
 10
446.8928628813253
 20
295.93727876581443
 30
0.0
 40
6.25
  0
CIRCLE
  5
365
  8
0
 10
346.89286288132507
 20
295.93727876581443
 30
0.0
 40
6.25
  0
CIRCLE
  5
366
  8
0
 10
546.8928628813253
 20
295.93727876581443
 30
0.0
 40
6.25
  0
CIRCLE
  5
367
  8
0
 10
196.89286288132519
 20
295.93727876581443
 30
0.0
 40
6.25
  0
LINE
  5
368
  8
0
 10
171.8928628813253
 20
127.23366102386809
 30
0.0
 11
871.89285096042522
 21
127.23366102386809
 31
0.0
  0
LINE
  5
369
  8
0
 10
871.89285096042522
 20
127.23366102386809
 30
0.0
 11
871.89285096042522
 21
128.233661071368
 31
0.0
  0
LINE
  5
36A
  8
0
 10
171.8928628813253
 20
128.233661071368
 30
0.0
 11
871.89285096042522
 21
128.233661071368
 31
0.0
  0
LINE
  5
36B
  8
0
 10
171.8928628813253
 20
127.23366102386809
 30
0.0
 11
171.8928628813253
 21
128.233661071368
 31
0.0
  0
LINE
  5
36C
  8
0
 10
171.8928628813253
 20
176.23365974236791
 30
0.0
 11
871.89285096042522
 21
176.23365974236791
 31
0.0
  0
ARC
  5
36D
  8
0
 10
851.89286288132507
 20
143.23366102386811
 30
0.0
 40
6.0
 50
270.0
 51
90.0
  0
LINE
  5
36E
  8
0
 10
191.8928624343252
 20
137.233660800368
 30
0.0
 11
851.89287003392496
 21
137.233660800368
 31
0.0
  0
ARC
  5
36F
  8
0
 10
191.89286288132519
 20
143.23366102386811
 30
0.0
 40
6.0
 50
90.0
 51
270.0
  0
LINE
  5
370
  8
0
 10
851.89287003392496
 20
149.23366090466811
 30
0.0
 11
191.8928624343252
 21
149.23366090466811
 31
0.0
  0
CIRCLE
  5
371
  8
0
 10
521.8928628813253
 20
165.23366102386811
 30
0.0
 40
2.4584999999999582
  0
CIRCLE
  5
372
  8
0
 10
221.8928628813253
 20
165.23366102386811
 30
0.0
 40
2.4584999999999582
  0
CIRCLE
  5
373
  8
0
 10
271.8928628813253
 20
165.23366102386811
 30
0.0
 40
2.4584999999999582
  0
CIRCLE
  5
374
  8
0
 10
321.89286288132507
 20
165.23366102386811
 30
0.0
 40
2.4584999999999582
  0
CIRCLE
  5
375
  8
0
 10
371.89286288132507
 20
165.23366102386811
 30
0.0
 40
2.4584999999999582
  0
CIRCLE
  5
376
  8
0
 10
421.89286288132507
 20
165.23366102386811
 30
0.0
 40
2.4584999999999582
  0
CIRCLE
  5
377
  8
0
 10
471.8928628813253
 20
165.23366102386811
 30
0.0
 40
2.4584999999999582
  0
CIRCLE
  5
378
  8
0
 10
571.8928628813253
 20
165.23366102386811
 30
0.0
 40
2.4584999999999582
  0
CIRCLE
  5
379
  8
0
 10
621.8928628813253
 20
165.23366102386811
 30
0.0
 40
2.4584999999999582
  0
CIRCLE
  5
37A
  8
0
 10
671.8928628813253
 20
165.23366102386811
 30
0.0
 40
2.4584999999999582
  0
CIRCLE
  5
37B
  8
0
 10
721.8928628813253
 20
165.23366102386811
 30
0.0
 40
2.4584999999999582
  0
CIRCLE
  5
37C
  8
0
 10
771.89286288132485
 20
165.23366102386811
 30
0.0
 40
2.4584999999999582
  0
CIRCLE
  5
37D
  8
0
 10
821.89286288132496
 20
165.23366102386811
 30
0.0
 40
2.4584999999999582
  0
LINE
  5
37E
  8
0
 10
871.89285096042522
 20
128.233661071368
 30
0.0
 11
871.89285096042522
 21
176.23365974236791
 31
0.0
  0
LINE
  5
37F
  8
0
 10
171.8928628813253
 20
176.23365974236791
 30
0.0
 11
171.8928628813253
 21
128.233661071368
 31
0.0
  0
LINE
  5
380
  8
0
 10
871.89285096042522
 20
177.23366176886799
 30
0.0
 11
171.8928628813253
 21
177.23366176886799
 31
0.0
  0
LINE
  5
381
  8
0
 10
871.89285096042522
 20
177.23366176886799
 30
0.0
 11
871.89285096042522
 21
176.23365974236791
 31
0.0
  0
LINE
  5
382
  8
0
 10
171.8928628813253
 20
176.23365974236791
 30
0.0
 11
171.8928628813253
 21
177.23366176886799
 31
0.0
  0
LINE
  5
383
  8
0
 10
12.999999089536219
 20
177.23366176896809
 30
0.0
 11
0.9999989852363029
 21
177.23366176896809
 31
0.0
  0
LINE
  5
384
  8
0
 10
12.999999089536219
 20
177.23366176896809
 30
0.0
 11
13.99999832213642
 21
176.23365974236799
 31
0.0
  0
LINE
  5
385
  8
0
 10
13.99999832213642
 20
167.23366012986801
 30
0.0
 11
13.99999832213642
 21
176.23365974236799
 31
0.0
  0
LINE
  5
386
  8
0
 10
9.4999985159362978
 20
167.23366012986801
 30
0.0
 11
13.99999832213642
 21
167.23366012986801
 31
0.0
  0
LINE
  5
387
  8
0
 10
9.4999985159362978
 20
156.23366018946811
 30
0.0
 11
9.4999985159362978
 21
167.23366012986801
 31
0.0
  0
LINE
  5
388
  8
0
 10
13.99999832213642
 20
156.23366018946811
 30
0.0
 11
9.4999985159362978
 21
156.23366018946811
 31
0.0
  0
LINE
  5
389
  8
0
 10
13.99999832213642
 20
154.2336617242681
 30
0.0
 11
13.99999832213642
 21
156.23366018946811
 31
0.0
  0
LINE
  5
38A
  8
0
 10
29.999999082136359
 20
154.2336617242681
 30
0.0
 11
13.99999832213642
 21
154.2336617242681
 31
0.0
  0
LINE
  5
38B
  8
0
 10
29.999999082136359
 20
156.23366018946811
 30
0.0
 11
29.999999082136359
 21
154.2336617242681
 31
0.0
  0
LINE
  5
38C
  8
0
 10
34.499998888436266
 20
156.23366018946811
 30
0.0
 11
29.999999082136359
 21
156.23366018946811
 31
0.0
  0
LINE
  5
38D
  8
0
 10
34.499998888436266
 20
167.23366012986801
 30
0.0
 11
34.499998888436266
 21
156.23366018946811
 31
0.0
  0
LINE
  5
38E
  8
0
 10
29.999999082136359
 20
167.23366012986801
 30
0.0
 11
34.499998888436266
 21
167.23366012986801
 31
0.0
  0
LINE
  5
38F
  8
0
 10
29.999999082136359
 20
176.23365974236799
 30
0.0
 11
29.999999082136359
 21
167.23366012986801
 31
0.0
  0
LINE
  5
390
  8
0
 10
29.999999082136359
 20
176.23365974236799
 30
0.0
 11
30.99999831473626
 21
177.23366176896809
 31
0.0
  0
LINE
  5
391
  8
0
 10
42.999998419036359
 20
177.23366176896809
 30
0.0
 11
30.99999831473626
 21
177.23366176896809
 31
0.0
  0
LINE
  5
392
  8
0
 10
42.999998419036359
 20
177.23366176896809
 30
0.0
 11
43.999998582936271
 21
176.23365974236799
 31
0.0
  0
LINE
  5
393
  8
0
 10
42.999998419036359
 20
127.23366102386809
 30
0.0
 11
43.999998582936271
 21
128.233661071368
 31
0.0
  0
LINE
  5
394
  8
0
 10
42.999998419036359
 20
127.23366102386809
 30
0.0
 11
0.9999989852363029
 21
127.23366102386809
 31
0.0
  0
LINE
  5
395
  8
0
 10
-0.0000011786635667
 20
128.233661071368
 30
0.0
 11
0.9999989852363029
 21
127.23366102386809
 31
0.0
  0
LINE
  5
396
  8
0
 10
-0.0000011786635667
 20
176.23365974236799
 30
0.0
 11
-0.0000011786635667
 21
128.233661071368
 31
0.0
  0
LINE
  5
397
  8
0
 10
-0.0000011786635667
 20
176.23365974236799
 30
0.0
 11
0.9999989852363029
 21
177.23366176896809
 31
0.0
  0
LINE
  5
398
  8
0
 10
43.999998582936271
 20
128.233661071368
 30
0.0
 11
43.999998582936271
 21
176.23365974236799
 31
0.0
  0
LINE
  5
399
  8
0
 10
171.8928628813253
 20
1.0000004788032439
 30
0.0
 11
171.8928628813253
 21
42.999999912503682
 31
0.0
  0
LINE
  5
39A
  8
0
 10
871.89285096042522
 20
1.0000004788032439
 30
0.0
 11
171.8928628813253
 21
1.0000004788032439
 31
0.0
  0
LINE
  5
39B
  8
0
 10
871.89285096042522
 20
42.999999912503682
 30
0.0
 11
871.89285096042522
 21
1.0000004788032439
 31
0.0
  0
LINE
  5
39C
  8
0
 10
171.8928628813253
 20
42.999999912503682
 30
0.0
 11
871.89285096042522
 21
42.999999912503682
 31
0.0
  0
CIRCLE
  5
39D
  8
0
 10
196.89286288132519
 20
22.000000195603679
 30
0.0
 40
6.2500000000002274
  0
CIRCLE
  5
39E
  8
0
 10
846.89286288132496
 20
22.000000195603679
 30
0.0
 40
6.2500000000002274
  0
CIRCLE
  5
39F
  8
0
 10
746.8928628813253
 20
22.000000195603679
 30
0.0
 40
6.2500000000002274
  0
CIRCLE
  5
3A0
  8
0
 10
646.8928628813253
 20
22.000000195603679
 30
0.0
 40
6.2500000000002274
  0
CIRCLE
  5
3A1
  8
0
 10
546.8928628813253
 20
22.000000195603679
 30
0.0
 40
6.2500000000002274
  0
CIRCLE
  5
3A2
  8
0
 10
446.8928628813253
 20
22.000000195603679
 30
0.0
 40
6.2500000000002274
  0
CIRCLE
  5
3A3
  8
0
 10
346.89286288132507
 20
22.000000195603679
 30
0.0
 40
6.2500000000002274
  0
CIRCLE
  5
3A4
  8
0
 10
796.89286288132485
 20
22.000000195603679
 30
0.0
 40
6.0
  0
CIRCLE
  5
3A5
  8
0
 10
246.8928628813253
 20
22.000000195603679
 30
0.0
 40
6.0
  0
LINE
  5
3A6
  8
0
 10
871.89285096042522
 20
42.999999912503682
 30
0.0
 11
871.89285096042522
 21
44.00000007640346
 31
0.0
  0
LINE
  5
3A7
  8
0
 10
171.8928628813253
 20
44.00000007640346
 30
0.0
 11
871.89285096042522
 21
44.00000007640346
 31
0.0
  0
LINE
  5
3A8
  8
0
 10
171.8928628813253
 20
42.999999912503682
 30
0.0
 11
171.8928628813253
 21
44.00000007640346
 31
0.0
  0
LINE
  5
3A9
  8
0
 10
871.89285096042522
 20
0.0000003149034313
 30
0.0
 11
171.8928628813253
 21
0.0000003149034313
 31
0.0
  0
LINE
  5
3AA
  8
0
 10
871.89285096042522
 20
0.0000003149034313
 30
0.0
 11
871.89285096042522
 21
1.0000004788032439
 31
0.0
  0
LINE
  5
3AB
  8
0
 10
171.8928628813253
 20
1.0000004788032439
 30
0.0
 11
171.8928628813253
 21
0.0000003149034313
 31
0.0
  0
LINE
  5
3AC
  8
0
 10
790.89286115282459
 20
287.93727838581458
 30
0.0
 11
790.56830641142494
 21
286.93727915321438
 31
0.0
  0
LINE
  5
3AD
  8
0
 10
790.56830641142494
 20
304.9372783784147
 30
0.0
 11
790.89286115282459
 21
303.93727914581439
 31
0.0
  0
LINE
  5
3AE
  8
0
 10
802.89286311982471
 20
303.93727914581439
 30
0.0
 11
803.21741786112455
 21
304.9372783784147
 31
0.0
  0
LINE
  5
3AF
  8
0
 10
803.21741786112455
 20
286.93727915321438
 30
0.0
 11
802.89286311982471
 21
287.93727838581458
 31
0.0
  0
ARC
  5
3B0
  8
0
 10
846.89286288132462
 20
295.93727876581443
 30
0.0
 40
11.000000000001631
 50
54.903198772401183
 51
125.0968012275988
  0
ARC
  5
3B1
  8
0
 10
846.89286288132462
 20
295.93727876581443
 30
0.0
 40
11.0000000000017
 50
234.9031987724012
 51
305.0968012275988
  0
LINE
  5
3B2
  8
0
 10
840.89286115282459
 20
287.93727838581458
 30
0.0
 11
840.5683064114246
 21
286.93727915321438
 31
0.0
  0
LINE
  5
3B3
  8
0
 10
840.5683064114246
 20
304.9372783784147
 30
0.0
 11
840.89286115282459
 21
303.93727914581439
 31
0.0
  0
LINE
  5
3B4
  8
0
 10
852.8928631198246
 20
303.93727914581439
 30
0.0
 11
853.21741786112455
 21
304.9372783784147
 31
0.0
  0
LINE
  5
3B5
  8
0
 10
853.21741786112455
 20
286.93727915321438
 30
0.0
 11
852.8928631198246
 21
287.93727838581458
 31
0.0
  0
CIRCLE
  5
3B6
  8
0
 10
846.89286288132496
 20
295.93727876581443
 30
0.0
 40
10.0
  0
CIRCLE
  5
3B7
  8
0
 10
796.89286288132485
 20
295.93727876581443
 30
0.0
 40
10.0
  0
ARC
  5
3B8
  8
0
 10
746.8928628813253
 20
295.93727876581443
 30
0.0
 40
11.000000000001579
 50
54.903198772401183
 51
125.0968012275988
  0
ARC
  5
3B9
  8
0
 10
746.8928628813253
 20
295.93727876581443
 30
0.0
 40
11.000000000001799
 50
234.9031987724012
 51
305.0968012275988
  0
LINE
  5
3BA
  8
0
 10
753.21739252922555
 20
286.93727915321438
 30
0.0
 11
752.89284523842537
 21
287.93727838581458
 31
0.0
  0
LINE
  5
3BB
  8
0
 10
740.89288052432551
 20
287.93727838581458
 30
0.0
 11
740.56833323352544
 21
286.93727915321438
 31
0.0
  0
LINE
  5
3BC
  8
0
 10
740.56833323352544
 20
304.9372783784147
 30
0.0
 11
740.89288052432551
 21
303.93727914581439
 31
0.0
  0
LINE
  5
3BD
  8
0
 10
752.89284523842537
 20
303.93727914581439
 30
0.0
 11
753.21739252922555
 21
304.9372783784147
 31
0.0
  0
LINE
  5
3BE
  8
0
 10
740.89286115282505
 20
287.93727838581458
 30
0.0
 11
740.5683064114254
 21
286.93727915321438
 31
0.0
  0
LINE
  5
3BF
  8
0
 10
740.5683064114254
 20
304.9372783784147
 30
0.0
 11
740.89286115282505
 21
303.93727914581439
 31
0.0
  0
LINE
  5
3C0
  8
0
 10
752.89286311982528
 20
303.93727914581439
 30
0.0
 11
753.21741786112477
 21
304.9372783784147
 31
0.0
  0
LINE
  5
3C1
  8
0
 10
753.21741786112477
 20
286.93727915321438
 30
0.0
 11
752.89286311982528
 21
287.93727838581458
 31
0.0
  0
CIRCLE
  5
3C2
  8
0
 10
746.8928628813253
 20
295.93727876581443
 30
0.0
 40
10.0
  0
ARC
  5
3C3
  8
0
 10
646.8928628813253
 20
295.93727876581443
 30
0.0
 40
11.000000000001579
 50
54.903198772401183
 51
125.0968012275988
  0
ARC
  5
3C4
  8
0
 10
646.8928628813253
 20
295.93727876581443
 30
0.0
 40
11.000000000001799
 50
234.9031987724012
 51
305.0968012275988
  0
LINE
  5
3C5
  8
0
 10
653.21739252922555
 20
286.93727915321438
 30
0.0
 11
652.89284523842548
 21
287.93727838581458
 31
0.0
  0
LINE
  5
3C6
  8
0
 10
640.89288052432562
 20
287.93727838581458
 30
0.0
 11
640.56833323352544
 21
286.93727915321438
 31
0.0
  0
LINE
  5
3C7
  8
0
 10
640.56833323352544
 20
304.9372783784147
 30
0.0
 11
640.89288052432562
 21
303.93727914581439
 31
0.0
  0
LINE
  5
3C8
  8
0
 10
652.89284523842548
 20
303.93727914581439
 30
0.0
 11
653.21739252922555
 21
304.9372783784147
 31
0.0
  0
LINE
  5
3C9
  8
0
 10
640.89286115282505
 20
287.93727838581458
 30
0.0
 11
640.5683064114254
 21
286.93727915321438
 31
0.0
  0
LINE
  5
3CA
  8
0
 10
640.5683064114254
 20
304.9372783784147
 30
0.0
 11
640.89286115282505
 21
303.93727914581439
 31
0.0
  0
LINE
  5
3CB
  8
0
 10
652.89286311982528
 20
303.93727914581439
 30
0.0
 11
653.21741786112477
 21
304.9372783784147
 31
0.0
  0
LINE
  5
3CC
  8
0
 10
653.21741786112477
 20
286.93727915321438
 30
0.0
 11
652.89286311982528
 21
287.93727838581458
 31
0.0
  0
CIRCLE
  5
3CD
  8
0
 10
646.8928628813253
 20
295.93727876581443
 30
0.0
 40
10.0
  0
ARC
  5
3CE
  8
0
 10
546.8928628813253
 20
295.93727876581443
 30
0.0
 40
11.000000000001579
 50
54.903198772401183
 51
125.0968012275988
  0
ARC
  5
3CF
  8
0
 10
546.8928628813253
 20
295.93727876581443
 30
0.0
 40
11.000000000001799
 50
234.9031987724012
 51
305.0968012275988
  0
LINE
  5
3D0
  8
0
 10
553.21739252922555
 20
286.93727915321438
 30
0.0
 11
552.89284523842525
 21
287.93727838581458
 31
0.0
  0
LINE
  5
3D1
  8
0
 10
540.89288052432551
 20
287.93727838581458
 30
0.0
 11
540.56833323352532
 21
286.93727915321438
 31
0.0
  0
LINE
  5
3D2
  8
0
 10
540.56833323352532
 20
304.9372783784147
 30
0.0
 11
540.89288052432551
 21
303.93727914581439
 31
0.0
  0
LINE
  5
3D3
  8
0
 10
552.89284523842525
 20
303.93727914581439
 30
0.0
 11
553.21739252922555
 21
304.9372783784147
 31
0.0
  0
LINE
  5
3D4
  8
0
 10
540.89286115282505
 20
287.93727838581458
 30
0.0
 11
540.56830641142506
 21
286.93727915321438
 31
0.0
  0
LINE
  5
3D5
  8
0
 10
540.56830641142506
 20
304.9372783784147
 30
0.0
 11
540.89286115282505
 21
303.93727914581439
 31
0.0
  0
LINE
  5
3D6
  8
0
 10
552.89286311982505
 20
303.93727914581439
 30
0.0
 11
553.21741786112489
 21
304.9372783784147
 31
0.0
  0
LINE
  5
3D7
  8
0
 10
553.21741786112489
 20
286.93727915321438
 30
0.0
 11
552.89286311982505
 21
287.93727838581458
 31
0.0
  0
CIRCLE
  5
3D8
  8
0
 10
546.8928628813253
 20
295.93727876581443
 30
0.0
 40
10.0
  0
ARC
  5
3D9
  8
0
 10
446.8928628813253
 20
295.93727876581443
 30
0.0
 40
11.000000000001579
 50
54.903198772401183
 51
125.0968012275988
  0
ARC
  5
3DA
  8
0
 10
446.8928628813253
 20
295.93727876581443
 30
0.0
 40
11.000000000001799
 50
234.9031987724012
 51
305.0968012275988
  0
LINE
  5
3DB
  8
0
 10
453.21739252922549
 20
286.93727915321438
 30
0.0
 11
452.8928452384252
 21
287.93727838581458
 31
0.0
  0
LINE
  5
3DC
  8
0
 10
440.89288052432551
 20
287.93727838581458
 30
0.0
 11
440.56833323352532
 21
286.93727915321438
 31
0.0
  0
LINE
  5
3DD
  8
0
 10
440.56833323352532
 20
304.9372783784147
 30
0.0
 11
440.89288052432551
 21
303.93727914581439
 31
0.0
  0
LINE
  5
3DE
  8
0
 10
452.8928452384252
 20
303.93727914581439
 30
0.0
 11
453.21739252922549
 21
304.9372783784147
 31
0.0
  0
LINE
  5
3DF
  8
0
 10
440.89286115282499
 20
287.93727838581458
 30
0.0
 11
440.56830641142511
 21
286.93727915321438
 31
0.0
  0
LINE
  5
3E0
  8
0
 10
440.56830641142511
 20
304.9372783784147
 30
0.0
 11
440.89286115282499
 21
303.93727914581439
 31
0.0
  0
LINE
  5
3E1
  8
0
 10
452.89286311982499
 20
303.93727914581439
 30
0.0
 11
453.21741786112489
 21
304.9372783784147
 31
0.0
  0
LINE
  5
3E2
  8
0
 10
453.21741786112489
 20
286.93727915321438
 30
0.0
 11
452.89286311982499
 21
287.93727838581458
 31
0.0
  0
CIRCLE
  5
3E3
  8
0
 10
446.8928628813253
 20
295.93727876581443
 30
0.0
 40
10.0
  0
ARC
  5
3E4
  8
0
 10
346.89286288132507
 20
295.93727876581443
 30
0.0
 40
11.000000000001579
 50
54.903198772401183
 51
125.0968012275988
  0
ARC
  5
3E5
  8
0
 10
346.89286288132507
 20
295.93727876581443
 30
0.0
 40
11.000000000001799
 50
234.9031987724012
 51
305.0968012275988
  0
LINE
  5
3E6
  8
0
 10
353.21739252922538
 20
286.93727915321438
 30
0.0
 11
352.89284523842531
 21
287.93727838581458
 31
0.0
  0
LINE
  5
3E7
  8
0
 10
340.89288052432551
 20
287.93727838581458
 30
0.0
 11
340.56833323352532
 21
286.93727915321438
 31
0.0
  0
LINE
  5
3E8
  8
0
 10
340.56833323352532
 20
304.9372783784147
 30
0.0
 11
340.89288052432551
 21
303.93727914581439
 31
0.0
  0
LINE
  5
3E9
  8
0
 10
352.89284523842531
 20
303.93727914581439
 30
0.0
 11
353.21739252922538
 21
304.9372783784147
 31
0.0
  0
LINE
  5
3EA
  8
0
 10
340.89286115282488
 20
287.93727838581458
 30
0.0
 11
340.56830641142511
 21
286.93727915321438
 31
0.0
  0
LINE
  5
3EB
  8
0
 10
340.56830641142511
 20
304.9372783784147
 30
0.0
 11
340.89286115282488
 21
303.93727914581439
 31
0.0
  0
LINE
  5
3EC
  8
0
 10
352.89286311982511
 20
303.93727914581439
 30
0.0
 11
353.217417861125
 21
304.9372783784147
 31
0.0
  0
LINE
  5
3ED
  8
0
 10
353.217417861125
 20
286.93727915321438
 30
0.0
 11
352.89286311982511
 21
287.93727838581458
 31
0.0
  0
CIRCLE
  5
3EE
  8
0
 10
346.89286288132507
 20
295.93727876581443
 30
0.0
 40
10.0
  0
ARC
  5
3EF
  8
0
 10
246.8928628813255
 20
295.93727876581443
 30
0.0
 40
11.000000000001579
 50
54.903198772401183
 51
125.0968012275988
  0
ARC
  5
3F0
  8
0
 10
246.8928628813255
 20
295.93727876581443
 30
0.0
 40
11.000000000001799
 50
234.9031987724012
 51
305.0968012275988
  0
LINE
  5
3F1
  8
0
 10
253.21739252922549
 20
286.93727915321438
 30
0.0
 11
252.89284523842551
 21
287.93727838581458
 31
0.0
  0
LINE
  5
3F2
  8
0
 10
240.8928805243257
 20
287.93727838581458
 30
0.0
 11
240.56833323352549
 21
286.93727915321438
 31
0.0
  0
LINE
  5
3F3
  8
0
 10
240.56833323352549
 20
304.9372783784147
 30
0.0
 11
240.8928805243257
 21
303.93727914581439
 31
0.0
  0
LINE
  5
3F4
  8
0
 10
252.89284523842551
 20
303.93727914581439
 30
0.0
 11
253.21739252922549
 21
304.9372783784147
 31
0.0
  0
LINE
  5
3F5
  8
0
 10
240.89286115282511
 20
287.93727838581458
 30
0.0
 11
240.56830641142531
 21
286.93727915321438
 31
0.0
  0
LINE
  5
3F6
  8
0
 10
240.56830641142531
 20
304.9372783784147
 30
0.0
 11
240.89286115282511
 21
303.93727914581439
 31
0.0
  0
LINE
  5
3F7
  8
0
 10
252.89286311982531
 20
303.93727914581439
 30
0.0
 11
253.21741786112511
 21
304.9372783784147
 31
0.0
  0
LINE
  5
3F8
  8
0
 10
253.21741786112511
 20
286.93727915321438
 30
0.0
 11
252.89286311982531
 21
287.93727838581458
 31
0.0
  0
CIRCLE
  5
3F9
  8
0
 10
246.8928628813255
 20
295.93727876581443
 30
0.0
 40
10.0
  0
ARC
  5
3FA
  8
0
 10
196.8928628813251
 20
295.93727876581443
 30
0.0
 40
11.000000000001579
 50
54.903198772401183
 51
125.0968012275988
  0
ARC
  5
3FB
  8
0
 10
196.8928628813251
 20
295.93727876581443
 30
0.0
 40
11.000000000001799
 50
234.9031987724012
 51
305.0968012275988
  0
LINE
  5
3FC
  8
0
 10
203.21739252922529
 20
286.93727915321438
 30
0.0
 11
202.8928452384252
 21
287.93727838581458
 31
0.0
  0
LINE
  5
3FD
  8
0
 10
190.89288052432531
 20
287.93727838581458
 30
0.0
 11
190.56833323352521
 21
286.93727915321438
 31
0.0
  0
LINE
  5
3FE
  8
0
 10
190.56833323352521
 20
304.9372783784147
 30
0.0
 11
190.89288052432531
 21
303.93727914581439
 31
0.0
  0
LINE
  5
3FF
  8
0
 10
202.8928452384252
 20
303.93727914581439
 30
0.0
 11
203.21739252922529
 21
304.9372783784147
 31
0.0
  0
LINE
  5
400
  8
0
 10
190.89286115282491
 20
287.93727838581458
 30
0.0
 11
190.568306411425
 21
286.93727915321438
 31
0.0
  0
LINE
  5
401
  8
0
 10
190.568306411425
 20
304.9372783784147
 30
0.0
 11
190.89286115282491
 21
303.93727914581439
 31
0.0
  0
LINE
  5
402
  8
0
 10
202.89286311982511
 20
303.93727914581439
 30
0.0
 11
203.21741786112489
 21
304.9372783784147
 31
0.0
  0
LINE
  5
403
  8
0
 10
203.21741786112489
 20
286.93727915321438
 30
0.0
 11
202.89286311982511
 21
287.93727838581458
 31
0.0
  0
CIRCLE
  5
404
  8
0
 10
196.8928628813251
 20
295.93727876581443
 30
0.0
 40
10.0
  0
ENDBLK
  5
406
  8
0
  0
ENDSEC
  0
SECTION
  2
ENTITIES
  0
TEXT
  5
2D0
  8
0
 62
     3
 10
0.0
 20
0.0
 30
0.0
 40
10.0
  1
MR-B-500
  7
STANDARD1
  0
LINE
  5
408
  8
0
 10
608.99998784069987
 20
257.00000010420001
 30
0.0
 11
108.9999997615999
 21
257.00000010420001
 31
0.0
  0
LINE
  5
40A
  8
0
 10
108.9999997615999
 20
244.99999999990001
 30
0.0
 11
127.6754438899808
 21
244.99999999990001
 31
0.0
  0
LINE
  5
40B
  8
0
 10
140.32455563321881
 20
244.99999999990001
 30
0.0
 11
177.67544329169991
 21
244.99999999990001
 31
0.0
  0
LINE
  5
40C
  8
0
 10
190.32455474139979
 20
244.99999999990001
 30
0.0
 11
277.67543733129992
 21
244.99999999990001
 31
0.0
  0
LINE
  5
40D
  8
0
 10
290.32455623159962
 20
244.99999999990001
 30
0.0
 11
377.67544388998101
 21
244.99999999990001
 31
0.0
  0
LINE
  5
411
  8
0
 10
490.32455563321929
 20
244.99999999990001
 30
0.0
 11
527.67547011379975
 21
244.99999999990001
 31
0.0
  0
ARC
  5
412
  8
0
 10
533.99999976159972
 20
236.00000038729971
 30
0.0
 40
11.000000000001579
 50
54.903198772400877
 51
125.0968012275991
  0
LINE
  5
413
  8
0
 10
540.32452940949986
 20
244.99999999990001
 30
0.0
 11
577.67544388998044
 21
244.99999999990001
 31
0.0
  0
LINE
  5
414
  8
0
 10
590.32455563321855
 20
244.99999999990001
 30
0.0
 11
608.99998784069987
 21
244.99999999990001
 31
0.0
  0
LINE
  5
416
  8
0
 10
540.32452940949986
 20
227.00000077469971
 30
0.0
 11
577.67544388997976
 21
227.00000077469971
 31
0.0
  0
ARC
  5
417
  8
0
 10
533.99999976159972
 20
236.00000038729971
 30
0.0
 40
11.000000000001799
 50
234.9031987724008
 51
305.09680122759869
  0
LINE
  5
418
  8
0
 10
490.32455563321952
 20
227.00000077469971
 30
0.0
 11
527.67547011379975
 21
227.00000077469971
 31
0.0
  0
LINE
  5
41C
  8
0
 10
290.32455623159962
 20
227.00000077469971
 30
0.0
 11
377.67544388998022
 21
227.00000077469971
 31
0.0
  0
LINE
  5
41D
  8
0
 10
190.32455474139979
 20
227.00000077469971
 30
0.0
 11
277.67543733129992
 21
227.00000077469971
 31
0.0
  0
LINE
  5
41E
  8
0
 10
140.3245556332196
 20
227.00000077469971
 30
0.0
 11
177.67544329169991
 21
227.00000077469971
 31
0.0
  0
LINE
  5
41F
  8
0
 10
108.9999997615999
 20
227.00000077469971
 30
0.0
 11
127.67544388998
 21
227.00000077469971
 31
0.0
  0
LINE
  5
421
  8
0
 10
608.99998784069987
 20
215.00000067039969
 30
0.0
 11
108.9999997615999
 21
215.00000067039969
 31
0.0
  0
LINE
  5
423
  8
0
 10
590.32455563321935
 20
227.00000077469971
 30
0.0
 11
608.99998784069987
 21
227.00000077469971
 31
0.0
  0
LINE
  5
425
  8
0
 10
608.99998784069987
 20
228.00000000729989
 30
0.0
 11
589.99999403959976
 21
228.00000000729989
 31
0.0
  0
LINE
  5
426
  8
0
 10
127.99999915069991
 20
228.00000000729989
 30
0.0
 11
108.9999997615999
 21
228.00000000729989
 31
0.0
  0
LINE
  5
428
  8
0
 10
608.99998784069987
 20
244.0000007672997
 30
0.0
 11
589.99999403959976
 21
244.0000007672997
 31
0.0
  0
LINE
  5
42B
  8
0
 10
127.99999915069991
 20
244.0000007672997
 30
0.0
 11
108.9999997615999
 21
244.0000007672997
 31
0.0
  0
LINE
  5
42F
  8
0
 10
108.9999997615999
 20
258.0000002680996
 30
0.0
 11
608.99998784069987
 21
258.0000002680996
 31
0.0
  0
LINE
  5
432
  8
0
 10
578.0000293254999
 20
228.00000000729989
 30
0.0
 11
539.99998211869968
 21
228.00000000729989
 31
0.0
  0
LINE
  5
433
  8
0
 10
540.32452940949986
 20
227.00000077469971
 30
0.0
 11
539.99998211869968
 21
228.00000000729989
 31
0.0
  0
LINE
  5
434
  8
0
 10
377.99999356279977
 20
228.00000000729989
 30
0.0
 11
289.9999940395997
 21
228.00000000729989
 31
0.0
  0
LINE
  5
435
  8
0
 10
177.99999803309981
 20
228.00000000729989
 30
0.0
 11
139.99999925499981
 21
228.00000000729989
 31
0.0
  0
LINE
  5
436
  8
0
 10
377.99999356279977
 20
244.0000007672997
 30
0.0
 11
289.9999940395997
 21
244.0000007672997
 31
0.0
  0
LINE
  5
437
  8
0
 10
177.99999803309981
 20
244.0000007672997
 30
0.0
 11
139.99999925499981
 21
244.0000007672997
 31
0.0
  0
LINE
  5
439
  8
0
 10
528.00001740459993
 20
228.00000000729989
 30
0.0
 11
527.67547011379975
 21
227.00000077469971
 31
0.0
  0
LINE
  5
43A
  8
0
 10
528.00001740459993
 20
228.00000000729989
 30
0.0
 11
489.99997019769972
 21
228.00000000729989
 31
0.0
  0
LINE
  5
43B
  8
0
 10
528.00001740459993
 20
244.0000007672997
 30
0.0
 11
489.99997019769972
 21
244.0000007672997
 31
0.0
  0
LINE
  5
43C
  8
0
 10
527.67547011379975
 20
244.99999999990001
 30
0.0
 11
528.00001740459993
 21
244.0000007672997
 31
0.0
  0
LINE
  5
43E
  8
0
 10
108.9999997615999
 20
214.0000005064999
 30
0.0
 11
608.99998784069987
 21
214.0000005064999
 31
0.0
  0
LINE
  5
43F
  8
0
 10
608.99998784069987
 20
258.0000002680996
 30
0.0
 11
608.99998784069987
 21
214.0000005064999
 31
0.0
  0
LINE
  5
440
  8
0
 10
108.9999997615999
 20
214.0000005064999
 30
0.0
 11
108.9999997615999
 21
258.0000002680996
 31
0.0
  0
LINE
  5
441
  8
0
 10
539.99998211869968
 20
244.0000007672997
 30
0.0
 11
540.32452940949986
 21
244.99999999990001
 31
0.0
  0
LINE
  5
442
  8
0
 10
578.0000293254999
 20
244.0000007672997
 30
0.0
 11
539.99998211869968
 21
244.0000007672997
 31
0.0
  0
LINE
  5
444
  8
0
 10
277.99999952319968
 20
244.0000007672997
 30
0.0
 11
190.0000000000999
 21
244.0000007672997
 31
0.0
  0
LINE
  5
445
  8
0
 10
277.99999952319968
 20
228.00000000729989
 30
0.0
 11
190.0000000000999
 21
228.00000000729989
 31
0.0
  0
CIRCLE
  5
448
  8
0
 10
183.99999976160001
 20
236.00000038729971
 30
0.0
 40
6.0
  0
CIRCLE
  5
449
  8
0
 10
533.99999976159972
 20
236.00000038729971
 30
0.0
 40
6.0
  0
CIRCLE
  5
44A
  8
0
 10
483.99999976160012
 20
236.00000038729971
 30
0.0
 40
6.25
  0
CIRCLE
  5
44C
  8
0
 10
583.99999976159984
 20
236.00000038729971
 30
0.0
 40
6.25
  0
CIRCLE
  5
44D
  8
0
 10
383.99999976160001
 20
236.00000038729971
 30
0.0
 40
6.25
  0
CIRCLE
  5
44E
  8
0
 10
283.99999976159978
 20
236.00000038729971
 30
0.0
 40
6.25
  0
CIRCLE
  5
450
  8
0
 10
133.9999997615999
 20
236.00000038729971
 30
0.0
 40
6.25
  0
LINE
  5
451
  8
0
 10
108.9999997615999
 20
113.99999976150001
 30
0.0
 11
608.99998784069987
 21
113.99999976150001
 31
0.0
  0
LINE
  5
452
  8
0
 10
608.99998784069987
 20
113.99999976150001
 30
0.0
 11
608.99998784069987
 21
164.0000005064999
 31
0.0
  0
LINE
  5
453
  8
0
 10
108.9999997615999
 20
114.9999998089999
 30
0.0
 11
608.99998784069987
 21
114.9999998089999
 31
0.0
  0
LINE
  5
454
  8
0
 10
108.9999997615999
 20
113.99999976150001
 30
0.0
 11
108.9999997615999
 21
164.0000005064999
 31
0.0
  0
LINE
  5
455
  8
0
 10
108.9999997615999
 20
162.9999984799999
 30
0.0
 11
608.99998784069987
 21
162.9999984799999
 31
0.0
  0
ARC
  5
456
  8
0
 10
588.99999976159984
 20
129.99999976149999
 30
0.0
 40
6.0
 50
270.0
 51
90.0
  0
LINE
  5
457
  8
0
 10
128.9999993145999
 20
123.9999995379999
 30
0.0
 11
589.00000691419984
 21
123.9999995379999
 31
0.0
  0
ARC
  5
458
  8
0
 10
128.9999997615999
 20
129.99999976149999
 30
0.0
 40
6.0
 50
90.0
 51
270.0
  0
LINE
  5
459
  8
0
 10
589.00000691419984
 20
135.9999996423
 30
0.0
 11
128.9999993145999
 21
135.9999996423
 31
0.0
  0
CIRCLE
  5
45A
  8
0
 10
458.99999976160001
 20
151.99999976149999
 30
0.0
 40
2.4584999999999582
  0
CIRCLE
  5
45C
  8
0
 10
208.99999976160001
 20
151.99999976149999
 30
0.0
 40
2.4584999999999582
  0
CIRCLE
  5
45D
  8
0
 10
258.99999976159978
 20
151.99999976149999
 30
0.0
 40
2.4584999999999582
  0
CIRCLE
  5
45E
  8
0
 10
308.99999976159978
 20
151.99999976149999
 30
0.0
 40
2.4584999999999582
  0
CIRCLE
  5
45F
  8
0
 10
358.99999976159978
 20
151.99999976149999
 30
0.0
 40
2.4584999999999582
  0
CIRCLE
  5
460
  8
0
 10
408.99999976160001
 20
151.99999976149999
 30
0.0
 40
2.4584999999999582
  0
LINE
  5
469
  8
0
 10
608.99998784069987
 20
164.0000005064999
 30
0.0
 11
108.9999997615999
 21
164.0000005064999
 31
0.0
  0
LINE
  5
46C
  8
0
 10
28.000000268199919
 20
164.00000149610011
 30
0.0
 11
16.000000163900001
 21
164.00000149610011
 31
0.0
  0
LINE
  5
46D
  8
0
 10
28.000000268199919
 20
164.00000149610011
 30
0.0
 11
28.999999500800119
 21
162.99999946950001
 31
0.0
  0
LINE
  5
46E
  8
0
 10
28.999999500800119
 20
153.99999985700009
 30
0.0
 11
28.999999500800119
 21
162.99999946950001
 31
0.0
  0
LINE
  5
46F
  8
0
 10
24.4999996946
 20
153.99999985700009
 30
0.0
 11
28.999999500800119
 21
153.99999985700009
 31
0.0
  0
LINE
  5
470
  8
0
 10
24.4999996946
 20
142.9999999166001
 30
0.0
 11
24.4999996946
 21
153.99999985700009
 31
0.0
  0
LINE
  5
471
  8
0
 10
28.999999500800119
 20
142.9999999166001
 30
0.0
 11
24.4999996946
 21
142.9999999166001
 31
0.0
  0
LINE
  5
472
  8
0
 10
28.999999500800119
 20
141.0000014514001
 30
0.0
 11
28.999999500800119
 21
142.9999999166001
 31
0.0
  0
LINE
  5
473
  8
0
 10
45.00000026080005
 20
141.0000014514001
 30
0.0
 11
28.999999500800119
 21
141.0000014514001
 31
0.0
  0
LINE
  5
474
  8
0
 10
45.00000026080005
 20
142.9999999166001
 30
0.0
 11
45.00000026080005
 21
141.0000014514001
 31
0.0
  0
LINE
  5
475
  8
0
 10
49.500000067099968
 20
142.9999999166001
 30
0.0
 11
45.00000026080005
 21
142.9999999166001
 31
0.0
  0
LINE
  5
476
  8
0
 10
49.500000067099968
 20
153.99999985700009
 30
0.0
 11
49.500000067099968
 21
142.9999999166001
 31
0.0
  0
LINE
  5
477
  8
0
 10
45.00000026080005
 20
153.99999985700009
 30
0.0
 11
49.500000067099968
 21
153.99999985700009
 31
0.0
  0
LINE
  5
478
  8
0
 10
45.00000026080005
 20
162.99999946950001
 30
0.0
 11
45.00000026080005
 21
153.99999985700009
 31
0.0
  0
LINE
  5
479
  8
0
 10
45.00000026080005
 20
162.99999946950001
 30
0.0
 11
45.999999493399962
 21
164.00000149610011
 31
0.0
  0
LINE
  5
47A
  8
0
 10
57.999999597700061
 20
164.00000149610011
 30
0.0
 11
45.999999493399962
 21
164.00000149610011
 31
0.0
  0
LINE
  5
47B
  8
0
 10
57.999999597700061
 20
164.00000149610011
 30
0.0
 11
58.999999761599973
 21
162.99999946950001
 31
0.0
  0
LINE
  5
47C
  8
0
 10
57.999999597700061
 20
114.000000751
 30
0.0
 11
58.999999761599973
 21
115.0000007984999
 31
0.0
  0
LINE
  5
47D
  8
0
 10
57.999999597700061
 20
114.000000751
 30
0.0
 11
16.000000163900001
 21
114.000000751
 31
0.0
  0
LINE
  5
47E
  8
0
 10
15.00000000000013
 20
115.0000007984999
 30
0.0
 11
16.000000163900001
 21
114.000000751
 31
0.0
  0
LINE
  5
47F
  8
0
 10
15.00000000000013
 20
162.99999946950001
 30
0.0
 11
15.00000000000013
 21
115.0000007984999
 31
0.0
  0
LINE
  5
480
  8
0
 10
15.00000000000013
 20
162.99999946950001
 30
0.0
 11
16.000000163900001
 21
164.00000149610011
 31
0.0
  0
LINE
  5
481
  8
0
 10
58.999999761599973
 20
115.0000007984999
 30
0.0
 11
58.999999761599973
 21
162.99999946950001
 31
0.0
  0
LINE
  5
483
  8
0
 10
608.99998784069987
 20
21.000000163899809
 30
0.0
 11
108.9999997615999
 21
21.000000163899809
 31
0.0
  0
LINE
  5
485
  8
0
 10
108.9999997615999
 20
62.999999597600251
 30
0.0
 11
608.99998784069987
 21
62.999999597600251
 31
0.0
  0
CIRCLE
  5
486
  8
0
 10
133.9999997615999
 20
41.99999988070023
 30
0.0
 40
6.2500000000002274
  0
CIRCLE
  5
487
  8
0
 10
583.99999976159984
 20
41.99999988070023
 30
0.0
 40
6.2500000000002274
  0
CIRCLE
  5
488
  8
0
 10
483.99999976160012
 20
41.99999988070023
 30
0.0
 40
6.2500000000002274
  0
CIRCLE
  5
48B
  8
0
 10
383.99999976160001
 20
41.99999988070023
 30
0.0
 40
6.2500000000002274
  0
CIRCLE
  5
48C
  8
0
 10
283.99999976159978
 20
41.99999988070023
 30
0.0
 40
6.2500000000002274
  0
CIRCLE
  5
48D
  8
0
 10
533.99999976159972
 20
41.99999988070023
 30
0.0
 40
6.0
  0
CIRCLE
  5
48E
  8
0
 10
183.99999976160001
 20
41.99999988070023
 30
0.0
 40
6.0
  0
LINE
  5
490
  8
0
 10
108.9999997615999
 20
63.999999761500028
 30
0.0
 11
608.99998784069987
 21
63.999999761500028
 31
0.0
  0
LINE
  5
492
  8
0
 10
608.99998784069987
 20
20.0
 30
0.0
 11
108.9999997615999
 21
20.0
 31
0.0
  0
LINE
  5
493
  8
0
 10
608.99998784069987
 20
20.0
 30
0.0
 11
608.99998784069987
 21
63.999999761500028
 31
0.0
  0
LINE
  5
494
  8
0
 10
108.9999997615999
 20
63.999999761500028
 30
0.0
 11
108.9999997615999
 21
20.0
 31
0.0
  0
LINE
  5
495
  8
0
 10
527.99999803309925
 20
228.00000000729989
 30
0.0
 11
527.67544329169959
 21
227.00000077469971
 31
0.0
  0
LINE
  5
496
  8
0
 10
527.67544329169959
 20
244.99999999990001
 30
0.0
 11
527.99999803309925
 21
244.0000007672997
 31
0.0
  0
LINE
  5
497
  8
0
 10
540.00000000009959
 20
244.0000007672997
 30
0.0
 11
540.32455474139942
 21
244.99999999990001
 31
0.0
  0
LINE
  5
498
  8
0
 10
540.32455474139942
 20
227.00000077469971
 30
0.0
 11
540.00000000009959
 21
228.00000000729989
 31
0.0
  0
ARC
  5
499
  8
0
 10
583.99999976159927
 20
236.00000038729971
 30
0.0
 40
11.000000000001631
 50
54.903198772400877
 51
125.0968012275991
  0
ARC
  5
49A
  8
0
 10
583.99999976159927
 20
236.00000038729971
 30
0.0
 40
11.0000000000017
 50
234.9031987724008
 51
305.09680122759869
  0
LINE
  5
49B
  8
0
 10
577.99999803309925
 20
228.00000000729989
 30
0.0
 11
577.67544329169937
 21
227.00000077469971
 31
0.0
  0
LINE
  5
49C
  8
0
 10
577.67544329169937
 20
244.99999999990001
 30
0.0
 11
577.99999803309925
 21
244.0000007672997
 31
0.0
  0
LINE
  5
49D
  8
0
 10
590.00000000009925
 20
244.0000007672997
 30
0.0
 11
590.32455474139942
 21
244.99999999990001
 31
0.0
  0
LINE
  5
49E
  8
0
 10
590.32455474139942
 20
227.00000077469971
 30
0.0
 11
590.00000000009925
 21
228.00000000729989
 31
0.0
  0
CIRCLE
  5
49F
  8
0
 10
583.99999976159984
 20
236.00000038729971
 30
0.0
 40
10.0
  0
CIRCLE
  5
4A0
  8
0
 10
533.99999976159972
 20
236.00000038729971
 30
0.0
 40
10.0
  0
ARC
  5
4A1
  8
0
 10
483.99999976160012
 20
236.00000038729971
 30
0.0
 40
11.000000000001579
 50
54.903198772400877
 51
125.0968012275991
  0
ARC
  5
4A2
  8
0
 10
483.99999976160012
 20
236.00000038729971
 30
0.0
 40
11.000000000001799
 50
234.9031987724008
 51
305.09680122759869
  0
LINE
  5
4A3
  8
0
 10
490.32452940950031
 20
227.00000077469971
 30
0.0
 11
489.99998211870007
 21
228.00000000729989
 31
0.0
  0
LINE
  5
4A4
  8
0
 10
478.00001740460021
 20
228.00000000729989
 30
0.0
 11
477.6754701138002
 21
227.00000077469971
 31
0.0
  0
LINE
  5
4A5
  8
0
 10
477.6754701138002
 20
244.99999999990001
 30
0.0
 11
478.00001740460021
 21
244.0000007672997
 31
0.0
  0
LINE
  5
4A6
  8
0
 10
489.99998211870007
 20
244.0000007672997
 30
0.0
 11
490.32452940950031
 21
244.99999999990001
 31
0.0
  0
LINE
  5
4A7
  8
0
 10
477.9999980330997
 20
228.00000000729989
 30
0.0
 11
477.67544329170011
 21
227.00000077469971
 31
0.0
  0
LINE
  5
4A8
  8
0
 10
477.67544329170011
 20
244.99999999990001
 30
0.0
 11
477.9999980330997
 21
244.0000007672997
 31
0.0
  0
LINE
  5
4A9
  8
0
 10
490.00000000009999
 20
244.0000007672997
 30
0.0
 11
490.3245547413996
 21
244.99999999990001
 31
0.0
  0
LINE
  5
4AA
  8
0
 10
490.3245547413996
 20
227.00000077469971
 30
0.0
 11
490.00000000009999
 21
228.00000000729989
 31
0.0
  0
CIRCLE
  5
4AB
  8
0
 10
483.99999976160012
 20
236.00000038729971
 30
0.0
 40
10.0
  0
ARC
  5
4C2
  8
0
 10
383.99999976160001
 20
236.00000038729971
 30
0.0
 40
11.000000000001579
 50
54.903198772400877
 51
125.0968012275991
  0
ARC
  5
4C3
  8
0
 10
383.99999976160001
 20
236.00000038729971
 30
0.0
 40
11.000000000001799
 50
234.9031987724008
 51
305.09680122759869
  0
LINE
  5
4C4
  8
0
 10
390.32452940950031
 20
227.00000077469971
 30
0.0
 11
389.99998211870002
 21
228.00000000729989
 31
0.0
  0
LINE
  5
4C5
  8
0
 10
378.00001740460021
 20
228.00000000729989
 30
0.0
 11
377.67547011379997
 21
227.00000077469971
 31
0.0
  0
LINE
  5
4C6
  8
0
 10
377.67547011379997
 20
244.99999999990001
 30
0.0
 11
378.00001740460021
 21
244.0000007672997
 31
0.0
  0
LINE
  5
4C7
  8
0
 10
389.99998211870002
 20
244.0000007672997
 30
0.0
 11
390.32452940950031
 21
244.99999999990001
 31
0.0
  0
LINE
  5
4C8
  8
0
 10
377.99999803309981
 20
228.00000000729989
 30
0.0
 11
377.67544329169988
 21
227.00000077469971
 31
0.0
  0
LINE
  5
4C9
  8
0
 10
377.67544329169988
 20
244.99999999990001
 30
0.0
 11
377.99999803309981
 21
244.0000007672997
 31
0.0
  0
LINE
  5
4CA
  8
0
 10
390.00000000009982
 20
244.0000007672997
 30
0.0
 11
390.32455474139971
 21
244.99999999990001
 31
0.0
  0
LINE
  5
4CB
  8
0
 10
390.32455474139971
 20
227.00000077469971
 30
0.0
 11
390.00000000009982
 21
228.00000000729989
 31
0.0
  0
CIRCLE
  5
4CC
  8
0
 10
383.99999976160001
 20
236.00000038729971
 30
0.0
 40
10.0
  0
ARC
  5
4CD
  8
0
 10
283.99999976159978
 20
236.00000038729971
 30
0.0
 40
11.000000000001579
 50
54.903198772400877
 51
125.0968012275991
  0
ARC
  5
4CE
  8
0
 10
283.99999976159978
 20
236.00000038729971
 30
0.0
 40
11.000000000001799
 50
234.9031987724008
 51
305.09680122759869
  0
LINE
  5
4CF
  8
0
 10
290.32452940949997
 20
227.00000077469971
 30
0.0
 11
289.99998211870002
 21
228.00000000729989
 31
0.0
  0
LINE
  5
4D0
  8
0
 10
278.0000174046001
 20
228.00000000729989
 30
0.0
 11
277.67547011379992
 21
227.00000077469971
 31
0.0
  0
LINE
  5
4D1
  8
0
 10
277.67547011379992
 20
244.99999999990001
 30
0.0
 11
278.0000174046001
 21
244.0000007672997
 31
0.0
  0
LINE
  5
4D2
  8
0
 10
289.99998211870002
 20
244.0000007672997
 30
0.0
 11
290.32452940949997
 21
244.99999999990001
 31
0.0
  0
LINE
  5
4D3
  8
0
 10
277.99999803309947
 20
228.00000000729989
 30
0.0
 11
277.67544329169982
 21
227.00000077469971
 31
0.0
  0
LINE
  5
4D4
  8
0
 10
277.67544329169982
 20
244.99999999990001
 30
0.0
 11
277.99999803309947
 21
244.0000007672997
 31
0.0
  0
LINE
  5
4D5
  8
0
 10
290.00000000009982
 20
244.0000007672997
 30
0.0
 11
290.3245547413996
 21
244.99999999990001
 31
0.0
  0
LINE
  5
4D6
  8
0
 10
290.3245547413996
 20
227.00000077469971
 30
0.0
 11
290.00000000009982
 21
228.00000000729989
 31
0.0
  0
CIRCLE
  5
4D7
  8
0
 10
283.99999976159978
 20
236.00000038729971
 30
0.0
 40
10.0
  0
ARC
  5
4D8
  8
0
 10
183.99999976160009
 20
236.00000038729971
 30
0.0
 40
11.000000000001579
 50
54.903198772400877
 51
125.0968012275991
  0
ARC
  5
4D9
  8
0
 10
183.99999976160009
 20
236.00000038729971
 30
0.0
 40
11.000000000001799
 50
234.9031987724008
 51
305.09680122759869
  0
LINE
  5
4DA
  8
0
 10
190.3245294095002
 20
227.00000077469971
 30
0.0
 11
189.9999821187001
 21
228.00000000729989
 31
0.0
  0
LINE
  5
4DB
  8
0
 10
178.0000174046003
 20
228.00000000729989
 30
0.0
 11
177.6754701138002
 21
227.00000077469971
 31
0.0
  0
LINE
  5
4DC
  8
0
 10
177.6754701138002
 20
244.99999999990001
 30
0.0
 11
178.0000174046003
 21
244.0000007672997
 31
0.0
  0
LINE
  5
4DD
  8
0
 10
189.9999821187001
 20
244.0000007672997
 30
0.0
 11
190.3245294095002
 21
244.99999999990001
 31
0.0
  0
LINE
  5
4DE
  8
0
 10
177.99999803309981
 20
228.00000000729989
 30
0.0
 11
177.67544329169991
 21
227.00000077469971
 31
0.0
  0
LINE
  5
4DF
  8
0
 10
177.67544329169991
 20
244.99999999990001
 30
0.0
 11
177.99999803309981
 21
244.0000007672997
 31
0.0
  0
LINE
  5
4E0
  8
0
 10
190.0000000000999
 20
244.0000007672997
 30
0.0
 11
190.32455474139979
 21
244.99999999990001
 31
0.0
  0
LINE
  5
4E1
  8
0
 10
190.32455474139979
 20
227.00000077469971
 30
0.0
 11
190.0000000000999
 21
228.00000000729989
 31
0.0
  0
CIRCLE
  5
4E2
  8
0
 10
183.99999976160009
 20
236.00000038729971
 30
0.0
 40
10.0
  0
ARC
  5
4E3
  8
0
 10
133.99999976159981
 20
236.00000038729971
 30
0.0
 40
11.000000000001579
 50
54.903198772400877
 51
125.0968012275991
  0
ARC
  5
4E4
  8
0
 10
133.99999976159981
 20
236.00000038729971
 30
0.0
 40
11.000000000001799
 50
234.9031987724008
 51
305.09680122759869
  0
LINE
  5
4E5
  8
0
 10
140.32452940949989
 20
227.00000077469971
 30
0.0
 11
139.9999821186999
 21
228.00000000729989
 31
0.0
  0
LINE
  5
4E6
  8
0
 10
128.00001740459999
 20
228.00000000729989
 30
0.0
 11
127.6754701137999
 21
227.00000077469971
 31
0.0
  0
LINE
  5
4E7
  8
0
 10
127.6754701137999
 20
244.99999999990001
 30
0.0
 11
128.00001740459999
 21
244.0000007672997
 31
0.0
  0
LINE
  5
4E8
  8
0
 10
139.9999821186999
 20
244.0000007672997
 30
0.0
 11
140.32452940949989
 21
244.99999999990001
 31
0.0
  0
LINE
  5
4E9
  8
0
 10
127.9999980330996
 20
228.00000000729989
 30
0.0
 11
127.67544329169969
 21
227.00000077469971
 31
0.0
  0
LINE
  5
4EA
  8
0
 10
127.67544329169969
 20
244.99999999990001
 30
0.0
 11
127.9999980330996
 21
244.0000007672997
 31
0.0
  0
LINE
  5
4EB
  8
0
 10
140.0000000000997
 20
244.0000007672997
 30
0.0
 11
140.3245547413996
 21
244.99999999990001
 31
0.0
  0
LINE
  5
4EC
  8
0
 10
140.3245547413996
 20
227.00000077469971
 30
0.0
 11
140.0000000000997
 21
228.00000000729989
 31
0.0
  0
CIRCLE
  5
4ED
  8
0
 10
133.99999976159981
 20
236.00000038729971
 30
0.0
 40
10.0
  0
CIRCLE
  5
53F
  8
3
 10
158.99999976160001
 20
151.99999976149999
 30
0.0
 40
3.0
  0
CIRCLE
  5
540
  8
0
 10
158.99999976160001
 20
151.99999976149999
 30
0.0
 40
2.458499999999999
  0
LINE
  5
5DE
  8
1
 10
98.999999761599966
 20
41.99999988070023
 30
0.0
 11
618.99998784069976
 21
41.99999988070023
 31
0.0
  0
LINE
  5
5DF
  8
1
 10
133.9999997615999
 20
53.249999880700457
 30
0.0
 11
133.9999997615999
 21
30.749999880699999
 31
0.0
  0
LINE
  5
5E2
  8
1
 10
133.99999976159981
 20
251.00000038729971
 30
0.0
 11
133.99999976159981
 21
221.00000038729971
 31
0.0
  0
LINE
  5
5E4
  8
1
 10
183.99999976160001
 20
53.249999880700457
 30
0.0
 11
183.99999976160001
 21
30.749999880699999
 31
0.0
  0
LINE
  5
5E6
  8
1
 10
183.9999997615999
 20
251.00000038729971
 30
0.0
 11
183.9999997615999
 21
221.00000038729971
 31
0.0
  0
LINE
  5
5E8
  8
1
 10
283.99999976159978
 20
53.249999880700457
 30
0.0
 11
283.99999976159978
 21
30.749999880699999
 31
0.0
  0
LINE
  5
5EA
  8
1
 10
283.99999976159972
 20
251.00000038729971
 30
0.0
 11
283.99999976159972
 21
221.00000038729971
 31
0.0
  0
LINE
  5
5EC
  8
1
 10
383.99999976160001
 20
53.249999880700457
 30
0.0
 11
383.99999976160001
 21
30.749999880699999
 31
0.0
  0
LINE
  5
5EE
  8
1
 10
383.9999997615999
 20
251.00000038729971
 30
0.0
 11
383.9999997615999
 21
221.00000038729971
 31
0.0
  0
LINE
  5
5F8
  8
1
 10
483.99999976160018
 20
53.249999880700457
 30
0.0
 11
483.99999976160018
 21
30.749999880699999
 31
0.0
  0
LINE
  5
5FA
  8
1
 10
483.99999976160012
 20
251.00000038729971
 30
0.0
 11
483.99999976160012
 21
221.00000038729971
 31
0.0
  0
LINE
  5
5FC
  8
1
 10
533.99999976159984
 20
53.249999880700457
 30
0.0
 11
533.99999976159984
 21
30.749999880699999
 31
0.0
  0
LINE
  5
5FE
  8
1
 10
533.99999976159961
 20
251.00000038729971
 30
0.0
 11
533.99999976159961
 21
221.00000038729971
 31
0.0
  0
LINE
  5
600
  8
1
 10
583.99999976159984
 20
53.249999880700457
 30
0.0
 11
583.99999976159984
 21
30.749999880699999
 31
0.0
  0
LINE
  5
602
  8
1
 10
583.99999976159961
 20
251.00000038729971
 30
0.0
 11
583.99999976159961
 21
221.00000038729971
 31
0.0
  0
LINE
  5
604
  8
1
 10
151.54149976159999
 20
151.99999976149999
 30
0.0
 11
166.4584997616
 21
151.99999976149999
 31
0.0
  0
LINE
  5
605
  8
1
 10
158.99999976160001
 20
159.45849976150001
 30
0.0
 11
158.99999976160001
 21
144.54149976150001
 31
0.0
  0
CIRCLE
  5
606
  8
3
 10
208.99999976160001
 20
151.99999976149999
 30
0.0
 40
3.0
  0
LINE
  5
607
  8
1
 10
201.54149976159999
 20
151.99999976149999
 30
0.0
 11
216.45849976160011
 21
151.99999976149999
 31
0.0
  0
LINE
  5
608
  8
1
 10
208.99999976160001
 20
159.45849976150001
 30
0.0
 11
208.99999976160001
 21
144.54149976150001
 31
0.0
  0
CIRCLE
  5
609
  8
3
 10
258.99999976159978
 20
151.99999976149999
 30
0.0
 40
3.0
  0
LINE
  5
60A
  8
1
 10
251.54149976159979
 20
151.99999976149999
 30
0.0
 11
266.45849976159991
 21
151.99999976149999
 31
0.0
  0
LINE
  5
60B
  8
1
 10
258.99999976159978
 20
159.45849976150001
 30
0.0
 11
258.99999976159978
 21
144.54149976150001
 31
0.0
  0
CIRCLE
  5
60C
  8
3
 10
308.99999976159978
 20
151.99999976149999
 30
0.0
 40
3.0
  0
LINE
  5
60D
  8
1
 10
301.54149976159982
 20
151.99999976149999
 30
0.0
 11
316.45849976159991
 21
151.99999976149999
 31
0.0
  0
LINE
  5
60E
  8
1
 10
308.99999976159978
 20
159.45849976150001
 30
0.0
 11
308.99999976159978
 21
144.54149976150001
 31
0.0
  0
CIRCLE
  5
60F
  8
3
 10
358.99999976159978
 20
151.99999976149999
 30
0.0
 40
3.0
  0
LINE
  5
610
  8
1
 10
351.54149976159982
 20
151.99999976149999
 30
0.0
 11
366.45849976159991
 21
151.99999976149999
 31
0.0
  0
LINE
  5
611
  8
1
 10
358.99999976159978
 20
159.45849976150001
 30
0.0
 11
358.99999976159978
 21
144.54149976150001
 31
0.0
  0
CIRCLE
  5
612
  8
3
 10
408.99999976160001
 20
151.99999976149999
 30
0.0
 40
3.0
  0
LINE
  5
613
  8
1
 10
401.54149976159999
 20
151.99999976149999
 30
0.0
 11
416.45849976160002
 21
151.99999976149999
 31
0.0
  0
LINE
  5
614
  8
1
 10
408.99999976160001
 20
159.45849976150001
 30
0.0
 11
408.99999976160001
 21
144.54149976150001
 31
0.0
  0
CIRCLE
  5
615
  8
3
 10
458.99999976160001
 20
151.99999976149999
 30
0.0
 40
3.0
  0
LINE
  5
616
  8
1
 10
451.54149976159999
 20
151.99999976149999
 30
0.0
 11
466.45849976160002
 21
151.99999976149999
 31
0.0
  0
LINE
  5
617
  8
1
 10
458.99999976160001
 20
159.45849976150001
 30
0.0
 11
458.99999976160001
 21
144.54149976150001
 31
0.0
  0
LINE
  5
673
  8
1
 10
36.99999988079999
 20
174.00000149610011
 30
0.0
 11
36.99999988080004
 21
104.000000751
 31
0.0
  0
LINE
  5
676
  8
1
 10
98.99999976159998
 20
236.00000038725
 30
0.0
 11
618.99998784069976
 21
236.00000038725
 31
0.0
  0
LINE
  5
6BC
  8
1
 10
117.9999997615999
 20
129.99999976149999
 30
0.0
 11
599.99999976159984
 21
129.99999976149999
 31
0.0
  0
LINE
  5
6BD
  8
1
 10
588.99999976159984
 20
140.99999976149999
 30
0.0
 11
588.99999976159984
 21
118.99999976150001
 31
0.0
  0
LINE
  5
6BE
  8
1
 10
128.9999997615999
 20
140.99999976149999
 30
0.0
 11
128.9999997615999
 21
118.99999976150001
 31
0.0
  0
LINE
  5
713
  8
2
 10
58.54149976159988
 20
149.0000007510001
 30
0.0
 11
49.500000067099982
 21
149.0000007510001
 31
0.0
  0
LINE
  5
714
  8
2
 10
57.99999976159998
 20
149.541500751
 30
0.0
 11
49.500000067099968
 21
149.541500751
 31
0.0
  0
LINE
  5
715
  8
2
 10
57.99999976159998
 20
154.45850075100009
 30
0.0
 11
45.00000026080005
 21
154.45850075100009
 31
0.0
  0
LINE
  5
716
  8
2
 10
58.54149976159988
 20
155.00000075099999
 30
0.0
 11
45.000000260800057
 21
155.00000075099999
 31
0.0
  0
LINE
  5
71D
  8
2
 10
58.999999761599987
 20
148.54150075099989
 30
0.0
 11
57.999999761599959
 21
149.541500751
 31
0.0
  0
LINE
  5
71E
  8
2
 10
57.99999976159998
 20
154.45850075100009
 30
0.0
 11
58.999999761599987
 21
155.4585007510002
 31
0.0
  0
LINE
  5
71F
  8
2
 10
57.99999976159998
 20
149.541500751
 30
0.0
 11
57.99999976159998
 21
154.45850075100009
 31
0.0
  0
LINE
  5
724
  8
2
 10
26.999999880800001
 20
128.00000149610011
 30
0.0
 11
46.999999880799997
 21
128.00000149610011
 31
0.0
  0
LINE
  5
725
  8
2
 10
30.749999880800111
 20
128.00000149610011
 30
0.0
 11
30.749999880800111
 21
114.000000751
 31
0.0
  0
LINE
  5
726
  8
2
 10
43.249999880800111
 20
128.00000149610011
 30
0.0
 11
43.249999880800111
 21
114.000000751
 31
0.0
  0
LINE
  5
727
  8
2
 10
26.999999880800001
 20
164.00000149610011
 30
0.0
 11
26.999999880800001
 21
153.99999985700009
 31
0.0
  0
LINE
  5
728
  8
2
 10
46.999999880799997
 20
164.00000149610011
 30
0.0
 11
46.999999880799997
 21
153.99999985700009
 31
0.0
  0
LINE
  5
72A
  8
2
 10
46.999999880799997
 20
142.9999999166001
 30
0.0
 11
46.999999880799997
 21
128.00000149610011
 31
0.0
  0
LINE
  5
72B
  8
2
 10
26.999999880800001
 20
142.9999999166001
 30
0.0
 11
26.999999880800001
 21
128.00000149610011
 31
0.0
  0
LINE
  5
72C
  8
2
 10
52.999999761599959
 20
124.00000052749991
 30
0.0
 11
52.999999761599959
 21
136.00000063180011
 31
0.0
  0
LINE
  5
72D
  8
2
 10
58.999999761599959
 20
136.00000063180011
 30
0.0
 11
52.999999761599973
 21
136.00000063180011
 31
0.0
  0
LINE
  5
72E
  8
2
 10
58.999999761599959
 20
124.00000052749991
 30
0.0
 11
52.999999761599973
 21
124.00000052749991
 31
0.0
  0
LINE
  5
732
  8
1
 10
47.999999761599959
 20
130.00000057964999
 30
0.0
 11
63.999999761599973
 21
130.00000057964999
 31
0.0
  0
LINE
  5
733
  8
1
 10
40.00000026080005
 20
152.0000007510001
 30
0.0
 11
63.999999761599973
 21
152.0000007510001
 31
0.0
  0
LINE
  5
734
  8
0
 10
28.99999950079992
 20
153.99999985700009
 30
0.0
 11
24.499999694500008
 21
153.99999985700009
 31
0.0
  0
LINE
  5
735
  8
2
 10
21.000000000000011
 20
124.00000052749991
 30
0.0
 11
21.000000000000011
 21
136.00000063180011
 31
0.0
  0
LINE
  5
736
  8
2
 10
15.458500000000081
 20
149.0000007510001
 30
0.0
 11
24.499999694500001
 21
149.0000007510001
 31
0.0
  0
LINE
  5
737
  8
2
 10
15.99999999999998
 20
149.541500751
 30
0.0
 11
24.499999694500008
 21
149.541500751
 31
0.0
  0
LINE
  5
738
  8
2
 10
15.99999999999998
 20
154.45850075100009
 30
0.0
 11
28.99999950079992
 21
154.45850075100009
 31
0.0
  0
LINE
  5
739
  8
2
 10
15.458500000000081
 20
155.00000075099999
 30
0.0
 11
28.999999500799909
 21
155.00000075099999
 31
0.0
  0
LINE
  5
73A
  8
2
 10
14.99999999999998
 20
148.54150075099989
 30
0.0
 11
16.000000000000011
 21
149.541500751
 31
0.0
  0
LINE
  5
73B
  8
2
 10
15.99999999999998
 20
154.45850075100009
 30
0.0
 11
14.99999999999998
 21
155.4585007510002
 31
0.0
  0
LINE
  5
73C
  8
2
 10
15.99999999999998
 20
149.541500751
 30
0.0
 11
15.99999999999998
 21
154.45850075100009
 31
0.0
  0
LINE
  5
73D
  8
2
 10
15.000000000000011
 20
136.00000063180011
 30
0.0
 11
21.0
 21
136.00000063180011
 31
0.0
  0
LINE
  5
73E
  8
2
 10
15.000000000000011
 20
124.00000052749991
 30
0.0
 11
21.0
 21
124.00000052749991
 31
0.0
  0
LINE
  5
73F
  8
1
 10
26.000000000000011
 20
130.00000057964999
 30
0.0
 11
10.0
 21
130.00000057964999
 31
0.0
  0
LINE
  5
740
  8
1
 10
33.999999500799923
 20
152.0000007510001
 30
0.0
 11
10.0
 21
152.0000007510001
 31
0.0
  0
CIRCLE
  5
97E
  8
0
 10
508.99999976160001
 20
151.99999976149999
 30
0.0
 40
2.4584999999999582
  0
CIRCLE
  5
97F
  8
3
 10
508.99999976160001
 20
151.99999976149999
 30
0.0
 40
3.0
  0
LINE
  5
980
  8
1
 10
501.54149976159999
 20
151.99999976149999
 30
0.0
 11
516.45849976160002
 21
151.99999976149999
 31
0.0
  0
LINE
  5
981
  8
1
 10
508.99999976160001
 20
159.45849976150001
 30
0.0
 11
508.99999976160001
 21
144.54149976150001
 31
0.0
  0
CIRCLE
  5
988
  8
0
 10
558.99999976160007
 20
151.99999976149999
 30
0.0
 40
2.4584999999999582
  0
CIRCLE
  5
989
  8
3
 10
558.99999976160007
 20
151.99999976149999
 30
0.0
 40
3.0
  0
LINE
  5
98A
  8
1
 10
551.54149976160011
 20
151.99999976149999
 30
0.0
 11
566.45849976160002
 21
151.99999976149999
 31
0.0
  0
LINE
  5
98B
  8
1
 10
558.99999976160007
 20
159.45849976150001
 30
0.0
 11
558.99999976160007
 21
144.54149976150001
 31
0.0
  0
LINE
  5
98C
  8
0
 10
390.32455508193988
 20
245.00000038729939
 30
0.0
 11
477.67544329170011
 21
244.99999999990001
 31
0.0
  0
LINE
  5
98D
  8
0
 10
477.9999980330997
 20
244.0000007672997
 30
0.0
 11
390.00000000009982
 21
244.0000007672997
 31
0.0
  0
LINE
  5
98E
  8
0
 10
390.32455508193988
 20
227.00000038720071
 30
0.0
 11
477.67544329170011
 21
227.0000007746001
 31
0.0
  0
LINE
  5
98F
  8
0
 10
477.9999980330997
 20
228.00000000720041
 30
0.0
 11
390.00000000009982
 21
228.00000000720041
 31
0.0
  0
ENDSEC
  0
EOF
