  0
SECTION
  2
HEADER
  9
$ACADVER
  1
AC1009
  9
$INSBASE
 10
0.0
 20
0.0
 30
0.0
  9
$EXTMIN
 10
0.0
 20
-2.960436562073669
 30
0.0
  9
$EXTMAX
 10
149.99999999999989
 20
151.64992816589989
 30
0.0
  9
$LIMMIN
 10
0.0
 20
0.0
  9
$LIMMAX
 10
375.0
 20
270.0
  9
$ORTHOMODE
 70
     1
  9
$REGENMODE
 70
     1
  9
$FILLMODE
 70
     1
  9
$QTEXTMODE
 70
     0
  9
$MIRRTEXT
 70
     0
  9
$DRAGMODE
 70
     2
  9
$LTSCALE
 40
10.0
  9
$OSMODE
 70
    37
  9
$ATTMODE
 70
     1
  9
$TEXTSIZE
 40
0.2
  9
$TRACEWID
 40
0.05
  9
$TEXTSTYLE
  7
STANDARD
  9
$CLAYER
  8
0
  9
$CELTYPE
  6
BYLAYER
  9
$CECOLOR
 62
   256
  9
$DIMSCALE
 40
1.0
  9
$DIMASZ
 40
3.0
  9
$DIMEXO
 40
1.0
  9
$DIMDLI
 40
6.0
  9
$DIMRND
 40
0.0
  9
$DIMDLE
 40
0.0
  9
$DIMEXE
 40
1.0
  9
$DIMTP
 40
495.0
  9
$DIMTM
 40
0.0
  9
$DIMTXT
 40
3.0
  9
$DIMCEN
 40
0.0
  9
$DIMTSZ
 40
0.0
  9
$DIMTOL
 70
     0
  9
$DIMLIM
 70
     0
  9
$DIMTIH
 70
     0
  9
$DIMTOH
 70
     0
  9
$DIMSE1
 70
     0
  9
$DIMSE2
 70
     0
  9
$DIMTAD
 70
     1
  9
$DIMZIN
 70
     0
  9
$DIMBLK
  1

  9
$DIMASO
 70
     0
  9
$DIMSHO
 70
     0
  9
$DIMPOST
  1

  9
$DIMAPOST
  1

  9
$DIMALT
 70
     0
  9
$DIMALTD
 70
     2
  9
$DIMALTF
 40
25.399999999999999
  9
$DIMLFAC
 40
1.0
  9
$DIMTOFL
 70
     1
  9
$DIMTVP
 40
0.0
  9
$DIMTIX
 70
     1
  9
$DIMSOXD
 70
     0
  9
$DIMSAH
 70
     0
  9
$DIMBLK1
  1

  9
$DIMBLK2
  1

  9
$DIMSTYLE
  2
STANDARD
  9
$DIMCLRD
 70
     0
  9
$DIMCLRE
 70
     0
  9
$DIMCLRT
 70
     0
  9
$DIMTFAC
 40
1.0
  9
$DIMGAP
 40
0.09
  9
$LUNITS
 70
     2
  9
$LUPREC
 70
     2
  9
$SKETCHINC
 40
0.1
  9
$FILLETRAD
 40
0.8
  9
$AUNITS
 70
     0
  9
$AUPREC
 70
     2
  9
$MENU
  1
E:\r13\win\SUPPORT\ACAD
  9
$ELEVATION
 40
0.0
  9
$PELEVATION
 40
0.0
  9
$THICKNESS
 40
0.0
  9
$LIMCHECK
 70
     0
  9
$BLIPMODE
 70
     0
  9
$CHAMFERA
 40
0.0
  9
$CHAMFERB
 40
0.0
  9
$SKPOLY
 70
     0
  9
$TDCREATE
 40
2449840.3442129628
  9
$TDUPDATE
 40
2457711.3985042251
  9
$TDINDWG
 40
0.0626475926
  9
$TDUSRTIMER
 40
0.0626475926
  9
$USRTIMER
 70
     1
  9
$ANGBASE
 50
0.0
  9
$ANGDIR
 70
     0
  9
$PDMODE
 70
     0
  9
$PDSIZE
 40
0.0
  9
$PLINEWID
 40
0.0
  9
$COORDS
 70
     1
  9
$SPLFRAME
 70
     0
  9
$SPLINETYPE
 70
     6
  9
$SPLINESEGS
 70
     8
  9
$ATTDIA
 70
     0
  9
$ATTREQ
 70
     1
  9
$HANDLING
 70
     1
  9
$HANDSEED
  5
2B1E
  9
$SURFTAB1
 70
     6
  9
$SURFTAB2
 70
     6
  9
$SURFTYPE
 70
     6
  9
$SURFU
 70
     6
  9
$SURFV
 70
     6
  9
$UCSNAME
  2

  9
$UCSORG
 10
0.0
 20
0.0
 30
0.0
  9
$UCSXDIR
 10
1.0
 20
0.0
 30
0.0
  9
$UCSYDIR
 10
0.0
 20
1.0
 30
0.0
  9
$PUCSNAME
  2

  9
$PUCSORG
 10
0.0
 20
0.0
 30
0.0
  9
$PUCSXDIR
 10
1.0
 20
0.0
 30
0.0
  9
$PUCSYDIR
 10
0.0
 20
1.0
 30
0.0
  9
$USERI1
 70
     3
  9
$USERI2
 70
     1
  9
$USERI3
 70
     0
  9
$USERI4
 70
     1
  9
$USERI5
 70
     0
  9
$USERR1
 40
1.0
  9
$USERR2
 40
3.0
  9
$USERR3
 40
3.0
  9
$USERR4
 40
3.0
  9
$USERR5
 40
10.0
  9
$WORLDVIEW
 70
     1
  9
$SHADEDGE
 70
     3
  9
$SHADEDIF
 70
    70
  9
$TILEMODE
 70
     1
  9
$MAXACTVP
 70
    16
  9
$PLIMCHECK
 70
     0
  9
$PEXTMIN
 10
1.0000000000000000E+020
 20
1.0000000000000000E+020
 30
1.0000000000000000E+020
  9
$PEXTMAX
 10
-1.0000000000000000E+020
 20
-1.0000000000000000E+020
 30
-1.0000000000000000E+020
  9
$PLIMMIN
 10
0.0
 20
0.0
  9
$PLIMMAX
 10
12.0
 20
9.0
  9
$UNITMODE
 70
     0
  9
$VISRETAIN
 70
     0
  9
$PLINEGEN
 70
     0
  9
$PSLTSCALE
 70
     0
  0
ENDSEC
  0
SECTION
  2
TABLES
  0
TABLE
  2
VPORT
 70
     1
  0
VPORT
  2
*ACTIVE
 70
     0
 10
0.0
 20
0.0
 11
1.0
 21
1.0
 12
117.8857097714925
 22
74.345769287186457
 13
0.0
 23
0.0
 14
1.0
 24
1.0
 15
10.0
 25
10.0
 16
0.0
 26
0.0
 36
1.0
 17
0.0
 27
0.0
 37
0.0
 40
155.87105951528531
 41
1.816239316239316
 42
50.0
 43
0.0
 44
0.0
 50
0.0
 51
0.0
 71
     0
 72
   100
 73
     1
 74
     0
 75
     0
 76
     0
 77
     0
 78
     0
  0
ENDTAB
  0
TABLE
  2
LTYPE
 70
     5
  0
LTYPE
  2
CONTINUOUS
 70
     0
  3
Solid Line
 72
    65
 73
     0
 40
0.0
  0
LTYPE
  2
CENTER
 70
     0
  3
____ _ ____ _ ____ _ ____ _ ____ _ ____ _ ____
 72
    65
 73
     4
 40
2.0
 49
1.25
 49
-0.25
 49
0.25
 49
-0.25
  0
LTYPE
  2
PHANTOM
 70
     0
  3
_____ _ _ _____ _ _ _____ _ _ _____ _ _ ____
 72
    65
 73
     6
 40
2.5
 49
1.25
 49
-0.25
 49
0.25
 49
-0.25
 49
0.25
 49
-0.25
  0
LTYPE
  2
PHANTOM2
 70
     0
  3
Phantom (.5x) ___ _ _ ___ _ _ ___ _ _ ___ _ _
 72
    65
 73
     6
 40
1.25
 49
0.625
 49
-0.125
 49
0.125
 49
-0.125
 49
0.125
 49
-0.125
  0
LTYPE
  2
HIDDEN
 70
     0
  3
_ _ _ _ _ _ _ _ _ _ _ _ _ _ _ _ _ _ _ _ _ _ _
 72
    65
 73
     2
 40
0.375
 49
0.25
 49
-0.125
  0
ENDTAB
  0
TABLE
  2
LAYER
 70
     5
  0
LAYER
  2
0
 70
     0
 62
     7
  6
CONTINUOUS
  0
LAYER
  2
1
 70
     0
 62
     1
  6
CENTER
  0
LAYER
  2
3
 70
     0
 62
     3
  6
CONTINUOUS
  0
LAYER
  2
2
 70
     0
 62
     2
  6
HIDDEN
  0
LAYER
  2
5
 70
     0
 62
     3
  6
PHANTOM2
  0
ENDTAB
  0
TABLE
  2
STYLE
 70
     2
  0
STYLE
  2
STANDARD
 70
     0
 40
0.0
 41
1.0
 50
0.0
 71
     0
 42
0.2
  3
TXT
  4
BIGFONT
  0
STYLE
  2
STANDARD1
 70
     0
 40
0.0
 41
1.0
 50
0.0
 71
     0
 42
3.0
  3
txt
  4

  0
ENDTAB
  0
TABLE
  2
VIEW
 70
     0
  0
ENDTAB
  0
TABLE
  2
UCS
 70
     0
  0
ENDTAB
  0
TABLE
  2
APPID
 70
     4
  0
APPID
  2
ACAD
 70
     0
  0
APPID
  2
ACAD_MLEADERVER
 70
     0
  0
APPID
  2
ACAD_EXEMPT_FROM_CAD_STANDARDS
 70
     0
  0
APPID
  2
ACAD_NAV_VCDISPLAY
 70
     0
  0
ENDTAB
  0
TABLE
  2
DIMSTYLE
 70
     2
  0
DIMSTYLE
  2
STANDARD
 70
     0
  3

  4

  5

  6

  7

 40
1.0
 41
0.18
 42
0.0625
 43
0.38
 44
0.18
 45
0.0
 46
0.0
 47
0.0
 48
0.0
140
0.18
141
0.09
142
0.0
143
25.399999999999999
144
1.0
145
0.0
146
1.0
147
0.09
 71
     0
 72
     0
 73
     1
 74
     1
 75
     0
 76
     0
 77
     0
 78
     0
170
     0
171
     2
172
     0
173
     0
174
     0
175
     0
176
     0
177
     0
178
     0
  0
DIMSTYLE
  2
ISO-25
 70
     0
  3

  4

  5

  6

  7

 40
1.0
 41
2.5
 42
0.625
 43
3.75
 44
1.25
 45
0.0
 46
0.0
 47
0.0
 48
0.0
140
2.5
141
2.5
142
0.0
143
0.0393700787
144
1.0
145
0.0
146
1.0
147
0.625
 71
     0
 72
     0
 73
     0
 74
     0
 75
     0
 76
     0
 77
     1
 78
     8
170
     0
171
     3
172
     1
173
     0
174
     0
175
     0
176
     0
177
     0
178
     0
  0
ENDTAB
  0
ENDSEC
  0
SECTION
  2
BLOCKS
  0
BLOCK
  8
0
  2
$MODEL_SPACE
 70
     0
 10
0.0
 20
0.0
 30
0.0
  3
$MODEL_SPACE
  1

  0
ENDBLK
  5
614
  8
0
  0
BLOCK
 67
     1
  8
0
  2
$PAPER_SPACE
 70
     0
 10
0.0
 20
0.0
 30
0.0
  3
$PAPER_SPACE
  1

  0
ENDBLK
  5
612
 67
     1
  8
0
  0
BLOCK
  8
0
  2
BBB
 70
     0
 10
0.0
 20
0.0
 30
0.0
  3
BBB
  1

  0
LINE
  5
2B
  8
0
 10
-16.347819000000001
 20
4.5612009999999996
 30
0.0
 11
-15.632993000000001
 21
5.9000000000000004
 31
0.0
  0
LINE
  5
2C
  8
0
 10
-16.309011999999999
 20
3.7145320000000002
 30
0.0
 11
-15.596173
 21
5.0496089999999993
 31
0.0
  0
LINE
  5
2D
  8
0
 10
-15.163779
 20
4.6844320000000002
 30
0.0
 11
-14.514749
 21
5.9000000000000004
 31
0.0
  0
LINE
  5
2E
  8
0
 10
-15.190769
 20
3.7145320000000002
 30
0.0
 11
-14.242421999999999
 21
5.4906930000000003
 31
0.0
  0
LINE
  5
2F
  8
0
 10
-13.863538999999999
 20
4.8530749999999987
 30
0.0
 11
-13.304553
 21
5.9000000000000004
 31
0.0
  0
LINE
  5
30
  8
0
 10
-13.980573
 20
3.7145320000000002
 30
0.0
 11
-13.078431999999999
 21
5.404151999999999
 31
0.0
  0
LINE
  5
31
  8
0
 10
-15.594749999999999
 20
5.8893810000000002
 30
0.0
 11
-15.598262
 21
3.8168730000000002
 31
0.0
  0
LINE
  5
32
  8
0
 10
-15.161719
 20
5.9000000000000004
 30
0.0
 11
-15.16525
 21
3.8161389999999988
 31
0.0
  0
ARC
  5
33
  8
0
 10
-15.381755999999999
 20
3.816506
 30
0.0
 40
0.216506
 50
179.90290300000001
 51
359.90290299999998
  0
ARC
  5
34
  8
0
 10
-14.171561000000001
 20
3.816506
 30
0.0
 40
0.216506
 50
175.0
 51
355.0
  0
LINE
  5
35
  8
0
 10
-13.771945000000001
 20
5.9000000000000004
 30
0.0
 11
-13.955878
 21
3.7976369999999999
 31
0.0
  0
LINE
  5
36
  8
0
 10
-14.206612
 20
5.9000000000000004
 30
0.0
 11
-14.387243
 21
3.8353760000000001
 31
0.0
  0
ARC
  5
37
  8
0
 10
-13.0
 20
3.816506
 30
0.0
 40
0.216506
 50
175.0
 51
355.0
  0
LINE
  5
38
  8
0
 10
-12.600384999999999
 20
5.9000000000000004
 30
0.0
 11
-12.784318000000001
 21
3.7976369999999999
 31
0.0
  0
LINE
  5
39
  8
0
 10
-13.035050999999999
 20
5.9000000000000004
 30
0.0
 11
-13.215681999999999
 21
3.8353760000000001
 31
0.0
  0
LINE
  5
3A
  8
0
 10
-23.964949000000001
 20
5.9000000000000004
 30
0.0
 11
-23.784317999999999
 21
3.8353760000000001
 31
0.0
  0
LINE
  5
3B
  8
0
 10
-14.304107999999999
 20
-6.2999999999999989
 30
0.0
 11
-14.216506000000001
 21
-5.9674959999999988
 31
0.0
  0
LINE
  5
3C
  8
0
 10
-14.980409999999999
 20
-6.2999999999999989
 30
0.0
 11
-14.766506
 21
-5.4881029999999988
 31
0.0
  0
ARC
  5
3D
  8
0
 10
-14.550000000000001
 20
-3.816506
 30
0.0
 40
0.216506
 50
0.0
 51
180.0
  0
LINE
  5
3E
  8
0
 10
-14.766506
 20
-6.2999999999999989
 30
0.0
 11
-14.766506
 21
-3.816506
 31
0.0
  0
LINE
  5
3F
  8
0
 10
-14.333494
 20
-6.2999999999999989
 30
0.0
 11
-14.333494
 21
-3.816506
 31
0.0
  0
LINE
  5
40
  8
0
 10
-15.190988000000001
 20
-3.7145320000000002
 30
0.0
 11
-16.485931000000001
 21
-6.1398339999999987
 31
0.0
  0
LINE
  5
41
  8
0
 10
-15.308021
 20
-4.8530749999999987
 30
0.0
 11
-16.080579
 21
-6.2999999999999989
 31
0.0
  0
ARC
  5
42
  8
0
 10
-15.0
 20
-3.816506
 30
0.0
 40
0.216506
 50
355.0
 51
175.0
  0
LINE
  5
43
  8
0
 10
-15.434611
 20
-6.2999999999999989
 30
0.0
 11
-15.215681999999999
 21
-3.7976369999999999
 31
0.0
  0
LINE
  5
44
  8
0
 10
-14.999943999999999
 20
-6.2999999999999989
 30
0.0
 11
-14.784318000000001
 21
-3.8353760000000001
 31
0.0
  0
LINE
  5
45
  8
0
 10
-14.216506000000001
 20
-6.2999999999999989
 30
0.0
 11
-14.216506000000001
 21
-3.816506
 31
0.0
  0
LINE
  5
46
  8
0
 10
-16.499943999999999
 20
-6.2999999999999989
 30
0.0
 11
-16.284317999999999
 21
-3.8353760000000001
 31
0.0
  0
LINE
  5
47
  8
0
 10
-16.899615000000001
 20
5.9000000000000004
 30
0.0
 11
-16.715682000000001
 21
3.7976369999999999
 31
0.0
  0
ARC
  5
48
  8
0
 10
-16.5
 20
-3.816506
 30
0.0
 40
0.216506
 50
355.0
 51
175.0
  0
LINE
  5
49
  8
0
 10
-16.808021
 20
4.8530749999999987
 30
0.0
 11
-17.367007000000001
 21
5.9000000000000004
 31
0.0
  0
LINE
  5
4A
  8
0
 10
-16.690988000000001
 20
3.7145320000000002
 30
0.0
 11
-17.857876999999998
 21
5.9000000000000004
 31
0.0
  0
LINE
  5
4B
  8
0
 10
-18.399615000000001
 20
5.9000000000000004
 30
0.0
 11
-18.215682000000001
 21
3.7976369999999999
 31
0.0
  0
LINE
  5
4C
  8
0
 10
-18.308021
 20
4.8530749999999987
 30
0.0
 11
-18.867007000000001
 21
5.9000000000000004
 31
0.0
  0
LINE
  5
4D
  8
0
 10
-18.190988000000001
 20
3.7145320000000002
 30
0.0
 11
-19.357876999999998
 21
5.9000000000000004
 31
0.0
  0
ARC
  5
4E
  8
0
 10
-18.0
 20
3.816506
 30
0.0
 40
0.216506
 50
185.0
 51
5.0
  0
LINE
  5
4F
  8
0
 10
-17.964949000000001
 20
5.9000000000000004
 30
0.0
 11
-17.784317999999999
 21
3.8353760000000001
 31
0.0
  0
LINE
  5
50
  8
0
 10
-19.899615000000001
 20
5.9000000000000004
 30
0.0
 11
-19.715682000000001
 21
3.7976369999999999
 31
0.0
  0
LINE
  5
51
  8
0
 10
-19.808021
 20
4.8530749999999987
 30
0.0
 11
-20.367007000000001
 21
5.9000000000000004
 31
0.0
  0
LINE
  5
52
  8
0
 10
-19.690988000000001
 20
3.7145320000000002
 30
0.0
 11
-20.857876999999998
 21
5.9000000000000004
 31
0.0
  0
ARC
  5
53
  8
0
 10
-19.5
 20
3.816506
 30
0.0
 40
0.216506
 50
185.0
 51
5.0
  0
LINE
  5
54
  8
0
 10
-19.464949000000001
 20
5.9000000000000004
 30
0.0
 11
-19.284317999999999
 21
3.8353760000000001
 31
0.0
  0
LINE
  5
55
  8
0
 10
-21.399615000000001
 20
5.9000000000000004
 30
0.0
 11
-21.215682000000001
 21
3.7976369999999999
 31
0.0
  0
LINE
  5
56
  8
0
 10
-21.308021
 20
4.8530749999999987
 30
0.0
 11
-21.867007000000001
 21
5.9000000000000004
 31
0.0
  0
LINE
  5
57
  8
0
 10
-21.190988000000001
 20
3.7145320000000002
 30
0.0
 11
-22.357876999999998
 21
5.9000000000000004
 31
0.0
  0
ARC
  5
58
  8
0
 10
-21.0
 20
3.816506
 30
0.0
 40
0.216506
 50
185.0
 51
5.0
  0
LINE
  5
59
  8
0
 10
-20.964949000000001
 20
5.9000000000000004
 30
0.0
 11
-20.784317999999999
 21
3.8353760000000001
 31
0.0
  0
LINE
  5
5A
  8
0
 10
-22.464949000000001
 20
5.9000000000000004
 30
0.0
 11
-22.284317999999999
 21
3.8353760000000001
 31
0.0
  0
LINE
  5
5B
  8
0
 10
-22.899615000000001
 20
5.9000000000000004
 30
0.0
 11
-22.715682000000001
 21
3.7976369999999999
 31
0.0
  0
ARC
  5
5C
  8
0
 10
-22.5
 20
3.816506
 30
0.0
 40
0.216506
 50
185.0
 51
5.0
  0
LINE
  5
5D
  8
0
 10
-22.808021
 20
4.8530749999999987
 30
0.0
 11
-23.367007000000001
 21
5.9000000000000004
 31
0.0
  0
LINE
  5
5E
  8
0
 10
-22.690988000000001
 20
3.7145320000000002
 30
0.0
 11
-23.857876999999998
 21
5.9000000000000004
 31
0.0
  0
ARC
  5
5F
  8
0
 10
-24.0
 20
3.816506
 30
0.0
 40
0.216506
 50
185.0
 51
5.0
  0
LINE
  5
60
  8
0
 10
-24.434611
 20
6.2999999999999989
 30
0.0
 11
-24.215682000000001
 21
3.7976369999999999
 31
0.0
  0
ARC
  5
61
  8
0
 10
-25.5
 20
3.816506
 30
0.0
 40
0.216506
 50
185.0
 51
5.0
  0
LINE
  5
62
  8
0
 10
-25.499943999999999
 20
6.2999999999999989
 30
0.0
 11
-25.284317999999999
 21
3.8353760000000001
 31
0.0
  0
LINE
  5
63
  8
0
 10
-25.934611
 20
6.2999999999999989
 30
0.0
 11
-25.715682000000001
 21
3.7976369999999999
 31
0.0
  0
ARC
  5
64
  8
0
 10
-27.0
 20
3.816506
 30
0.0
 40
0.216506
 50
185.0
 51
5.0
  0
LINE
  5
65
  8
0
 10
-26.999943999999999
 20
6.2999999999999989
 30
0.0
 11
-26.784317999999999
 21
3.8353760000000001
 31
0.0
  0
LINE
  5
66
  8
0
 10
-27.434611
 20
6.2999999999999989
 30
0.0
 11
-27.215682000000001
 21
3.7976369999999999
 31
0.0
  0
ARC
  5
67
  8
0
 10
-33.284999999999997
 20
0.0
 30
0.0
 40
0.215
 50
90.0
 51
270.0
  0
LINE
  5
68
  8
0
 10
-31.593574
 20
-0.215
 30
0.0
 11
-33.284999999999997
 21
-0.215
 31
0.0
  0
LINE
  5
69
  8
0
 10
-31.593574
 20
0.215
 30
0.0
 11
-33.284999999999997
 21
0.215
 31
0.0
  0
LINE
  5
6A
  8
0
 10
-31.198246000000001
 20
1.6526419999999991
 30
0.0
 11
-32.901539
 21
2.2060749999999989
 31
0.0
  0
LINE
  5
6B
  8
0
 10
-31.373275
 20
1.257382999999999
 30
0.0
 11
-33.034416999999998
 21
1.7971209999999991
 31
0.0
  0
ARC
  5
6C
  8
0
 10
-32.967978000000002
 20
2.0015979999999991
 30
0.0
 40
0.215
 50
72.0
 51
252.0
  0
LINE
  5
6D
  8
0
 10
-30.278337000000001
 20
2.7873250000000001
 30
0.0
 11
-31.921569999999999
 21
3.9812050000000001
 31
0.0
  0
LINE
  5
6E
  8
0
 10
-30.600261
 20
2.4897079999999998
 30
0.0
 11
-32.174318
 21
3.6333269999999991
 31
0.0
  0
ARC
  5
6F
  8
0
 10
-32.047944000000001
 20
3.8072659999999998
 30
0.0
 40
0.215
 50
54.0
 51
234.0
  0
LINE
  5
70
  8
0
 10
-29.044895
 20
3.4450249999999989
 30
0.0
 11
-30.441020000000002
 21
5.3666260000000001
 31
0.0
  0
LINE
  5
71
  8
0
 10
-29.46321
 20
3.289226999999999
 30
0.0
 11
-30.788896999999999
 21
5.1138779999999988
 31
0.0
  0
ARC
  5
72
  8
0
 10
-30.614958000000001
 20
5.240251999999999
 30
0.0
 40
0.215
 50
36.0
 51
216.0
  0
LINE
  5
73
  8
0
 10
-28.001322999999999
 20
3.7582049999999998
 30
0.0
 11
-28.764595
 21
6.1073149999999989
 31
0.0
  0
LINE
  5
74
  8
0
 10
-28.410277000000001
 20
3.6253279999999992
 30
0.0
 11
-29.173549000000001
 21
5.9744380000000001
 31
0.0
  0
ARC
  5
75
  8
0
 10
-28.969072000000001
 20
6.040875999999999
 30
0.0
 40
0.215
 50
18.0
 51
198.0
  0
ARC
  5
76
  8
0
 10
-28.2058
 20
3.691767
 30
0.0
 40
0.215
 50
198.0
 51
211.652694
  0
ARC
  5
77
  8
0
 10
-27.215627000000001
 20
6.2811300000000001
 30
0.0
 40
0.216506
 50
5.0
 51
185.0
  0
ARC
  5
78
  8
0
 10
-25.715627000000001
 20
6.2811300000000001
 30
0.0
 40
0.216506
 50
5.0
 51
185.0
  0
ARC
  5
79
  8
0
 10
-24.215627000000001
 20
6.2811300000000001
 30
0.0
 40
0.216506
 50
85.855304000000004
 51
185.0
  0
LINE
  5
7A
  8
0
 10
-24.286496
 20
4.607041999999999
 30
0.0
 11
-25.537932999999999
 21
6.4048230000000004
 31
0.0
  0
LINE
  5
7B
  8
0
 10
-24.177693999999999
 20
3.6928139999999989
 30
0.0
 11
-25.429130000000001
 21
5.4905939999999998
 31
0.0
  0
LINE
  5
7C
  8
0
 10
-25.677693999999999
 20
3.6928139999999989
 30
0.0
 11
-26.929130000000001
 21
5.4905939999999998
 31
0.0
  0
LINE
  5
7D
  8
0
 10
-25.786496
 20
4.607041999999999
 30
0.0
 11
-27.037932999999999
 21
6.4048230000000004
 31
0.0
  0
LINE
  5
7E
  8
0
 10
-27.162113000000002
 20
3.672998999999999
 30
0.0
 11
-28.444237000000001
 21
5.1213559999999987
 31
0.0
  0
LINE
  5
7F
  8
0
 10
-27.272880000000001
 20
4.4514050000000003
 30
0.0
 11
-28.806958999999999
 21
6.1843830000000004
 31
0.0
  0
LINE
  5
80
  8
0
 10
-28.424396000000002
 20
3.5748969999999991
 30
0.0
 11
-29.765552
 21
4.4369249999999987
 31
0.0
  0
LINE
  5
81
  8
0
 10
-28.597238000000001
 20
4.200734999999999
 30
0.0
 11
-30.497895
 21
5.4223809999999988
 31
0.0
  0
LINE
  5
82
  8
0
 10
-29.762816000000001
 20
3.1388660000000002
 30
0.0
 11
-31.131270000000001
 21
3.407017999999999
 31
0.0
  0
LINE
  5
83
  8
0
 10
-29.6599
 20
3.5599470000000002
 30
0.0
 11
-32.006310999999997
 21
4.0197320000000003
 31
0.0
  0
LINE
  5
84
  8
0
 10
-30.976490999999999
 20
2.0249700000000002
 30
0.0
 11
-31.972486
 21
1.9042069999999991
 31
0.0
  0
LINE
  5
85
  8
0
 10
-30.620387000000001
 20
2.5043299999999991
 30
0.0
 11
-32.994038000000003
 21
2.2165300000000001
 31
0.0
  0
LINE
  5
86
  8
0
 10
-31.555451000000001
 20
0.564596
 30
0.0
 11
-32.308135
 21
0.215
 31
0.0
  0
LINE
  5
87
  8
0
 10
-31.427332
 20
1.1015429999999991
 30
0.0
 11
-33.376201999999999
 21
0.19636
 31
0.0
  0
ARC
  5
88
  8
0
 10
-28.2058
 20
3.691767
 30
0.0
 40
0.215
 50
334.72868
 51
18.0
  0
ARC
  5
89
  8
0
 10
-28.2058
 20
-3.691767
 30
0.0
 40
0.215
 50
342.0
 51
25.271319999999999
  0
LINE
  5
8A
  8
0
 10
-31.427332
 20
-1.1015429999999991
 30
0.0
 11
-33.376201999999999
 21
-0.19636
 31
0.0
  0
LINE
  5
8B
  8
0
 10
-31.555451000000001
 20
-0.564596
 30
0.0
 11
-32.308135
 21
-0.215
 31
0.0
  0
LINE
  5
8C
  8
0
 10
-30.620387000000001
 20
-2.5043299999999991
 30
0.0
 11
-32.994038000000003
 21
-2.2165300000000001
 31
0.0
  0
LINE
  5
8D
  8
0
 10
-30.976490999999999
 20
-2.0249700000000002
 30
0.0
 11
-31.972486
 21
-1.9042069999999991
 31
0.0
  0
LINE
  5
8E
  8
0
 10
-29.6599
 20
-3.5599470000000002
 30
0.0
 11
-32.006310999999997
 21
-4.0197320000000003
 31
0.0
  0
LINE
  5
8F
  8
0
 10
-29.762816000000001
 20
-3.1388660000000002
 30
0.0
 11
-31.131270000000001
 21
-3.407017999999999
 31
0.0
  0
LINE
  5
90
  8
0
 10
-28.597238000000001
 20
-4.200734999999999
 30
0.0
 11
-30.497895
 21
-5.4223809999999988
 31
0.0
  0
LINE
  5
91
  8
0
 10
-28.424396000000002
 20
-3.5748969999999991
 30
0.0
 11
-29.765552
 21
-4.4369249999999987
 31
0.0
  0
LINE
  5
92
  8
0
 10
-27.272880000000001
 20
-4.4514050000000003
 30
0.0
 11
-28.806958999999999
 21
-6.1843830000000004
 31
0.0
  0
LINE
  5
93
  8
0
 10
-27.162113000000002
 20
-3.672998999999999
 30
0.0
 11
-28.444237000000001
 21
-5.1213559999999987
 31
0.0
  0
LINE
  5
94
  8
0
 10
-25.786496
 20
-4.607041999999999
 30
0.0
 11
-27.037932999999999
 21
-6.4048230000000004
 31
0.0
  0
LINE
  5
95
  8
0
 10
-25.677693999999999
 20
-3.6928139999999989
 30
0.0
 11
-26.929130000000001
 21
-5.4905939999999998
 31
0.0
  0
LINE
  5
96
  8
0
 10
-24.177693999999999
 20
-3.6928139999999989
 30
0.0
 11
-25.429130000000001
 21
-5.4905939999999998
 31
0.0
  0
LINE
  5
97
  8
0
 10
-24.286496
 20
-4.607041999999999
 30
0.0
 11
-25.537932999999999
 21
-6.4048230000000004
 31
0.0
  0
ARC
  5
98
  8
0
 10
-24.215627000000001
 20
-6.2811300000000001
 30
0.0
 40
0.216506
 50
175.0
 51
274.139002
  0
ARC
  5
99
  8
0
 10
-25.715627000000001
 20
-6.2811300000000001
 30
0.0
 40
0.216506
 50
175.0
 51
355.0
  0
ARC
  5
9A
  8
0
 10
-27.215627000000001
 20
-6.2811300000000001
 30
0.0
 40
0.216506
 50
175.0
 51
355.0
  0
ARC
  5
9B
  8
0
 10
-28.2058
 20
-3.691767
 30
0.0
 40
0.215
 50
148.347306
 51
162.0
  0
ARC
  5
9C
  8
0
 10
-28.969072000000001
 20
-6.040875999999999
 30
0.0
 40
0.215
 50
162.0
 51
342.0
  0
LINE
  5
9D
  8
0
 10
-28.410277000000001
 20
-3.6253279999999992
 30
0.0
 11
-29.173549000000001
 21
-5.9744380000000001
 31
0.0
  0
LINE
  5
9E
  8
0
 10
-28.001322999999999
 20
-3.7582049999999998
 30
0.0
 11
-28.764595
 21
-6.1073149999999989
 31
0.0
  0
ARC
  5
9F
  8
0
 10
-30.614958000000001
 20
-5.240251999999999
 30
0.0
 40
0.215
 50
144.0
 51
324.0
  0
LINE
  5
A0
  8
0
 10
-29.46321
 20
-3.289226999999999
 30
0.0
 11
-30.788896999999999
 21
-5.1138779999999988
 31
0.0
  0
LINE
  5
A1
  8
0
 10
-29.044895
 20
-3.4450249999999989
 30
0.0
 11
-30.441020000000002
 21
-5.3666260000000001
 31
0.0
  0
ARC
  5
A2
  8
0
 10
-32.047944000000001
 20
-3.8072659999999998
 30
0.0
 40
0.215
 50
126.0
 51
306.0
  0
LINE
  5
A3
  8
0
 10
-30.600261
 20
-2.4897079999999998
 30
0.0
 11
-32.174318
 21
-3.6333269999999991
 31
0.0
  0
LINE
  5
A4
  8
0
 10
-30.278337000000001
 20
-2.7873250000000001
 30
0.0
 11
-31.921569999999999
 21
-3.9812050000000001
 31
0.0
  0
ARC
  5
A5
  8
0
 10
-32.967978000000002
 20
-2.0015979999999991
 30
0.0
 40
0.215
 50
108.0
 51
288.0
  0
LINE
  5
A6
  8
0
 10
-31.373275
 20
-1.257382999999999
 30
0.0
 11
-33.034416999999998
 21
-1.7971209999999991
 31
0.0
  0
LINE
  5
A7
  8
0
 10
-31.198246000000001
 20
-1.6526419999999991
 30
0.0
 11
-32.901539
 21
-2.2060749999999989
 31
0.0
  0
LINE
  5
A8
  8
0
 10
-31.593574
 20
-0.215
 30
0.0
 11
-33.284999999999997
 21
-0.215
 31
0.0
  0
LINE
  5
A9
  8
0
 10
-31.593574
 20
0.215
 30
0.0
 11
-33.284999999999997
 21
0.215
 31
0.0
  0
ARC
  5
AA
  8
0
 10
-33.284999999999997
 20
0.0
 30
0.0
 40
0.215
 50
90.0
 51
270.0
  0
LINE
  5
AB
  8
0
 10
-27.434611
 20
-6.2999999999999989
 30
0.0
 11
-27.215682000000001
 21
-3.7976369999999999
 31
0.0
  0
LINE
  5
AC
  8
0
 10
-26.999943999999999
 20
-6.2999999999999989
 30
0.0
 11
-26.784317999999999
 21
-3.8353760000000001
 31
0.0
  0
ARC
  5
AD
  8
0
 10
-27.0
 20
-3.816506
 30
0.0
 40
0.216506
 50
355.0
 51
175.0
  0
LINE
  5
AE
  8
0
 10
-25.934611
 20
-6.2999999999999989
 30
0.0
 11
-25.715682000000001
 21
-3.7976369999999999
 31
0.0
  0
LINE
  5
AF
  8
0
 10
-25.499943999999999
 20
-6.2999999999999989
 30
0.0
 11
-25.284317999999999
 21
-3.8353760000000001
 31
0.0
  0
ARC
  5
B0
  8
0
 10
-25.5
 20
-3.816506
 30
0.0
 40
0.216506
 50
355.0
 51
175.0
  0
LINE
  5
B1
  8
0
 10
-24.434611
 20
-6.2999999999999989
 30
0.0
 11
-24.215682000000001
 21
-3.7976369999999999
 31
0.0
  0
LINE
  5
B2
  8
0
 10
-23.999943999999999
 20
-6.2999999999999989
 30
0.0
 11
-23.784317999999999
 21
-3.8353760000000001
 31
0.0
  0
ARC
  5
B3
  8
0
 10
-24.0
 20
-3.816506
 30
0.0
 40
0.216506
 50
355.0
 51
175.0
  0
LINE
  5
B4
  8
0
 10
-22.690988000000001
 20
-3.7145320000000002
 30
0.0
 11
-23.985931000000001
 21
-6.1398339999999987
 31
0.0
  0
LINE
  5
B5
  8
0
 10
-22.808021
 20
-4.8530749999999987
 30
0.0
 11
-23.580579
 21
-6.2999999999999989
 31
0.0
  0
ARC
  5
B6
  8
0
 10
-22.5
 20
-3.816506
 30
0.0
 40
0.216506
 50
355.0
 51
175.0
  0
LINE
  5
B7
  8
0
 10
-22.934611
 20
-6.2999999999999989
 30
0.0
 11
-22.715682000000001
 21
-3.7976369999999999
 31
0.0
  0
LINE
  5
B8
  8
0
 10
-22.499943999999999
 20
-6.2999999999999989
 30
0.0
 11
-22.284317999999999
 21
-3.8353760000000001
 31
0.0
  0
LINE
  5
B9
  8
0
 10
-20.999943999999999
 20
-6.2999999999999989
 30
0.0
 11
-20.784317999999999
 21
-3.8353760000000001
 31
0.0
  0
ARC
  5
BA
  8
0
 10
-21.0
 20
-3.816506
 30
0.0
 40
0.216506
 50
355.0
 51
175.0
  0
LINE
  5
BB
  8
0
 10
-21.190988000000001
 20
-3.7145320000000002
 30
0.0
 11
-22.485931000000001
 21
-6.1398339999999987
 31
0.0
  0
LINE
  5
BC
  8
0
 10
-21.308021
 20
-4.8530749999999987
 30
0.0
 11
-22.080579
 21
-6.2999999999999989
 31
0.0
  0
LINE
  5
BD
  8
0
 10
-21.434611
 20
-6.2999999999999989
 30
0.0
 11
-21.215682000000001
 21
-3.7976369999999999
 31
0.0
  0
LINE
  5
BE
  8
0
 10
-19.499943999999999
 20
-6.2999999999999989
 30
0.0
 11
-19.284317999999999
 21
-3.8353760000000001
 31
0.0
  0
ARC
  5
BF
  8
0
 10
-19.5
 20
-3.816506
 30
0.0
 40
0.216506
 50
355.0
 51
175.0
  0
LINE
  5
C0
  8
0
 10
-19.690988000000001
 20
-3.7145320000000002
 30
0.0
 11
-20.985931000000001
 21
-6.1398339999999987
 31
0.0
  0
LINE
  5
C1
  8
0
 10
-19.808021
 20
-4.8530749999999987
 30
0.0
 11
-20.580579
 21
-6.2999999999999989
 31
0.0
  0
LINE
  5
C2
  8
0
 10
-19.934611
 20
-6.2999999999999989
 30
0.0
 11
-19.715682000000001
 21
-3.7976369999999999
 31
0.0
  0
LINE
  5
C3
  8
0
 10
-17.999943999999999
 20
-6.2999999999999989
 30
0.0
 11
-17.784317999999999
 21
-3.8353760000000001
 31
0.0
  0
ARC
  5
C4
  8
0
 10
-18.0
 20
-3.816506
 30
0.0
 40
0.216506
 50
355.0
 51
175.0
  0
LINE
  5
C5
  8
0
 10
-18.190988000000001
 20
-3.7145320000000002
 30
0.0
 11
-19.485931000000001
 21
-6.1398339999999987
 31
0.0
  0
LINE
  5
C6
  8
0
 10
-18.308021
 20
-4.8530749999999987
 30
0.0
 11
-19.080579
 21
-6.2999999999999989
 31
0.0
  0
LINE
  5
C7
  8
0
 10
-18.434611
 20
-6.2999999999999989
 30
0.0
 11
-18.215682000000001
 21
-3.7976369999999999
 31
0.0
  0
LINE
  5
C8
  8
0
 10
-16.690988000000001
 20
-3.7145320000000002
 30
0.0
 11
-17.985931000000001
 21
-6.1398339999999987
 31
0.0
  0
LINE
  5
C9
  8
0
 10
-16.808021
 20
-4.8530749999999987
 30
0.0
 11
-17.580579
 21
-6.2999999999999989
 31
0.0
  0
ARC
  5
CA
  8
0
 10
-16.5
 20
3.816506
 30
0.0
 40
0.216506
 50
185.0
 51
5.0
  0
LINE
  5
CB
  8
0
 10
-16.934611
 20
-6.2999999999999989
 30
0.0
 11
-16.715682000000001
 21
-3.7976369999999999
 31
0.0
  0
LINE
  5
CC
  8
0
 10
-16.464949000000001
 20
5.9000000000000004
 30
0.0
 11
-16.284317999999999
 21
3.8353760000000001
 31
0.0
  0
LINE
  5
CD
  8
0
 10
-12.809011999999999
 20
3.7145320000000002
 30
0.0
 11
-11.642123
 21
5.9000000000000004
 31
0.0
  0
LINE
  5
CE
  8
0
 10
-12.691979
 20
4.8530749999999987
 30
0.0
 11
-12.132993000000001
 21
5.9000000000000004
 31
0.0
  0
LINE
  5
CF
  8
0
 10
-11.535050999999999
 20
5.9000000000000004
 30
0.0
 11
-11.715681999999999
 21
3.8353760000000001
 31
0.0
  0
LINE
  5
D0
  8
0
 10
-11.100384999999999
 20
5.9000000000000004
 30
0.0
 11
-11.284318000000001
 21
3.7976369999999999
 31
0.0
  0
ARC
  5
D1
  8
0
 10
-11.5
 20
3.816506
 30
0.0
 40
0.216506
 50
175.0
 51
355.0
  0
LINE
  5
D2
  8
0
 10
-11.191979
 20
4.8530749999999987
 30
0.0
 11
-10.632993000000001
 21
5.9000000000000004
 31
0.0
  0
LINE
  5
D3
  8
0
 10
-11.309011999999999
 20
3.7145320000000002
 30
0.0
 11
-10.142123
 21
5.9000000000000004
 31
0.0
  0
LINE
  5
D4
  8
0
 10
-9.6003850000000011
 20
5.9000000000000004
 30
0.0
 11
-9.7843179999999972
 21
3.7976369999999999
 31
0.0
  0
LINE
  5
D5
  8
0
 10
-9.6919789999999981
 20
4.8530749999999987
 30
0.0
 11
-9.132992999999999
 21
5.9000000000000004
 31
0.0
  0
LINE
  5
D6
  8
0
 10
-9.8090119999999992
 20
3.7145320000000002
 30
0.0
 11
-8.6421229999999998
 21
5.9000000000000004
 31
0.0
  0
ARC
  5
D7
  8
0
 10
-10.0
 20
3.816506
 30
0.0
 40
0.216506
 50
175.0
 51
355.0
  0
LINE
  5
D8
  8
0
 10
-10.035050999999999
 20
5.9000000000000004
 30
0.0
 11
-10.215681999999999
 21
3.8353760000000001
 31
0.0
  0
LINE
  5
D9
  8
0
 10
-8.1003850000000011
 20
5.9000000000000004
 30
0.0
 11
-8.2843179999999972
 21
3.7976369999999999
 31
0.0
  0
LINE
  5
DA
  8
0
 10
-8.1919789999999981
 20
4.8530749999999987
 30
0.0
 11
-7.632992999999999
 21
5.9000000000000004
 31
0.0
  0
LINE
  5
DB
  8
0
 10
-8.3090119999999992
 20
3.7145320000000002
 30
0.0
 11
-7.1421229999999989
 21
5.9000000000000004
 31
0.0
  0
ARC
  5
DC
  8
0
 10
-8.5
 20
3.816506
 30
0.0
 40
0.216506
 50
175.0
 51
355.0
  0
LINE
  5
DD
  8
0
 10
-8.5350509999999993
 20
5.9000000000000004
 30
0.0
 11
-8.715682000000001
 21
3.8353760000000001
 31
0.0
  0
LINE
  5
DE
  8
0
 10
-6.6003850000000002
 20
5.9000000000000004
 30
0.0
 11
-6.7843179999999981
 21
3.7976369999999999
 31
0.0
  0
LINE
  5
DF
  8
0
 10
-6.691978999999999
 20
4.8530749999999987
 30
0.0
 11
-6.132992999999999
 21
5.9000000000000004
 31
0.0
  0
LINE
  5
E0
  8
0
 10
-6.8090119999999992
 20
3.7145320000000002
 30
0.0
 11
-5.6421229999999998
 21
5.9000000000000004
 31
0.0
  0
ARC
  5
E1
  8
0
 10
-7.0
 20
3.816506
 30
0.0
 40
0.216506
 50
175.0
 51
355.0
  0
LINE
  5
E2
  8
0
 10
-7.0350509999999993
 20
5.9000000000000004
 30
0.0
 11
-7.215682000000001
 21
3.8353760000000001
 31
0.0
  0
LINE
  5
E3
  8
0
 10
-5.5350510000000002
 20
5.9000000000000004
 30
0.0
 11
-5.7156820000000002
 21
3.8353760000000001
 31
0.0
  0
LINE
  5
E4
  8
0
 10
-5.1003850000000002
 20
5.9000000000000004
 30
0.0
 11
-5.284317999999999
 21
3.7976369999999999
 31
0.0
  0
ARC
  5
E5
  8
0
 10
-5.5
 20
3.816506
 30
0.0
 40
0.216506
 50
175.0
 51
355.0
  0
LINE
  5
E6
  8
0
 10
-5.191978999999999
 20
4.8530749999999987
 30
0.0
 11
-4.632992999999999
 21
5.9000000000000004
 31
0.0
  0
LINE
  5
E7
  8
0
 10
-5.3090120000000001
 20
3.7145320000000002
 30
0.0
 11
-4.1421229999999998
 21
5.9000000000000004
 31
0.0
  0
ARC
  5
E8
  8
0
 10
-4.0
 20
3.816506
 30
0.0
 40
0.216506
 50
175.0
 51
355.0
  0
LINE
  5
E9
  8
0
 10
-4.0350510000000002
 20
5.9000000000000004
 30
0.0
 11
-4.2156820000000002
 21
3.8353760000000001
 31
0.0
  0
LINE
  5
EA
  8
0
 10
-3.5653890000000001
 20
6.2999999999999989
 30
0.0
 11
-3.784317999999999
 21
3.7976369999999999
 31
0.0
  0
ARC
  5
EB
  8
0
 10
-2.5
 20
3.816506
 30
0.0
 40
0.216506
 50
175.0
 51
355.0
  0
LINE
  5
EC
  8
0
 10
-2.5000559999999998
 20
6.2999999999999989
 30
0.0
 11
-2.7156820000000002
 21
3.8353760000000001
 31
0.0
  0
LINE
  5
ED
  8
0
 10
-2.0653890000000001
 20
6.2999999999999989
 30
0.0
 11
-2.284317999999999
 21
3.7976369999999999
 31
0.0
  0
ARC
  5
EE
  8
0
 10
-1.0
 20
3.816506
 30
0.0
 40
0.216506
 50
175.0
 51
355.0
  0
LINE
  5
EF
  8
0
 10
-1.0000560000000001
 20
6.2999999999999989
 30
0.0
 11
-1.215681999999999
 21
3.8353760000000001
 31
0.0
  0
LINE
  5
F0
  8
0
 10
-0.5653890000000001
 20
6.2999999999999989
 30
0.0
 11
-0.7843180000000001
 21
3.7976369999999999
 31
0.0
  0
ARC
  5
F1
  8
0
 10
5.2850000000000001
 20
0.0
 30
0.0
 40
0.215
 50
270.0
 51
90.0
  0
LINE
  5
F2
  8
0
 10
3.5935739999999989
 20
-0.215
 30
0.0
 11
5.2850000000000001
 21
-0.215
 31
0.0
  0
LINE
  5
F3
  8
0
 10
3.5935739999999989
 20
0.215
 30
0.0
 11
5.2850000000000001
 21
0.215
 31
0.0
  0
LINE
  5
F4
  8
0
 10
3.1982459999999988
 20
1.6526419999999991
 30
0.0
 11
4.9015389999999988
 21
2.2060749999999989
 31
0.0
  0
LINE
  5
F5
  8
0
 10
3.373275
 20
1.257382999999999
 30
0.0
 11
5.0344169999999986
 21
1.7971209999999991
 31
0.0
  0
ARC
  5
F6
  8
0
 10
4.9679779999999987
 20
2.0015979999999991
 30
0.0
 40
0.215
 50
288.0
 51
108.0
  0
LINE
  5
F7
  8
0
 10
2.2783370000000001
 20
2.7873250000000001
 30
0.0
 11
3.9215699999999991
 21
3.9812050000000001
 31
0.0
  0
LINE
  5
F8
  8
0
 10
2.6002610000000002
 20
2.4897079999999998
 30
0.0
 11
4.1743180000000004
 21
3.6333269999999991
 31
0.0
  0
ARC
  5
F9
  8
0
 10
4.0479440000000002
 20
3.8072659999999998
 30
0.0
 40
0.215
 50
306.0
 51
126.0
  0
LINE
  5
FA
  8
0
 10
1.0448949999999999
 20
3.4450249999999989
 30
0.0
 11
2.4410199999999991
 21
5.3666260000000001
 31
0.0
  0
LINE
  5
FB
  8
0
 10
1.4632099999999999
 20
3.289226999999999
 30
0.0
 11
2.7888969999999991
 21
5.1138779999999988
 31
0.0
  0
ARC
  5
FC
  8
0
 10
2.6149580000000001
 20
5.240251999999999
 30
0.0
 40
0.215
 50
324.0
 51
144.0
  0
LINE
  5
FD
  8
0
 10
0.001323
 20
3.7582049999999998
 30
0.0
 11
0.764595
 21
6.1073149999999989
 31
0.0
  0
LINE
  5
FE
  8
0
 10
0.4102770000000001
 20
3.6253279999999992
 30
0.0
 11
1.1735489999999991
 21
5.9744380000000001
 31
0.0
  0
ARC
  5
FF
  8
0
 10
0.9690719999999998
 20
6.040875999999999
 30
0.0
 40
0.215
 50
342.0
 51
162.0
  0
ARC
  5
100
  8
0
 10
0.2058
 20
3.691767
 30
0.0
 40
0.215
 50
328.347306
 51
342.0
  0
ARC
  5
101
  8
0
 10
-0.784373
 20
6.2811300000000001
 30
0.0
 40
0.216506
 50
355.0
 51
175.0
  0
ARC
  5
102
  8
0
 10
-2.2843729999999991
 20
6.2811300000000001
 30
0.0
 40
0.216506
 50
355.0
 51
175.0
  0
ARC
  5
103
  8
0
 10
-3.784373
 20
6.2811300000000001
 30
0.0
 40
0.216506
 50
355.0
 51
94.139002000000005
  0
LINE
  5
104
  8
0
 10
-3.713503999999999
 20
4.607041999999999
 30
0.0
 11
-2.4620669999999989
 21
6.4048230000000004
 31
0.0
  0
LINE
  5
105
  8
0
 10
-3.8223059999999989
 20
3.6928139999999989
 30
0.0
 11
-2.5708700000000002
 21
5.4905939999999998
 31
0.0
  0
LINE
  5
106
  8
0
 10
-2.3223060000000002
 20
3.6928139999999989
 30
0.0
 11
-1.0708699999999991
 21
5.4905939999999998
 31
0.0
  0
LINE
  5
107
  8
0
 10
-2.213503999999999
 20
4.607041999999999
 30
0.0
 11
-0.962067
 21
6.4048230000000004
 31
0.0
  0
LINE
  5
108
  8
0
 10
-0.8378870000000001
 20
3.672998999999999
 30
0.0
 11
0.4442370000000001
 21
5.1213559999999987
 31
0.0
  0
LINE
  5
109
  8
0
 10
-0.7271200000000001
 20
4.4514050000000003
 30
0.0
 11
0.8069589999999999
 21
6.1843830000000004
 31
0.0
  0
LINE
  5
10A
  8
0
 10
0.424396
 20
3.5748969999999991
 30
0.0
 11
1.765552
 21
4.4369249999999987
 31
0.0
  0
LINE
  5
10B
  8
0
 10
0.5972380000000001
 20
4.200734999999999
 30
0.0
 11
2.4978950000000002
 21
5.4223809999999988
 31
0.0
  0
LINE
  5
10C
  8
0
 10
1.7628159999999991
 20
3.1388660000000002
 30
0.0
 11
3.1312700000000002
 21
3.407017999999999
 31
0.0
  0
LINE
  5
10D
  8
0
 10
1.659899999999999
 20
3.5599470000000002
 30
0.0
 11
4.0063110000000002
 21
4.0197320000000003
 31
0.0
  0
LINE
  5
10E
  8
0
 10
2.9764909999999989
 20
2.0249700000000002
 30
0.0
 11
3.9724859999999991
 21
1.9042069999999991
 31
0.0
  0
LINE
  5
10F
  8
0
 10
2.620387
 20
2.5043299999999991
 30
0.0
 11
4.9940379999999989
 21
2.2165300000000001
 31
0.0
  0
LINE
  5
110
  8
0
 10
3.5554510000000001
 20
0.564596
 30
0.0
 11
4.308135
 21
0.215
 31
0.0
  0
LINE
  5
111
  8
0
 10
3.4273319999999989
 20
1.1015429999999991
 30
0.0
 11
5.3762019999999993
 21
0.19636
 31
0.0
  0
ARC
  5
112
  8
0
 10
0.2058
 20
3.691767
 30
0.0
 40
0.215
 50
162.0
 51
205.27132
  0
ARC
  5
113
  8
0
 10
0.2058
 20
-3.691767
 30
0.0
 40
0.215
 50
154.72868
 51
198.0
  0
LINE
  5
114
  8
0
 10
3.4273319999999989
 20
-1.1015429999999991
 30
0.0
 11
5.3762019999999993
 21
-0.19636
 31
0.0
  0
LINE
  5
115
  8
0
 10
3.5554510000000001
 20
-0.564596
 30
0.0
 11
4.308135
 21
-0.215
 31
0.0
  0
LINE
  5
116
  8
0
 10
2.620387
 20
-2.5043299999999991
 30
0.0
 11
4.9940379999999989
 21
-2.2165300000000001
 31
0.0
  0
LINE
  5
117
  8
0
 10
2.9764909999999989
 20
-2.0249700000000002
 30
0.0
 11
3.9724859999999991
 21
-1.9042069999999991
 31
0.0
  0
LINE
  5
118
  8
0
 10
1.659899999999999
 20
-3.5599470000000002
 30
0.0
 11
4.0063110000000002
 21
-4.0197320000000003
 31
0.0
  0
LINE
  5
119
  8
0
 10
1.7628159999999991
 20
-3.1388660000000002
 30
0.0
 11
3.1312700000000002
 21
-3.407017999999999
 31
0.0
  0
LINE
  5
11A
  8
0
 10
0.5972380000000001
 20
-4.200734999999999
 30
0.0
 11
2.4978950000000002
 21
-5.4223809999999988
 31
0.0
  0
LINE
  5
11B
  8
0
 10
0.424396
 20
-3.5748969999999991
 30
0.0
 11
1.765552
 21
-4.4369249999999987
 31
0.0
  0
LINE
  5
11C
  8
0
 10
-0.7271200000000001
 20
-4.4514050000000003
 30
0.0
 11
0.8069589999999999
 21
-6.1843830000000004
 31
0.0
  0
LINE
  5
11D
  8
0
 10
-0.8378870000000001
 20
-3.672998999999999
 30
0.0
 11
0.4442370000000001
 21
-5.1213559999999987
 31
0.0
  0
LINE
  5
11E
  8
0
 10
-2.213503999999999
 20
-4.607041999999999
 30
0.0
 11
-0.962067
 21
-6.4048230000000004
 31
0.0
  0
LINE
  5
11F
  8
0
 10
-2.3223060000000002
 20
-3.6928139999999989
 30
0.0
 11
-1.0708699999999991
 21
-5.4905939999999998
 31
0.0
  0
LINE
  5
120
  8
0
 10
-3.8223059999999989
 20
-3.6928139999999989
 30
0.0
 11
-2.5708700000000002
 21
-5.4905939999999998
 31
0.0
  0
LINE
  5
121
  8
0
 10
-3.713503999999999
 20
-4.607041999999999
 30
0.0
 11
-2.4620669999999989
 21
-6.4048230000000004
 31
0.0
  0
ARC
  5
122
  8
0
 10
-3.784373
 20
-6.2811300000000001
 30
0.0
 40
0.216506
 50
265.85530399999999
 51
5.0
  0
ARC
  5
123
  8
0
 10
-2.2843729999999991
 20
-6.2811300000000001
 30
0.0
 40
0.216506
 50
185.0
 51
5.0
  0
ARC
  5
124
  8
0
 10
-0.784373
 20
-6.2811300000000001
 30
0.0
 40
0.216506
 50
185.0
 51
5.0
  0
ARC
  5
125
  8
0
 10
0.2058
 20
-3.691767
 30
0.0
 40
0.215
 50
18.0
 51
31.652694
  0
ARC
  5
126
  8
0
 10
0.9690719999999998
 20
-6.040875999999999
 30
0.0
 40
0.215
 50
198.0
 51
18.0
  0
LINE
  5
127
  8
0
 10
0.4102770000000001
 20
-3.6253279999999992
 30
0.0
 11
1.1735489999999991
 21
-5.9744380000000001
 31
0.0
  0
LINE
  5
128
  8
0
 10
0.001323
 20
-3.7582049999999998
 30
0.0
 11
0.764595
 21
-6.1073149999999989
 31
0.0
  0
ARC
  5
129
  8
0
 10
2.6149580000000001
 20
-5.240251999999999
 30
0.0
 40
0.215
 50
216.0
 51
36.0
  0
LINE
  5
12A
  8
0
 10
1.4632099999999999
 20
-3.289226999999999
 30
0.0
 11
2.7888969999999991
 21
-5.1138779999999988
 31
0.0
  0
LINE
  5
12B
  8
0
 10
1.0448949999999999
 20
-3.4450249999999989
 30
0.0
 11
2.4410199999999991
 21
-5.3666260000000001
 31
0.0
  0
ARC
  5
12C
  8
0
 10
4.0479440000000002
 20
-3.8072659999999998
 30
0.0
 40
0.215
 50
234.0
 51
54.0
  0
LINE
  5
12D
  8
0
 10
2.6002610000000002
 20
-2.4897079999999998
 30
0.0
 11
4.1743180000000004
 21
-3.6333269999999991
 31
0.0
  0
LINE
  5
12E
  8
0
 10
2.2783370000000001
 20
-2.7873250000000001
 30
0.0
 11
3.9215699999999991
 21
-3.9812050000000001
 31
0.0
  0
ARC
  5
12F
  8
0
 10
4.9679779999999987
 20
-2.0015979999999991
 30
0.0
 40
0.215
 50
252.0
 51
72.0
  0
LINE
  5
130
  8
0
 10
3.373275
 20
-1.257382999999999
 30
0.0
 11
5.0344169999999986
 21
-1.7971209999999991
 31
0.0
  0
LINE
  5
131
  8
0
 10
3.1982459999999988
 20
-1.6526419999999991
 30
0.0
 11
4.9015389999999988
 21
-2.2060749999999989
 31
0.0
  0
LINE
  5
132
  8
0
 10
3.5935739999999989
 20
-0.215
 30
0.0
 11
5.2850000000000001
 21
-0.215
 31
0.0
  0
LINE
  5
133
  8
0
 10
3.5935739999999989
 20
0.215
 30
0.0
 11
5.2850000000000001
 21
0.215
 31
0.0
  0
ARC
  5
134
  8
0
 10
5.2850000000000001
 20
0.0
 30
0.0
 40
0.215
 50
270.0
 51
90.0
  0
LINE
  5
135
  8
0
 10
-0.5653890000000001
 20
-6.2999999999999989
 30
0.0
 11
-0.7843180000000001
 21
-3.7976369999999999
 31
0.0
  0
LINE
  5
136
  8
0
 10
-1.0000560000000001
 20
-6.2999999999999989
 30
0.0
 11
-1.215681999999999
 21
-3.8353760000000001
 31
0.0
  0
ARC
  5
137
  8
0
 10
-1.0
 20
-3.816506
 30
0.0
 40
0.216506
 50
5.0
 51
185.0
  0
LINE
  5
138
  8
0
 10
-2.0653890000000001
 20
-6.2999999999999989
 30
0.0
 11
-2.284317999999999
 21
-3.7976369999999999
 31
0.0
  0
LINE
  5
139
  8
0
 10
-2.5000559999999998
 20
-6.2999999999999989
 30
0.0
 11
-2.7156820000000002
 21
-3.8353760000000001
 31
0.0
  0
ARC
  5
13A
  8
0
 10
-2.5
 20
-3.816506
 30
0.0
 40
0.216506
 50
5.0
 51
185.0
  0
LINE
  5
13B
  8
0
 10
-3.5653890000000001
 20
-6.2999999999999989
 30
0.0
 11
-3.784317999999999
 21
-3.7976369999999999
 31
0.0
  0
LINE
  5
13C
  8
0
 10
-4.0000559999999989
 20
-6.2999999999999989
 30
0.0
 11
-4.2156820000000002
 21
-3.8353760000000001
 31
0.0
  0
ARC
  5
13D
  8
0
 10
-4.0
 20
-3.816506
 30
0.0
 40
0.216506
 50
5.0
 51
185.0
  0
LINE
  5
13E
  8
0
 10
-5.3090120000000001
 20
-3.7145320000000002
 30
0.0
 11
-4.0140690000000001
 21
-6.1398339999999987
 31
0.0
  0
LINE
  5
13F
  8
0
 10
-5.191978999999999
 20
-4.8530749999999987
 30
0.0
 11
-4.4194209999999989
 21
-6.2999999999999989
 31
0.0
  0
ARC
  5
140
  8
0
 10
-5.5
 20
-3.816506
 30
0.0
 40
0.216506
 50
5.0
 51
185.0
  0
LINE
  5
141
  8
0
 10
-5.0653889999999988
 20
-6.2999999999999989
 30
0.0
 11
-5.284317999999999
 21
-3.7976369999999999
 31
0.0
  0
LINE
  5
142
  8
0
 10
-5.5000559999999989
 20
-6.2999999999999989
 30
0.0
 11
-5.7156820000000002
 21
-3.8353760000000001
 31
0.0
  0
LINE
  5
143
  8
0
 10
-7.0000559999999989
 20
-6.2999999999999989
 30
0.0
 11
-7.215682000000001
 21
-3.8353760000000001
 31
0.0
  0
ARC
  5
144
  8
0
 10
-7.0
 20
-3.816506
 30
0.0
 40
0.216506
 50
5.0
 51
185.0
  0
LINE
  5
145
  8
0
 10
-6.8090119999999992
 20
-3.7145320000000002
 30
0.0
 11
-5.5140690000000001
 21
-6.1398339999999987
 31
0.0
  0
LINE
  5
146
  8
0
 10
-6.691978999999999
 20
-4.8530749999999987
 30
0.0
 11
-5.9194209999999989
 21
-6.2999999999999989
 31
0.0
  0
LINE
  5
147
  8
0
 10
-6.5653889999999988
 20
-6.2999999999999989
 30
0.0
 11
-6.7843179999999981
 21
-3.7976369999999999
 31
0.0
  0
LINE
  5
148
  8
0
 10
-8.5000559999999972
 20
-6.2999999999999989
 30
0.0
 11
-8.715682000000001
 21
-3.8353760000000001
 31
0.0
  0
ARC
  5
149
  8
0
 10
-8.5
 20
-3.816506
 30
0.0
 40
0.216506
 50
5.0
 51
185.0
  0
LINE
  5
14A
  8
0
 10
-8.3090119999999992
 20
-3.7145320000000002
 30
0.0
 11
-7.0140690000000001
 21
-6.1398339999999987
 31
0.0
  0
LINE
  5
14B
  8
0
 10
-8.1919789999999981
 20
-4.8530749999999987
 30
0.0
 11
-7.4194209999999998
 21
-6.2999999999999989
 31
0.0
  0
LINE
  5
14C
  8
0
 10
-8.0653889999999997
 20
-6.2999999999999989
 30
0.0
 11
-8.2843179999999972
 21
-3.7976369999999999
 31
0.0
  0
LINE
  5
14D
  8
0
 10
-10.000056000000001
 20
-6.2999999999999989
 30
0.0
 11
-10.215681999999999
 21
-3.8353760000000001
 31
0.0
  0
ARC
  5
14E
  8
0
 10
-10.0
 20
-3.816506
 30
0.0
 40
0.216506
 50
5.0
 51
185.0
  0
LINE
  5
14F
  8
0
 10
-9.8090119999999992
 20
-3.7145320000000002
 30
0.0
 11
-8.5140689999999992
 21
-6.1398339999999987
 31
0.0
  0
LINE
  5
150
  8
0
 10
-9.6919789999999981
 20
-4.8530749999999987
 30
0.0
 11
-8.9194209999999998
 21
-6.2999999999999989
 31
0.0
  0
LINE
  5
151
  8
0
 10
-9.5653889999999997
 20
-6.2999999999999989
 30
0.0
 11
-9.7843179999999972
 21
-3.7976369999999999
 31
0.0
  0
LINE
  5
152
  8
0
 10
-11.309011999999999
 20
-3.7145320000000002
 30
0.0
 11
-10.014068999999999
 21
-6.1398339999999987
 31
0.0
  0
LINE
  5
153
  8
0
 10
-11.191979
 20
-4.8530749999999987
 30
0.0
 11
-10.419421
 21
-6.2999999999999989
 31
0.0
  0
ARC
  5
154
  8
0
 10
-11.5
 20
-3.816506
 30
0.0
 40
0.216506
 50
5.0
 51
185.0
  0
LINE
  5
155
  8
0
 10
-11.065389
 20
-6.2999999999999989
 30
0.0
 11
-11.284318000000001
 21
-3.7976369999999999
 31
0.0
  0
LINE
  5
156
  8
0
 10
-11.500056000000001
 20
-6.2999999999999989
 30
0.0
 11
-11.715681999999999
 21
-3.8353760000000001
 31
0.0
  0
ARC
  5
157
  8
0
 10
-24.0
 20
6.2999999999999989
 30
0.0
 40
0.2
 50
180.0
 51
270.0
  0
ARC
  5
158
  8
0
 10
-14.0
 20
-3.816506
 30
0.0
 40
0.216506
 50
0.0
 51
180.0
  0
LINE
  5
159
  8
0
 10
-13.783493999999999
 20
-6.2999999999999989
 30
0.0
 11
-13.783493999999999
 21
-3.816506
 31
0.0
  0
LINE
  5
15A
  8
0
 10
-13.000056000000001
 20
-6.2999999999999989
 30
0.0
 11
-13.215681999999999
 21
-3.8353760000000001
 31
0.0
  0
LINE
  5
15B
  8
0
 10
-12.565389
 20
-6.2999999999999989
 30
0.0
 11
-12.784318000000001
 21
-3.7976369999999999
 31
0.0
  0
ARC
  5
15C
  8
0
 10
-13.0
 20
-3.816506
 30
0.0
 40
0.216506
 50
5.0
 51
185.0
  0
LINE
  5
15D
  8
0
 10
-12.691979
 20
-4.8530749999999987
 30
0.0
 11
-11.919421
 21
-6.2999999999999989
 31
0.0
  0
LINE
  5
15E
  8
0
 10
-12.809011999999999
 20
-3.7145320000000002
 30
0.0
 11
-11.514068999999999
 21
-6.1398339999999987
 31
0.0
  0
LINE
  5
15F
  8
0
 10
-13.666506
 20
-6.2999999999999989
 30
0.0
 11
-13.666506
 21
-3.816506
 31
0.0
  0
LINE
  5
160
  8
0
 10
-13.233494
 20
-6.2999999999999989
 30
0.0
 11
-13.233494
 21
-3.816506
 31
0.0
  0
ARC
  5
161
  8
0
 10
-13.449999999999999
 20
-3.816506
 30
0.0
 40
0.216506
 50
0.0
 51
180.0
  0
LINE
  5
162
  8
0
 10
-13.019590000000001
 20
-6.2999999999999989
 30
0.0
 11
-13.233494
 21
-5.4881029999999988
 31
0.0
  0
LINE
  5
163
  8
0
 10
-13.695892000000001
 20
-6.2999999999999989
 30
0.0
 11
-13.783493999999999
 21
-5.9674959999999988
 31
0.0
  0
ENDBLK
  5
164
  8
0
  0
BLOCK
  8
0
  2
M5A
 70
     0
 10
0.0
 20
0.0
 30
0.0
  3
M5A
  1

  0
CIRCLE
  5
25EC
  8
3
 10
0.0
 20
0.0
 30
0.0
 40
2.5
  0
CIRCLE
  5
25ED
  8
0
 10
0.0
 20
0.0
 30
0.0
 40
2.1000000000000001
  0
LINE
  5
25EE
  8
1
 10
0.0
 20
-4.0
 30
0.0
 11
0.0
 21
4.0
 31
0.0
  0
LINE
  5
25EF
  8
1
 10
-4.0
 20
0.0
 30
0.0
 11
4.0
 21
0.0
 31
0.0
  0
ENDBLK
  5
25F0
  8
0
  0
ENDSEC
  0
SECTION
  2
ENTITIES
  0
TEXT
  5
6F4
  8
0
 62
     3
 10
0.0
 20
0.0
 30
0.0
 40
10.0
  1
MR-C-DT
  7
STANDARD1
  0
LINE
  5
1DB4
  8
0
 10
41.500000270149961
 20
30.0
 30
0.0
 11
41.500000270149961
 21
47.549928277700019
 31
0.0
  0
LINE
  5
1DB5
  8
0
 10
41.500000270149961
 20
39.549928596200012
 30
0.0
 11
67.499999409549986
 21
39.549928596200012
 31
0.0
  0
LINE
  5
1DB6
  8
0
 10
67.499999409549986
 20
30.0
 30
0.0
 11
41.500000270149961
 21
30.0
 31
0.0
  0
LINE
  5
1DB7
  8
0
 10
67.499999409549986
 20
47.549928277700019
 30
0.0
 11
67.499999409549986
 21
30.0
 31
0.0
  0
LINE
  5
1DB8
  8
0
 10
41.500000270149961
 20
47.549928277700019
 30
0.0
 11
67.499999409549986
 21
47.549928277700019
 31
0.0
  0
LINE
  5
1F00
  8
0
 10
135.49999997939989
 20
47.549928277800007
 30
0.0
 11
135.49999997939989
 21
49.549928165999951
 31
0.0
  0
LINE
  5
1F01
  8
0
 10
123.5000000205999
 20
49.549928165999951
 30
0.0
 11
123.5000000205999
 21
47.549928277800007
 31
0.0
  0
LINE
  5
203E
  8
0
 10
121.4999996926999
 20
47.549928277800007
 30
0.0
 11
121.4999996926999
 21
39.549928596299999
 31
0.0
  0
LINE
  5
203F
  8
0
 10
121.4999996926999
 20
47.549928277800007
 30
0.0
 11
137.49999998699991
 21
47.549928277800007
 31
0.0
  0
LINE
  5
2040
  8
0
 10
137.49999998699991
 20
47.549928277800007
 30
0.0
 11
137.49999998699991
 21
39.549928596299999
 31
0.0
  0
LINE
  5
2041
  8
0
 10
141.50000017699989
 20
39.549928596299999
 30
0.0
 11
137.49999998699991
 21
39.549928596299999
 31
0.0
  0
LINE
  5
2042
  8
0
 10
121.4999996926999
 20
39.549928596299999
 30
0.0
 11
117.5000008996998
 21
39.549928596299999
 31
0.0
  0
LINE
  5
2043
  8
0
 10
141.50000017699981
 20
30.000000000000011
 30
0.0
 11
141.50000017699989
 21
39.549928596299999
 31
0.0
  0
LINE
  5
2044
  8
0
 10
141.50000017699981
 20
30.000000000000011
 30
0.0
 11
117.5000008996998
 21
30.000000000000011
 31
0.0
  0
LINE
  5
2045
  8
0
 10
117.5000008996998
 20
39.549928596299999
 30
0.0
 11
117.5000008996998
 21
30.000000000000011
 31
0.0
  0
LINE
  5
2238
  8
5
 10
80.499999999999986
 20
49.549928165899964
 30
0.0
 11
77.499999999999986
 21
49.549928165899964
 31
0.0
  0
LINE
  5
2239
  8
5
 10
80.999999999999986
 20
71.049928165899956
 30
0.0
 11
80.999999999999986
 21
50.049928165899964
 31
0.0
  0
LINE
  5
223A
  8
5
 10
77.499999999999986
 20
71.549928165899956
 30
0.0
 11
80.499999999999986
 21
71.549928165899956
 31
0.0
  0
LINE
  5
223B
  8
1
 10
54.5
 20
25.0
 30
0.0
 11
54.5
 21
80.649928165899951
 31
0.0
  0
LINE
  5
223C
  8
0
 10
64.199999999999989
 20
68.549928165899956
 30
0.0
 11
44.800000000000011
 21
68.549928165899956
 31
0.0
  0
LINE
  5
223D
  8
0
 10
64.5
 20
71.549928165899956
 30
0.0
 11
63.238915999999989
 21
68.549928165899956
 31
0.0
  0
LINE
  5
223E
  8
0
 10
44.5
 20
71.549928165899956
 30
0.0
 11
45.761084000000011
 21
68.549928165899956
 31
0.0
  0
ARC
  5
223F
  8
0
 10
40.499999999999993
 20
61.149928165899951
 30
0.0
 40
3.6000000000000001
 50
90.0
 51
270.0
  0
LINE
  5
2240
  8
0
 10
64.699999999999974
 20
57.549928165899964
 30
0.0
 11
68.499999999999972
 21
57.549928165899964
 31
0.0
  0
ARC
  5
2241
  8
0
 10
68.499999999999972
 20
61.149928165899951
 30
0.0
 40
3.6000000000000001
 50
270.0
 51
90.0
  0
LINE
  5
2242
  8
0
 10
64.699999999999974
 20
64.749928165899945
 30
0.0
 11
68.499999999999972
 21
64.749928165899945
 31
0.0
  0
ARC
  5
2243
  8
0
 10
40.499999999999993
 20
61.149928165899951
 30
0.0
 40
2.6000000000000001
 50
90.0
 51
270.0
  0
LINE
  5
2244
  8
0
 10
64.699999999999974
 20
58.549928165899949
 30
0.0
 11
68.499999999999972
 21
58.549928165899949
 31
0.0
  0
ARC
  5
2245
  8
0
 10
68.499999999999972
 20
61.149928165899951
 30
0.0
 40
2.6000000000000001
 50
270.0
 51
90.0
  0
LINE
  5
2246
  8
0
 10
64.699999999999974
 20
63.749928165899938
 30
0.0
 11
68.499999999999972
 21
63.749928165899938
 31
0.0
  0
LINE
  5
2247
  8
0
 10
44.300000000000011
 20
63.749928165899938
 30
0.0
 11
40.499999999999993
 21
63.749928165899938
 31
0.0
  0
LINE
  5
2248
  8
0
 10
44.300000000000011
 20
58.549928165899949
 30
0.0
 11
40.499999999999993
 21
58.549928165899949
 31
0.0
  0
LINE
  5
2249
  8
0
 10
44.300000000000011
 20
64.749928165899945
 30
0.0
 11
40.499999999999993
 21
64.749928165899945
 31
0.0
  0
LINE
  5
224A
  8
0
 10
44.300000000000011
 20
57.549928165899964
 30
0.0
 11
40.499999999999993
 21
57.549928165899964
 31
0.0
  0
LINE
  5
224B
  8
0
 10
44.5
 20
54.849928165899968
 30
0.0
 11
64.5
 21
54.849928165899968
 31
0.0
  0
LINE
  5
224C
  8
0
 10
64.699999999999974
 20
57.420024165899939
 30
0.0
 11
64.699999999999974
 21
64.879832165899955
 31
0.0
  0
LINE
  5
224D
  8
0
 10
44.300000000000011
 20
57.420024165899939
 30
0.0
 11
44.300000000000011
 21
64.879832165899955
 31
0.0
  0
LINE
  5
224E
  8
0
 10
64.5
 20
67.049928165899956
 30
0.0
 11
44.5
 21
67.049928165899956
 31
0.0
  0
LINE
  5
224F
  8
0
 10
64.699999999999974
 20
67.249928165899945
 30
0.0
 11
64.699999999999974
 21
68.049928165899956
 31
0.0
  0
LINE
  5
2250
  8
0
 10
44.300000000000011
 20
67.249928165899945
 30
0.0
 11
44.300000000000011
 21
68.049928165899956
 31
0.0
  0
ARC
  5
2251
  8
0
 10
44.5
 20
67.249928165899945
 30
0.0
 40
0.2
 50
180.0
 51
270.0
  0
ARC
  5
2252
  8
0
 10
64.5
 20
54.649928165899951
 30
0.0
 40
0.2
 50
0.0
 51
90.0
  0
ARC
  5
2253
  8
0
 10
44.5
 20
54.649928165899951
 30
0.0
 40
0.2
 50
90.0
 51
180.0
  0
ARC
  5
2254
  8
0
 10
44.5
 20
54.349928165899961
 30
0.0
 40
0.2
 50
90.0
 51
180.0
  0
LINE
  5
2255
  8
0
 10
44.5
 20
54.549928165899964
 30
0.0
 11
64.5
 21
54.549928165899964
 31
0.0
  0
ARC
  5
2256
  8
0
 10
64.5
 20
54.349928165899961
 30
0.0
 40
0.2
 50
0.0
 51
90.0
  0
LINE
  5
2257
  8
0
 10
64.5
 20
67.249928165899945
 30
0.0
 11
44.5
 21
67.249928165899945
 31
0.0
  0
ARC
  5
2258
  8
0
 10
44.5
 20
67.449928165899934
 30
0.0
 40
0.2
 50
180.0
 51
270.0
  0
LINE
  5
2259
  8
0
 10
32.000000000000007
 20
49.549928165899964
 30
0.0
 11
76.999999999999986
 21
49.549928165899964
 31
0.0
  0
LINE
  5
225A
  8
0
 10
76.999999999999986
 20
71.549928165899956
 30
0.0
 11
64.5
 21
71.549928165899956
 31
0.0
  0
ARC
  5
225B
  8
0
 10
44.800000000000011
 20
50.049928165899964
 30
0.0
 40
0.5
 50
180.0
 51
270.0
  0
LINE
  5
225C
  8
0
 10
44.300000000000011
 20
50.049928165899964
 30
0.0
 11
44.300000000000011
 21
54.649928165899951
 31
0.0
  0
ARC
  5
225D
  8
0
 10
64.199999999999989
 20
50.049928165899964
 30
0.0
 40
0.5
 50
270.0
 51
0.0
  0
LINE
  5
225E
  8
0
 10
64.699999999999974
 20
50.049928165899964
 30
0.0
 11
64.699999999999974
 21
54.649928165899951
 31
0.0
  0
ARC
  5
225F
  8
0
 10
44.800000000000011
 20
68.049928165899956
 30
0.0
 40
0.5
 50
90.0
 51
180.0
  0
ARC
  5
2260
  8
0
 10
64.199999999999989
 20
68.049928165899956
 30
0.0
 40
0.5
 50
0.0
 51
90.0
  0
LINE
  5
2261
  8
0
 10
114.5
 20
75.349928165999955
 30
0.0
 11
114.5
 21
49.549928165999951
 31
0.0
  0
LINE
  5
2262
  8
0
 10
144.49999999999989
 20
71.549928165999944
 30
0.0
 11
114.5
 21
71.549928165999944
 31
0.0
  0
LINE
  5
2263
  8
0
 10
144.49999999999989
 20
49.549928165999951
 30
0.0
 11
144.49999999999989
 21
75.349928165999955
 31
0.0
  0
LINE
  5
2264
  8
0
 10
114.5
 20
49.549928165999951
 30
0.0
 11
144.49999999999989
 21
49.549928165999951
 31
0.0
  0
LINE
  5
2265
  8
0
 10
77.499999999999986
 20
50.049928165899964
 30
0.0
 11
77.499999999999986
 21
71.049928165899956
 31
0.0
  0
LINE
  5
2266
  8
0
 10
35.58000000000002
 20
75.549928165899956
 30
0.0
 11
73.419999999999973
 21
75.549928165899956
 31
0.0
  0
LINE
  5
2267
  8
0
 10
44.5
 20
71.549928165899956
 30
0.0
 11
32.000000000000007
 21
71.549928165899956
 31
0.0
  0
ARC
  5
226B
  8
0
 10
76.999999999999986
 20
71.049928165899956
 30
0.0
 40
0.5
 50
0.0
 51
90.0
  0
ARC
  5
226C
  8
0
 10
76.999999999999986
 20
50.049928165899964
 30
0.0
 40
0.5
 50
270.0
 51
0.0
  0
LINE
  5
226D
  8
0
 10
43.360935000000012
 20
75.549928165899956
 30
0.0
 11
46.303463999999991
 21
68.549928165899956
 31
0.0
  0
LINE
  5
226E
  8
0
 10
65.639064999999974
 20
75.549928165899956
 30
0.0
 11
62.696536000000009
 21
68.549928165899956
 31
0.0
  0
LINE
  5
226F
  8
0
 10
73.419999999999973
 20
75.549928165899956
 30
0.0
 11
71.738554999999991
 21
71.549928165899956
 31
0.0
  0
LINE
  5
2270
  8
0
 10
35.58000000000002
 20
75.549928165899956
 30
0.0
 11
37.261445000000009
 21
71.549928165899956
 31
0.0
  0
ARC
  5
2273
  8
5
 10
80.499999999999986
 20
50.049928165899964
 30
0.0
 40
0.5
 50
270.0
 51
0.0
  0
ARC
  5
2274
  8
5
 10
80.499999999999986
 20
71.049928165899956
 30
0.0
 40
0.5
 50
0.0
 51
90.0
  0
LINE
  5
2275
  8
0
 10
108.9999999999999
 20
58.549928165999951
 30
0.0
 11
108.9999999999999
 21
63.74992816599994
 31
0.0
  0
LINE
  5
2276
  8
0
 10
113.9999999999999
 20
67.549928165999944
 30
0.0
 11
113.9999999999999
 21
50.50581216599997
 31
0.0
  0
LINE
  5
2277
  8
0
 10
113.5
 20
51.75041016599998
 30
0.0
 11
113.5
 21
50.690562165999957
 31
0.0
  0
ARC
  5
2278
  8
0
 10
112.9999999999999
 20
51.965407165999949
 30
0.0
 40
1.0
 50
0.0
 51
46.534835000000683
  0
ARC
  5
2279
  8
0
 10
112.5
 20
51.75041016599998
 30
0.0
 40
1.0
 50
0.0
 51
46.534835000000683
  0
LINE
  5
227A
  8
0
 10
113.79025899999991
 20
49.549928165999951
 30
0.0
 11
113.9999999999999
 21
49.549928165999951
 31
0.0
  0
ARC
  5
227B
  8
0
 10
113.9999999999999
 20
50.169938165999952
 30
0.0
 40
0.12001
 50
159.06525600000029
 51
20.93474399999965
  0
LINE
  5
227C
  8
0
 10
113.9999999999999
 20
50.50581216599997
 30
0.0
 11
113.8879129999999
 21
50.212818165999948
 31
0.0
  0
LINE
  5
227D
  8
0
 10
113.9999999999999
 20
50.50581216599997
 30
0.0
 11
114.1120879999999
 21
50.212818165999948
 31
0.0
  0
LINE
  5
227E
  8
0
 10
113.4669939999999
 20
50.511910165999957
 30
0.0
 11
113.3052129999999
 21
50.089018165999939
 31
0.0
  0
ARC
  5
227F
  8
0
 10
113.79025899999991
 20
50.049928165999951
 30
0.0
 40
0.5
 50
186.19452699999931
 51
270.0
  0
ARC
  5
2280
  8
0
 10
113.9999999999999
 20
50.049928165999951
 30
0.0
 40
0.5
 50
270.0
 51
0.0
  0
ARC
  5
2281
  8
0
 10
113.49201099999991
 20
50.017557165999939
 30
0.0
 40
0.2
 50
159.06525600000029
 51
186.19452699999931
  0
ARC
  5
2282
  8
0
 10
112.9999999999999
 20
50.690562165999957
 30
0.0
 40
0.5
 50
339.06525600000037
 51
0.0
  0
LINE
  5
2283
  8
0
 10
111.17778199999989
 20
54.549928165999951
 30
0.0
 11
111.5217389999999
 21
54.912824165999957
 31
0.0
  0
LINE
  5
2284
  8
0
 10
109.9999999999999
 20
57.549928165999951
 30
0.0
 11
110.7999999999999
 21
57.549928165999951
 31
0.0
  0
LINE
  5
2285
  8
0
 10
109.9999999999999
 20
64.749928165999933
 30
0.0
 11
110.7999999999999
 21
64.749928165999933
 31
0.0
  0
LINE
  5
2286
  8
0
 10
110.9999999999999
 20
56.049928165999951
 30
0.0
 11
110.9999999999999
 21
66.249928165999933
 31
0.0
  0
ARC
  5
2287
  8
0
 10
112.5
 20
56.049928165999951
 30
0.0
 40
1.5
 50
180.0
 51
0.0
  0
LINE
  5
2288
  8
0
 10
113.68791399999991
 20
52.691199165999969
 30
0.0
 11
111.5217389999999
 21
54.912824165999957
 31
0.0
  0
LINE
  5
2289
  8
0
 10
113.18791399999991
 20
52.476202165999929
 30
0.0
 11
111.17778199999989
 21
54.549928165999951
 31
0.0
  0
ARC
  5
228A
  8
0
 10
112.5
 20
66.249928165999933
 30
0.0
 40
1.5
 50
0.0
 51
180.0
  0
LINE
  5
228B
  8
0
 10
112.1729219999999
 20
68.549928165999944
 30
0.0
 11
113.9999999999999
 21
68.549928165999944
 31
0.0
  0
LINE
  5
228C
  8
0
 10
112.4383769999999
 20
68.049928165999944
 30
0.0
 11
113.5
 21
68.049928165999944
 31
0.0
  0
LINE
  5
228D
  8
0
 10
111.23114199999991
 20
67.049928165999944
 30
0.0
 11
111.61003699999991
 21
67.610154165999944
 31
0.0
  0
LINE
  5
228E
  8
0
 10
110.7627899999999
 20
67.249928165999933
 30
0.0
 11
111.3445819999999
 21
68.110154165999944
 31
0.0
  0
LINE
  5
228F
  8
0
 10
111.23114199999991
 20
67.049928165999944
 30
0.0
 11
110.7627899999999
 21
67.249928165999933
 31
0.0
  0
ARC
  5
2290
  8
0
 10
113.5
 20
67.549928165999944
 30
0.0
 40
0.5
 50
0.0
 51
90.0
  0
ARC
  5
2291
  8
0
 10
113.9999999999999
 20
68.049928165999944
 30
0.0
 40
0.5
 50
0.0
 51
90.0
  0
ARC
  5
2292
  8
0
 10
112.1729219999999
 20
67.549928165999944
 30
0.0
 40
1.0
 50
90.0
 51
145.9285470000008
  0
ARC
  5
2293
  8
0
 10
112.4383769999999
 20
67.049928165999944
 30
0.0
 40
1.0
 50
90.0
 51
145.9285470000008
  0
LINE
  5
2294
  8
0
 10
109.9999999999999
 20
57.549928165999951
 30
0.0
 11
109.9999999999999
 21
64.749928165999933
 31
0.0
  0
LINE
  5
2295
  8
0
 10
108.9999999999999
 20
63.74992816599994
 30
0.0
 11
109.9999999999999
 21
64.749928165999933
 31
0.0
  0
LINE
  5
2296
  8
0
 10
108.9999999999999
 20
58.549928165999951
 30
0.0
 11
109.9999999999999
 21
57.549928165999951
 31
0.0
  0
ARC
  5
2297
  8
0
 10
112.5
 20
66.112473165999944
 30
0.0
 40
1.5
 50
0.0
 51
180.0
  0
ARC
  5
2298
  8
0
 10
112.5
 20
65.832653165999943
 30
0.0
 40
1.5
 50
0.0
 51
180.0
  0
ARC
  5
2299
  8
0
 10
112.5
 20
65.415379165999951
 30
0.0
 40
1.5
 50
0.0
 51
180.0
  0
ARC
  5
229A
  8
0
 10
112.5
 20
64.860649165999945
 30
0.0
 40
1.5
 50
0.0
 51
180.0
  0
ARC
  5
229B
  8
0
 10
112.5
 20
64.070282165999942
 30
0.0
 40
1.5
 50
0.0
 51
180.0
  0
ARC
  5
229C
  8
0
 10
112.5
 20
63.14246016599995
 30
0.0
 40
1.5
 50
0.0
 51
180.0
  0
ARC
  5
229D
  8
0
 10
112.5
 20
62.121364165999957
 30
0.0
 40
1.5
 50
0.0
 51
180.0
  0
ARC
  5
229E
  8
0
 10
112.5
 20
65.925927165999923
 30
0.0
 40
1.5
 50
0.0
 51
180.0
  0
ARC
  5
229F
  8
0
 10
112.5
 20
65.601925165999944
 30
0.0
 40
1.5
 50
0.0
 51
180.0
  0
ARC
  5
22A0
  8
0
 10
112.5
 20
65.277924165999963
 30
0.0
 40
1.5
 50
0.0
 51
180.0
  0
ARC
  5
22A1
  8
0
 10
112.5
 20
64.536648165999935
 30
0.0
 40
1.5
 50
0.0
 51
180.0
  0
ARC
  5
22A2
  8
0
 10
112.5
 20
63.608825165999953
 30
0.0
 40
1.5
 50
0.0
 51
180.0
  0
ARC
  5
22A3
  8
0
 10
112.5
 20
62.52882116599995
 30
0.0
 40
1.5
 50
0.0
 51
180.0
  0
LINE
  5
22A4
  8
0
 10
111.2149999999999
 20
61.364928165999949
 30
0.0
 11
113.7849999999999
 21
61.364928165999949
 31
0.0
  0
LINE
  5
22A5
  8
0
 10
111.2149999999999
 20
60.934928165999942
 30
0.0
 11
113.7849999999999
 21
60.934928165999942
 31
0.0
  0
ARC
  5
22A6
  8
0
 10
111.2149999999999
 20
61.149928165999938
 30
0.0
 40
0.215
 50
90.0
 51
270.0
  0
ARC
  5
22A7
  8
0
 10
113.7849999999999
 20
61.149928165999938
 30
0.0
 40
0.215
 50
270.0
 51
90.0
  0
ARC
  5
22A8
  8
0
 10
112.5
 20
62.599117165999957
 30
0.0
 40
2.9258310000000001
 50
241.5814110000006
 51
298.41858899999937
  0
ARC
  5
22A9
  8
0
 10
111.2149999999999
 20
60.212101165999947
 30
0.0
 40
0.215
 50
61.712348000000148
 51
243.3890719999996
  0
ARC
  5
22AA
  8
0
 10
113.7849999999999
 20
60.212101165999947
 30
0.0
 40
0.215
 50
296.61092800000029
 51
118.2876519999998
  0
ARC
  5
22AB
  8
0
 10
112.5
 20
62.599837165999972
 30
0.0
 40
2.4965509999999989
 50
241.71234800000019
 51
298.28765199999992
  0
ARC
  5
22AC
  8
0
 10
112.5
 20
59.700019165999947
 30
0.0
 40
2.4965509999999989
 50
61.712348000000148
 51
118.2876519999998
  0
ARC
  5
22AD
  8
0
 10
113.7849999999999
 20
62.087755165999937
 30
0.0
 40
0.215
 50
241.71234800000019
 51
63.389071999999558
  0
ARC
  5
22AE
  8
0
 10
111.2149999999999
 20
62.087755165999937
 30
0.0
 40
0.215
 50
116.6109280000003
 51
298.28765199999992
  0
ARC
  5
22AF
  8
0
 10
112.5
 20
59.700739165999963
 30
0.0
 40
2.9258310000000001
 50
61.581411000000607
 51
118.4185889999994
  0
ARC
  5
22B0
  8
0
 10
112.5
 20
59.771036165999973
 30
0.0
 40
1.5
 50
180.0
 51
0.0
  0
ARC
  5
22B1
  8
0
 10
112.5
 20
58.691031165999938
 30
0.0
 40
1.5
 50
180.0
 51
0.0
  0
ARC
  5
22B2
  8
0
 10
112.5
 20
57.763208165999941
 30
0.0
 40
1.5
 50
180.0
 51
0.0
  0
ARC
  5
22B3
  8
0
 10
112.5
 20
57.021932165999949
 30
0.0
 40
1.5
 50
180.0
 51
0.0
  0
ARC
  5
22B4
  8
0
 10
112.5
 20
56.697931165999968
 30
0.0
 40
1.5
 50
180.0
 51
0.0
  0
ARC
  5
22B5
  8
0
 10
112.5
 20
56.373929165999961
 30
0.0
 40
1.5
 50
180.0
 51
0.0
  0
ARC
  5
22B6
  8
0
 10
112.5
 20
60.178492165999927
 30
0.0
 40
1.5
 50
180.0
 51
0.0
  0
ARC
  5
22B7
  8
0
 10
112.5
 20
59.157396165999927
 30
0.0
 40
1.5
 50
180.0
 51
0.0
  0
ARC
  5
22B8
  8
0
 10
112.5
 20
58.229574165999942
 30
0.0
 40
1.5
 50
180.0
 51
0.0
  0
ARC
  5
22B9
  8
0
 10
112.5
 20
57.439207165999939
 30
0.0
 40
1.5
 50
180.0
 51
0.0
  0
ARC
  5
22BA
  8
0
 10
112.5
 20
56.884477165999932
 30
0.0
 40
1.5
 50
180.0
 51
0.0
  0
ARC
  5
22BB
  8
0
 10
112.5
 20
56.467203165999969
 30
0.0
 40
1.5
 50
180.0
 51
0.0
  0
ARC
  5
22BC
  8
0
 10
112.5
 20
56.18738316599994
 30
0.0
 40
1.5
 50
180.0
 51
0.0
  0
LINE
  5
22BD
  8
1
 10
129.49999999999989
 20
25.0
 30
0.0
 11
129.49999999999989
 21
80.649928165999938
 31
0.0
  0
ARC
  5
22BE
  8
0
 10
146.49999999999989
 20
56.18738316599994
 30
0.0
 40
1.5
 50
180.0
 51
0.0
  0
ARC
  5
22BF
  8
0
 10
146.49999999999989
 20
56.467203165999969
 30
0.0
 40
1.5
 50
180.0
 51
0.0
  0
ARC
  5
22C0
  8
0
 10
146.49999999999989
 20
56.884477165999932
 30
0.0
 40
1.5
 50
180.0
 51
0.0
  0
ARC
  5
22C1
  8
0
 10
146.49999999999989
 20
57.439207165999939
 30
0.0
 40
1.5
 50
180.0
 51
0.0
  0
ARC
  5
22C2
  8
0
 10
146.49999999999989
 20
58.229574165999942
 30
0.0
 40
1.5
 50
180.0
 51
0.0
  0
ARC
  5
22C3
  8
0
 10
146.49999999999989
 20
59.157396165999927
 30
0.0
 40
1.5
 50
180.0
 51
0.0
  0
ARC
  5
22C4
  8
0
 10
146.49999999999989
 20
60.178492165999927
 30
0.0
 40
1.5
 50
180.0
 51
0.0
  0
ARC
  5
22C5
  8
0
 10
146.49999999999989
 20
56.373929165999961
 30
0.0
 40
1.5
 50
180.0
 51
0.0
  0
ARC
  5
22C6
  8
0
 10
146.49999999999989
 20
56.697931165999968
 30
0.0
 40
1.5
 50
180.0
 51
0.0
  0
ARC
  5
22C7
  8
0
 10
146.49999999999989
 20
57.021932165999949
 30
0.0
 40
1.5
 50
180.0
 51
0.0
  0
ARC
  5
22C8
  8
0
 10
146.49999999999989
 20
57.763208165999941
 30
0.0
 40
1.5
 50
180.0
 51
0.0
  0
ARC
  5
22C9
  8
0
 10
146.49999999999989
 20
58.691031165999938
 30
0.0
 40
1.5
 50
180.0
 51
0.0
  0
ARC
  5
22CA
  8
0
 10
146.49999999999989
 20
59.771036165999973
 30
0.0
 40
1.5
 50
180.0
 51
0.0
  0
ARC
  5
22CB
  8
0
 10
146.49999999999989
 20
59.700739165999963
 30
0.0
 40
2.9258310000000001
 50
61.581411000000607
 51
118.4185889999994
  0
ARC
  5
22CC
  8
0
 10
147.78499999999991
 20
62.087755165999937
 30
0.0
 40
0.215
 50
241.71234800000019
 51
63.389071999999558
  0
ARC
  5
22CD
  8
0
 10
145.21499999999989
 20
62.087755165999937
 30
0.0
 40
0.215
 50
116.6109280000003
 51
298.28765199999992
  0
ARC
  5
22CE
  8
0
 10
146.49999999999989
 20
59.700019165999947
 30
0.0
 40
2.4965509999999989
 50
61.712348000000148
 51
118.2876519999998
  0
ARC
  5
22CF
  8
0
 10
146.49999999999989
 20
62.599837165999972
 30
0.0
 40
2.4965509999999989
 50
241.71234800000019
 51
298.28765199999992
  0
ARC
  5
22D0
  8
0
 10
145.21499999999989
 20
60.212101165999947
 30
0.0
 40
0.215
 50
61.712348000000148
 51
243.3890719999996
  0
ARC
  5
22D1
  8
0
 10
147.78499999999991
 20
60.212101165999947
 30
0.0
 40
0.215
 50
296.61092800000029
 51
118.2876519999998
  0
ARC
  5
22D2
  8
0
 10
146.49999999999989
 20
62.599117165999957
 30
0.0
 40
2.9258310000000001
 50
241.5814110000006
 51
298.41858899999937
  0
ARC
  5
22D3
  8
0
 10
145.21499999999989
 20
61.149928165999938
 30
0.0
 40
0.215
 50
90.0
 51
270.0
  0
ARC
  5
22D4
  8
0
 10
147.78499999999991
 20
61.149928165999938
 30
0.0
 40
0.215
 50
270.0
 51
90.0
  0
LINE
  5
22D5
  8
0
 10
147.78499999999991
 20
60.934928165999942
 30
0.0
 11
145.21499999999989
 21
60.934928165999942
 31
0.0
  0
LINE
  5
22D6
  8
0
 10
147.78499999999991
 20
61.364928165999949
 30
0.0
 11
145.21499999999989
 21
61.364928165999949
 31
0.0
  0
ARC
  5
22D7
  8
0
 10
146.49999999999989
 20
62.52882116599995
 30
0.0
 40
1.5
 50
0.0
 51
180.0
  0
ARC
  5
22D8
  8
0
 10
146.49999999999989
 20
63.608825165999953
 30
0.0
 40
1.5
 50
0.0
 51
180.0
  0
ARC
  5
22D9
  8
0
 10
146.49999999999989
 20
64.536648165999935
 30
0.0
 40
1.5
 50
0.0
 51
180.0
  0
ARC
  5
22DA
  8
0
 10
146.49999999999989
 20
65.277924165999963
 30
0.0
 40
1.5
 50
0.0
 51
180.0
  0
ARC
  5
22DB
  8
0
 10
146.49999999999989
 20
65.601925165999944
 30
0.0
 40
1.5
 50
0.0
 51
180.0
  0
ARC
  5
22DC
  8
0
 10
146.49999999999989
 20
65.925927165999923
 30
0.0
 40
1.5
 50
0.0
 51
180.0
  0
ARC
  5
22DD
  8
0
 10
146.49999999999989
 20
62.121364165999957
 30
0.0
 40
1.5
 50
0.0
 51
180.0
  0
ARC
  5
22DE
  8
0
 10
146.49999999999989
 20
63.14246016599995
 30
0.0
 40
1.5
 50
0.0
 51
180.0
  0
ARC
  5
22DF
  8
0
 10
146.49999999999989
 20
64.070282165999942
 30
0.0
 40
1.5
 50
0.0
 51
180.0
  0
ARC
  5
22E0
  8
0
 10
146.49999999999989
 20
64.860649165999945
 30
0.0
 40
1.5
 50
0.0
 51
180.0
  0
ARC
  5
22E1
  8
0
 10
146.49999999999989
 20
65.415379165999951
 30
0.0
 40
1.5
 50
0.0
 51
180.0
  0
ARC
  5
22E2
  8
0
 10
146.49999999999989
 20
65.832653165999943
 30
0.0
 40
1.5
 50
0.0
 51
180.0
  0
ARC
  5
22E3
  8
0
 10
146.49999999999989
 20
66.112473165999944
 30
0.0
 40
1.5
 50
0.0
 51
180.0
  0
LINE
  5
22E4
  8
0
 10
149.99999999999989
 20
58.549928165999951
 30
0.0
 11
148.99999999999989
 21
57.549928165999951
 31
0.0
  0
LINE
  5
22E5
  8
0
 10
149.99999999999989
 20
63.74992816599994
 30
0.0
 11
148.99999999999989
 21
64.749928165999933
 31
0.0
  0
LINE
  5
22E6
  8
0
 10
148.99999999999989
 20
57.549928165999951
 30
0.0
 11
148.99999999999989
 21
64.749928165999933
 31
0.0
  0
ARC
  5
22E7
  8
0
 10
146.56162399999991
 20
67.049928165999944
 30
0.0
 40
1.0
 50
34.071452999999217
 51
90.0
  0
ARC
  5
22E8
  8
0
 10
146.82707899999991
 20
67.549928165999944
 30
0.0
 40
1.0
 50
34.071452999999217
 51
90.0
  0
ARC
  5
22E9
  8
0
 10
144.99999999999989
 20
68.049928165999944
 30
0.0
 40
0.5
 50
90.0
 51
180.0
  0
ARC
  5
22EA
  8
0
 10
145.49999999999989
 20
67.549928165999944
 30
0.0
 40
0.5
 50
90.0
 51
180.0
  0
LINE
  5
22EB
  8
0
 10
147.76885799999991
 20
67.049928165999944
 30
0.0
 11
148.23720999999989
 21
67.249928165999933
 31
0.0
  0
LINE
  5
22EC
  8
0
 10
148.23720999999989
 20
67.249928165999933
 30
0.0
 11
147.65541799999991
 21
68.110154165999944
 31
0.0
  0
LINE
  5
22ED
  8
0
 10
147.76885799999991
 20
67.049928165999944
 30
0.0
 11
147.38996299999991
 21
67.610154165999944
 31
0.0
  0
LINE
  5
22EE
  8
0
 10
146.56162399999991
 20
68.049928165999944
 30
0.0
 11
145.49999999999989
 21
68.049928165999944
 31
0.0
  0
LINE
  5
22EF
  8
0
 10
146.82707899999991
 20
68.549928165999944
 30
0.0
 11
144.99999999999989
 21
68.549928165999944
 31
0.0
  0
ARC
  5
22F0
  8
0
 10
146.49999999999989
 20
66.249928165999933
 30
0.0
 40
1.5
 50
0.0
 51
180.0
  0
LINE
  5
22F1
  8
0
 10
145.81208699999991
 20
52.476202165999929
 30
0.0
 11
147.82221799999991
 21
54.549928165999951
 31
0.0
  0
LINE
  5
22F2
  8
0
 10
145.31208699999991
 20
52.691199165999969
 30
0.0
 11
147.47826199999989
 21
54.912824165999957
 31
0.0
  0
ARC
  5
22F3
  8
0
 10
146.49999999999989
 20
56.049928165999951
 30
0.0
 40
1.5
 50
180.0
 51
0.0
  0
LINE
  5
22F4
  8
0
 10
147.99999999999989
 20
56.049928165999951
 30
0.0
 11
147.99999999999989
 21
66.249928165999933
 31
0.0
  0
LINE
  5
22F5
  8
0
 10
148.99999999999989
 20
64.749928165999933
 30
0.0
 11
148.1999999999999
 21
64.749928165999933
 31
0.0
  0
LINE
  5
22F6
  8
0
 10
148.99999999999989
 20
57.549928165999951
 30
0.0
 11
148.1999999999999
 21
57.549928165999951
 31
0.0
  0
LINE
  5
22F7
  8
0
 10
147.82221799999991
 20
54.549928165999951
 30
0.0
 11
147.47826199999989
 21
54.912824165999957
 31
0.0
  0
ARC
  5
22F8
  8
0
 10
145.99999999999989
 20
50.690562165999957
 30
0.0
 40
0.5
 50
180.0
 51
200.9347439999996
  0
ARC
  5
22F9
  8
0
 10
145.50798999999989
 20
50.017557165999939
 30
0.0
 40
0.2
 50
353.80547300000069
 51
20.93474399999965
  0
ARC
  5
22FA
  8
0
 10
144.99999999999989
 20
50.049928165999951
 30
0.0
 40
0.5
 50
180.0
 51
270.0
  0
ARC
  5
22FB
  8
0
 10
145.20974099999989
 20
50.049928165999951
 30
0.0
 40
0.5
 50
270.0
 51
353.80547300000069
  0
LINE
  5
22FC
  8
0
 10
145.53300599999989
 20
50.511910165999957
 30
0.0
 11
145.69478699999991
 21
50.089018165999939
 31
0.0
  0
LINE
  5
22FD
  8
0
 10
144.99999999999989
 20
50.50581216599997
 30
0.0
 11
144.88791299999991
 21
50.212818165999948
 31
0.0
  0
LINE
  5
22FE
  8
0
 10
144.99999999999989
 20
50.50581216599997
 30
0.0
 11
145.11208799999989
 21
50.212818165999948
 31
0.0
  0
ARC
  5
22FF
  8
0
 10
144.99999999999989
 20
50.169938165999952
 30
0.0
 40
0.12001
 50
159.06525600000029
 51
20.93474399999965
  0
LINE
  5
2300
  8
0
 10
145.20974099999989
 20
49.549928165999951
 30
0.0
 11
144.99999999999989
 21
49.549928165999951
 31
0.0
  0
ARC
  5
2301
  8
0
 10
146.49999999999989
 20
51.75041016599998
 30
0.0
 40
1.0
 50
133.4651649999993
 51
180.0
  0
ARC
  5
2302
  8
0
 10
145.99999999999989
 20
51.965407165999949
 30
0.0
 40
1.0
 50
133.4651649999993
 51
180.0
  0
LINE
  5
2303
  8
0
 10
145.49999999999989
 20
51.75041016599998
 30
0.0
 11
145.49999999999989
 21
50.690562165999957
 31
0.0
  0
LINE
  5
2304
  8
0
 10
144.99999999999989
 20
67.549928165999944
 30
0.0
 11
144.99999999999989
 21
50.50581216599997
 31
0.0
  0
LINE
  5
2305
  8
0
 10
149.99999999999989
 20
58.549928165999951
 30
0.0
 11
149.99999999999989
 21
63.74992816599994
 31
0.0
  0
LINE
  5
2306
  8
0
 10
114.6999999999999
 20
75.549928165999944
 30
0.0
 11
144.2999999999999
 21
75.549928165999944
 31
0.0
  0
LINE
  5
2307
  8
0
 10
131.49999999999989
 20
71.549928165999944
 30
0.0
 11
131.49999999999989
 21
75.549928165999944
 31
0.0
  0
LINE
  5
2308
  8
0
 10
127.4999999999999
 20
71.549928165999944
 30
0.0
 11
127.4999999999999
 21
75.549928165999944
 31
0.0
  0
LINE
  5
2309
  8
0
 10
110.7999999999999
 20
64.749928165999933
 30
0.0
 11
110.9999999999999
 21
64.549928165999944
 31
0.0
  0
LINE
  5
230A
  8
0
 10
110.7999999999999
 20
57.549928165999951
 30
0.0
 11
110.9999999999999
 21
57.749928165999933
 31
0.0
  0
LINE
  5
230B
  8
0
 10
148.1999999999999
 20
57.549928165999951
 30
0.0
 11
147.99999999999989
 21
57.749928165999933
 31
0.0
  0
LINE
  5
230C
  8
0
 10
148.1999999999999
 20
64.749928165999933
 30
0.0
 11
147.99999999999989
 21
64.549928165999944
 31
0.0
  0
LINE
  5
230D
  8
0
 10
114.6999999999999
 20
75.549928165999944
 30
0.0
 11
114.5
 21
75.349928165999955
 31
0.0
  0
LINE
  5
230E
  8
0
 10
144.2999999999999
 20
75.549928165999944
 30
0.0
 11
144.49999999999989
 21
75.349928165999955
 31
0.0
  0
LINE
  5
231B
  8
0
 10
75.699999999999989
 20
141.14992816589989
 30
0.0
 11
33.300000000000011
 21
141.14992816589989
 31
0.0
  0
LINE
  5
231E
  8
0
 10
75.699999999999989
 20
111.14992816589989
 30
0.0
 11
33.300000000000011
 21
111.14992816589989
 31
0.0
  0
LINE
  5
2321
  8
0
 10
71.099999999999994
 20
105.64992816589989
 30
0.0
 11
64.699999999999974
 21
105.64992816589989
 31
0.0
  0
LINE
  5
2322
  8
1
 10
85.999999999999986
 20
126.14992816589989
 30
0.0
 11
23.000000000000021
 21
126.14992816589989
 31
0.0
  0
LINE
  5
2323
  8
0
 10
73.419999999999973
 20
124.14992816589989
 30
0.0
 11
73.419999999999973
 21
128.14992816589989
 31
0.0
  0
LINE
  5
2324
  8
0
 10
73.419999999999973
 20
124.14992816589989
 30
0.0
 11
65.919999999999973
 21
111.14992816589989
 31
0.0
  0
LINE
  5
2325
  8
0
 10
73.419999999999973
 20
128.14992816589989
 30
0.0
 11
65.919999999999973
 21
141.14992816589989
 31
0.0
  0
LINE
  5
2326
  8
0
 10
35.58000000000002
 20
128.14992816589989
 30
0.0
 11
43.080000000000013
 21
141.14992816589989
 31
0.0
  0
LINE
  5
2327
  8
0
 10
35.58000000000002
 20
124.14992816589989
 30
0.0
 11
43.080000000000013
 21
111.14992816589989
 31
0.0
  0
LINE
  5
2328
  8
0
 10
35.58000000000002
 20
124.14992816589989
 30
0.0
 11
35.58000000000002
 21
128.14992816589989
 31
0.0
  0
LINE
  5
2329
  8
1
 10
54.5
 20
100.64992816589989
 30
0.0
 11
54.5
 21
151.64992816589989
 31
0.0
  0
TEXT
  5
232C
  8
0
 10
44.883333333333319
 20
136.44992816589991
 30
0.0
 40
3.2000000000000002
  1
O
 72
     4
 11
45.949999999999982
 21
138.0499281658999
 31
0.0
  0
TEXT
  5
232D
  8
0
 10
47.883333333333319
 20
136.44992816589991
 30
0.0
 40
3.2000000000000002
  1
K
 72
     4
 11
48.949999999999989
 21
138.0499281658999
 31
0.0
  0
TEXT
  5
232E
  8
0
 10
50.883333333333319
 20
136.44992816589991
 30
0.0
 40
3.2000000000000002
  1
-
 72
     4
 11
51.949999999999989
 21
138.0499281658999
 31
0.0
  0
TEXT
  5
232F
  8
0
 10
53.349999999999987
 20
136.44992816589991
 30
0.0
 40
3.2000000000000002
  1
V
 72
     4
 11
54.949999999999989
 21
138.0499281658999
 31
0.0
  0
TEXT
  5
2330
  8
0
 10
57.416666666666657
 20
136.44992816589991
 30
0.0
 40
3.2000000000000002
  1
I
 72
     4
 11
57.949999999999989
 21
138.0499281658999
 31
0.0
  0
TEXT
  5
2331
  8
0
 10
59.883333333333319
 20
136.44992816589991
 30
0.0
 40
3.2000000000000002
  1
S
 72
     4
 11
60.949999999999982
 21
138.0499281658999
 31
0.0
  0
TEXT
  5
2332
  8
0
 10
62.883333333333319
 20
136.44992816589991
 30
0.0
 40
3.2000000000000002
  1
E
 72
     4
 11
63.949999999999989
 21
138.0499281658999
 31
0.0
  0
TEXT
  5
2333
  8
0
 10
60.68333333333333
 20
112.1355681658999
 30
0.0
 40
3.2000000000000002
  1
T
 72
     4
 11
61.75
 21
113.73556816589991
 31
0.0
  0
TEXT
  5
2334
  8
0
 10
57.149999999999991
 20
112.1355681658999
 30
0.0
 40
3.2000000000000002
  1
V
 72
     4
 11
58.75
 21
113.73556816589991
 31
0.0
  0
TEXT
  5
2335
  8
0
 10
54.68333333333333
 20
112.1355681658999
 30
0.0
 40
3.2000000000000002
  1
-
 72
     4
 11
55.75
 21
113.73556816589991
 31
0.0
  0
TEXT
  5
2336
  8
0
 10
51.68333333333333
 20
112.1355681658999
 30
0.0
 40
3.2000000000000002
  1
2
 72
     4
 11
52.75
 21
113.73556816589991
 31
0.0
  0
TEXT
  5
2337
  8
0
 10
48.68333333333333
 20
112.1355681658999
 30
0.0
 40
3.2000000000000002
  1
K
 72
     4
 11
49.75
 21
113.73556816589991
 31
0.0
  0
TEXT
  5
2338
  8
0
 10
45.68333333333333
 20
112.1355681658999
 30
0.0
 40
3.2000000000000002
  1
D
 72
     4
 11
46.749999999999993
 21
113.73556816589991
 31
0.0
  0
LINE
  5
2339
  8
0
 10
36.900000000000013
 20
106.64992816589989
 30
0.0
 11
36.900000000000013
 21
107.44992816589991
 31
0.0
  0
LINE
  5
233A
  8
0
 10
72.099999999999994
 20
106.64992816589989
 30
0.0
 11
72.099999999999994
 21
107.44992816589991
 31
0.0
  0
LINE
  5
233B
  8
0
 10
44.300000000000011
 20
105.64992816589989
 30
0.0
 11
44.300000000000011
 21
111.14992816589989
 31
0.0
  0
LINE
  5
233C
  8
0
 10
64.699999999999974
 20
105.64992816589989
 30
0.0
 11
64.699999999999974
 21
111.14992816589989
 31
0.0
  0
LINE
  5
233D
  8
0
 10
44.300000000000011
 20
105.64992816589989
 30
0.0
 11
37.900000000000013
 21
105.64992816589989
 31
0.0
  0
LINE
  5
233E
  8
0
 10
36.900000000000013
 20
106.64992816589989
 30
0.0
 11
37.900000000000013
 21
105.64992816589989
 31
0.0
  0
LINE
  5
233F
  8
0
 10
71.099999999999994
 20
105.64992816589989
 30
0.0
 11
72.099999999999994
 21
106.64992816589989
 31
0.0
  0
LINE
  5
2340
  8
0
 10
72.099999999999994
 20
106.64992816589989
 30
0.0
 11
64.699999999999974
 21
106.64992816589989
 31
0.0
  0
LINE
  5
2341
  8
0
 10
44.300000000000011
 20
106.64992816589989
 30
0.0
 11
36.900000000000013
 21
106.64992816589989
 31
0.0
  0
LINE
  5
2342
  8
0
 10
72.249999999999972
 20
107.64992816589989
 30
0.0
 11
64.900000000000006
 21
107.64992816589989
 31
0.0
  0
LINE
  5
2343
  8
0
 10
44.099999999999987
 20
107.64992816589989
 30
0.0
 11
36.75
 21
107.64992816589989
 31
0.0
  0
LINE
  5
2344
  8
0
 10
36.900000000000013
 20
107.44992816589991
 30
0.0
 11
37.099999999999987
 21
107.64992816589989
 31
0.0
  0
LINE
  5
2345
  8
0
 10
44.099999999999987
 20
107.64992816589989
 30
0.0
 11
44.300000000000011
 21
107.44992816589991
 31
0.0
  0
LINE
  5
2346
  8
0
 10
64.699999999999974
 20
107.44992816589991
 30
0.0
 11
64.900000000000006
 21
107.64992816589989
 31
0.0
  0
LINE
  5
2347
  8
0
 10
72.099999999999994
 20
107.44992816589991
 30
0.0
 11
71.900000000000006
 21
107.64992816589989
 31
0.0
  0
LINE
  5
2348
  8
0
 10
64.699999999999974
 20
107.4127181658999
 30
0.0
 11
44.300000000000011
 21
107.4127181658999
 31
0.0
  0
ARC
  5
2349
  8
0
 10
36.75
 20
109.39992816589989
 30
0.0
 40
1.75
 50
90.0
 51
270.0
  0
ARC
  5
234A
  8
0
 10
72.249999999999972
 20
109.39992816589989
 30
0.0
 40
1.75
 50
270.0
 51
90.0
  0
ARC
  5
234B
  8
0
 10
71.912671000000003
 20
109.39992816589989
 30
0.0
 40
1.75
 50
270.0
 51
90.0
  0
ARC
  5
234C
  8
0
 10
71.494382999999985
 20
109.39992816589989
 30
0.0
 40
1.75
 50
270.0
 51
90.0
  0
ARC
  5
234D
  8
0
 10
70.995135999999974
 20
109.39992816589989
 30
0.0
 40
1.75
 50
270.0
 51
90.0
  0
ARC
  5
234E
  8
0
 10
70.441915999999964
 20
109.39992816589989
 30
0.0
 40
1.75
 50
270.0
 51
90.0
  0
ARC
  5
234F
  8
0
 10
69.753764000000004
 20
109.39992816589989
 30
0.0
 40
1.75
 50
270.0
 51
90.0
  0
ARC
  5
2350
  8
0
 10
67.149582999999978
 20
109.39992816589989
 30
0.0
 40
2.2336419999999988
 50
308.4202580000005
 51
51.579741999999513
  0
ARC
  5
2351
  8
0
 10
66.596363999999966
 20
109.39992816589989
 30
0.0
 40
2.2336419999999988
 50
308.4202580000005
 51
51.579741999999513
  0
ARC
  5
2352
  8
0
 10
65.962185000000005
 20
109.39992816589989
 30
0.0
 40
2.2336419999999988
 50
308.4202580000005
 51
51.579741999999513
  0
ARC
  5
2353
  8
0
 10
65.274033000000003
 20
109.39992816589989
 30
0.0
 40
2.2336419999999988
 50
308.4202580000005
 51
51.579741999999513
  0
ARC
  5
2354
  8
0
 10
64.585881999999998
 20
109.39992816589989
 30
0.0
 40
2.2336419999999988
 50
308.4202580000005
 51
51.579741999999513
  0
ARC
  5
2355
  8
0
 10
63.803277999999999
 20
109.39992816589989
 30
0.0
 40
2.2336419999999988
 50
308.4202580000005
 51
51.579741999999513
  0
ARC
  5
2356
  8
0
 10
63.088140999999979
 20
109.39992816589989
 30
0.0
 40
2.2336419999999988
 50
316.18907999999931
 51
43.810920000000721
  0
ARC
  5
2357
  8
0
 10
67.459925999999967
 20
109.39992816589989
 30
0.0
 40
2.3955599999999988
 50
313.0701529999991
 51
46.92984700000094
  0
ARC
  5
2358
  8
0
 10
67.959172999999993
 20
109.39992816589989
 30
0.0
 40
2.3955599999999988
 50
313.0701529999991
 51
46.92984700000094
  0
ARC
  5
2359
  8
0
 10
68.903694999999999
 20
109.39992816589989
 30
0.0
 40
1.950286
 50
296.19401400000112
 51
63.805985999998889
  0
ARC
  5
235A
  8
0
 10
40.096305000000001
 20
109.39992816589989
 30
0.0
 40
1.950286
 50
116.1940140000011
 51
243.80598599999891
  0
ARC
  5
235B
  8
0
 10
41.040827000000007
 20
109.39992816589989
 30
0.0
 40
2.3955599999999988
 50
133.07015299999901
 51
226.9298470000009
  0
ARC
  5
235C
  8
0
 10
41.540073999999997
 20
109.39992816589989
 30
0.0
 40
2.3955599999999988
 50
133.07015299999901
 51
226.9298470000009
  0
ARC
  5
235D
  8
0
 10
45.911859000000007
 20
109.39992816589989
 30
0.0
 40
2.2336419999999988
 50
136.18907999999919
 51
223.81092000000069
  0
ARC
  5
235E
  8
0
 10
45.196721999999987
 20
109.39992816589989
 30
0.0
 40
2.2336419999999988
 50
128.4202580000005
 51
231.5797419999995
  0
ARC
  5
235F
  8
0
 10
44.414118000000002
 20
109.39992816589989
 30
0.0
 40
2.2336419999999988
 50
128.4202580000005
 51
231.5797419999995
  0
ARC
  5
2360
  8
0
 10
43.72596699999999
 20
109.39992816589989
 30
0.0
 40
2.2336419999999988
 50
128.4202580000005
 51
231.5797419999995
  0
ARC
  5
2361
  8
0
 10
43.037814999999988
 20
109.39992816589989
 30
0.0
 40
2.2336419999999988
 50
128.4202580000005
 51
231.5797419999995
  0
ARC
  5
2362
  8
0
 10
42.403636000000013
 20
109.39992816589989
 30
0.0
 40
2.2336419999999988
 50
128.4202580000005
 51
231.5797419999995
  0
ARC
  5
2363
  8
0
 10
41.850416999999993
 20
109.39992816589989
 30
0.0
 40
2.2336419999999988
 50
128.4202580000005
 51
231.5797419999995
  0
ARC
  5
2364
  8
0
 10
39.24623600000001
 20
109.39992816589989
 30
0.0
 40
1.75
 50
90.0
 51
270.0
  0
ARC
  5
2365
  8
0
 10
38.558084000000008
 20
109.39992816589989
 30
0.0
 40
1.75
 50
90.0
 51
270.0
  0
ARC
  5
2366
  8
0
 10
38.004863999999998
 20
109.39992816589989
 30
0.0
 40
1.75
 50
90.0
 51
270.0
  0
ARC
  5
2367
  8
0
 10
37.505617000000001
 20
109.39992816589989
 30
0.0
 40
1.75
 50
90.0
 51
270.0
  0
ARC
  5
2368
  8
0
 10
37.087329000000011
 20
109.39992816589989
 30
0.0
 40
1.75
 50
90.0
 51
270.0
  0
ARC
  5
2369
  8
0
 10
37.087329000000011
 20
142.89992816589989
 30
0.0
 40
1.75
 50
90.0
 51
270.0
  0
ARC
  5
236A
  8
0
 10
37.505617000000001
 20
142.89992816589989
 30
0.0
 40
1.75
 50
90.0
 51
270.0
  0
ARC
  5
236B
  8
0
 10
38.004863999999998
 20
142.89992816589989
 30
0.0
 40
1.75
 50
90.0
 51
270.0
  0
ARC
  5
236C
  8
0
 10
38.558084000000008
 20
142.89992816589989
 30
0.0
 40
1.75
 50
90.0
 51
270.0
  0
ARC
  5
236D
  8
0
 10
39.24623600000001
 20
142.89992816589989
 30
0.0
 40
1.75
 50
90.0
 51
270.0
  0
ARC
  5
236E
  8
0
 10
41.850416999999993
 20
142.89992816589989
 30
0.0
 40
2.2336419999999988
 50
128.4202580000005
 51
231.5797419999995
  0
ARC
  5
236F
  8
0
 10
42.403636000000013
 20
142.89992816589989
 30
0.0
 40
2.2336419999999988
 50
128.4202580000005
 51
231.5797419999995
  0
ARC
  5
2370
  8
0
 10
43.037814999999988
 20
142.89992816589989
 30
0.0
 40
2.2336419999999988
 50
128.4202580000005
 51
231.5797419999995
  0
ARC
  5
2371
  8
0
 10
43.72596699999999
 20
142.89992816589989
 30
0.0
 40
2.2336419999999988
 50
128.4202580000005
 51
231.5797419999995
  0
ARC
  5
2372
  8
0
 10
44.414118000000002
 20
142.89992816589989
 30
0.0
 40
2.2336419999999988
 50
128.4202580000005
 51
231.5797419999995
  0
ARC
  5
2373
  8
0
 10
45.196721999999987
 20
142.89992816589989
 30
0.0
 40
2.2336419999999988
 50
128.4202580000005
 51
231.5797419999995
  0
ARC
  5
2374
  8
0
 10
45.911859000000007
 20
142.89992816589989
 30
0.0
 40
2.2336419999999988
 50
136.18907999999919
 51
223.81092000000069
  0
ARC
  5
2375
  8
0
 10
41.540073999999997
 20
142.89992816589989
 30
0.0
 40
2.3955599999999988
 50
133.07015299999901
 51
226.9298470000009
  0
ARC
  5
2376
  8
0
 10
41.040827000000007
 20
142.89992816589989
 30
0.0
 40
2.3955599999999988
 50
133.07015299999901
 51
226.9298470000009
  0
ARC
  5
2377
  8
0
 10
40.096305000000001
 20
142.89992816589989
 30
0.0
 40
1.950286
 50
116.1940140000011
 51
243.80598599999891
  0
ARC
  5
2378
  8
0
 10
68.903694999999999
 20
142.89992816589989
 30
0.0
 40
1.950286
 50
296.19401400000112
 51
63.805985999998889
  0
ARC
  5
2379
  8
0
 10
67.959172999999993
 20
142.89992816589989
 30
0.0
 40
2.3955599999999988
 50
313.0701529999991
 51
46.92984700000094
  0
ARC
  5
237A
  8
0
 10
67.459925999999967
 20
142.89992816589989
 30
0.0
 40
2.3955599999999988
 50
313.0701529999991
 51
46.92984700000094
  0
ARC
  5
237B
  8
0
 10
63.088140999999979
 20
142.89992816589989
 30
0.0
 40
2.2336419999999988
 50
316.18907999999931
 51
43.810920000000721
  0
ARC
  5
237C
  8
0
 10
63.803277999999999
 20
142.89992816589989
 30
0.0
 40
2.2336419999999988
 50
308.4202580000005
 51
51.579741999999513
  0
ARC
  5
237D
  8
0
 10
64.585881999999998
 20
142.89992816589989
 30
0.0
 40
2.2336419999999988
 50
308.4202580000005
 51
51.579741999999513
  0
ARC
  5
237E
  8
0
 10
65.274033000000003
 20
142.89992816589989
 30
0.0
 40
2.2336419999999988
 50
308.4202580000005
 51
51.579741999999513
  0
ARC
  5
237F
  8
0
 10
65.962185000000005
 20
142.89992816589989
 30
0.0
 40
2.2336419999999988
 50
308.4202580000005
 51
51.579741999999513
  0
ARC
  5
2380
  8
0
 10
66.596363999999966
 20
142.89992816589989
 30
0.0
 40
2.2336419999999988
 50
308.4202580000005
 51
51.579741999999513
  0
ARC
  5
2381
  8
0
 10
67.149582999999978
 20
142.89992816589989
 30
0.0
 40
2.2336419999999988
 50
308.4202580000005
 51
51.579741999999513
  0
ARC
  5
2382
  8
0
 10
69.753764000000004
 20
142.89992816589989
 30
0.0
 40
1.75
 50
270.0
 51
90.0
  0
ARC
  5
2383
  8
0
 10
70.441915999999964
 20
142.89992816589989
 30
0.0
 40
1.75
 50
270.0
 51
90.0
  0
ARC
  5
2384
  8
0
 10
70.995135999999974
 20
142.89992816589989
 30
0.0
 40
1.75
 50
270.0
 51
90.0
  0
ARC
  5
2385
  8
0
 10
71.494382999999985
 20
142.89992816589989
 30
0.0
 40
1.75
 50
270.0
 51
90.0
  0
ARC
  5
2386
  8
0
 10
71.912671000000003
 20
142.89992816589989
 30
0.0
 40
1.75
 50
270.0
 51
90.0
  0
ARC
  5
2387
  8
0
 10
72.249999999999972
 20
142.89992816589989
 30
0.0
 40
1.75
 50
270.0
 51
90.0
  0
ARC
  5
2388
  8
0
 10
36.75
 20
142.89992816589989
 30
0.0
 40
1.75
 50
90.0
 51
270.0
  0
LINE
  5
2389
  8
0
 10
64.699999999999974
 20
144.8871381658999
 30
0.0
 11
44.300000000000011
 21
144.8871381658999
 31
0.0
  0
LINE
  5
238A
  8
0
 10
72.099999999999994
 20
144.84992816589991
 30
0.0
 11
71.900000000000006
 21
144.64992816589989
 31
0.0
  0
LINE
  5
238B
  8
0
 10
64.699999999999974
 20
144.84992816589991
 30
0.0
 11
64.900000000000006
 21
144.64992816589989
 31
0.0
  0
LINE
  5
238C
  8
0
 10
44.099999999999987
 20
144.64992816589989
 30
0.0
 11
44.300000000000011
 21
144.84992816589991
 31
0.0
  0
LINE
  5
238D
  8
0
 10
36.900000000000013
 20
144.84992816589991
 30
0.0
 11
37.099999999999987
 21
144.64992816589989
 31
0.0
  0
LINE
  5
238E
  8
0
 10
44.099999999999987
 20
144.64992816589989
 30
0.0
 11
36.75
 21
144.64992816589989
 31
0.0
  0
LINE
  5
238F
  8
0
 10
72.249999999999972
 20
144.64992816589989
 30
0.0
 11
64.900000000000006
 21
144.64992816589989
 31
0.0
  0
LINE
  5
2390
  8
0
 10
44.300000000000011
 20
145.64992816589989
 30
0.0
 11
36.900000000000013
 21
145.64992816589989
 31
0.0
  0
LINE
  5
2391
  8
0
 10
72.099999999999994
 20
145.64992816589989
 30
0.0
 11
64.699999999999974
 21
145.64992816589989
 31
0.0
  0
LINE
  5
2392
  8
0
 10
71.099999999999994
 20
146.64992816589989
 30
0.0
 11
72.099999999999994
 21
145.64992816589989
 31
0.0
  0
LINE
  5
2393
  8
0
 10
36.900000000000013
 20
145.64992816589989
 30
0.0
 11
37.900000000000013
 21
146.64992816589989
 31
0.0
  0
LINE
  5
2394
  8
0
 10
44.300000000000011
 20
146.64992816589989
 30
0.0
 11
37.900000000000013
 21
146.64992816589989
 31
0.0
  0
LINE
  5
2395
  8
0
 10
64.699999999999974
 20
146.64992816589989
 30
0.0
 11
64.699999999999974
 21
141.14992816589989
 31
0.0
  0
LINE
  5
2396
  8
0
 10
44.300000000000011
 20
146.64992816589989
 30
0.0
 11
44.300000000000011
 21
141.14992816589989
 31
0.0
  0
LINE
  5
2397
  8
0
 10
72.099999999999994
 20
145.64992816589989
 30
0.0
 11
72.099999999999994
 21
144.84992816589991
 31
0.0
  0
LINE
  5
2398
  8
0
 10
36.900000000000013
 20
145.64992816589989
 30
0.0
 11
36.900000000000013
 21
144.84992816589991
 31
0.0
  0
LINE
  5
2399
  8
0
 10
71.099999999999994
 20
146.64992816589989
 30
0.0
 11
64.699999999999974
 21
146.64992816589989
 31
0.0
  0
INSERT
  5
239A
  8
0
  2
BBB
 10
68.499999999999972
 20
61.149928165899951
 30
0.0
  0
ARC
  5
239C
  8
0
 10
55.5
 20
126.14992816589989
 30
0.0
 40
9.25
 50
270.0
 51
90.0
  0
ARC
  5
239D
  8
0
 10
53.5
 20
126.14992816589989
 30
0.0
 40
9.25
 50
90.0
 51
270.0
  0
LINE
  5
23A0
  8
0
 10
53.5
 20
116.89992816589989
 30
0.0
 11
55.5
 21
116.89992816589989
 31
0.0
  0
LINE
  5
23A2
  8
0
 10
53.5
 20
135.39992816589989
 30
0.0
 11
55.5
 21
135.39992816589989
 31
0.0
  0
ARC
  5
23A3
  8
0
 10
64.5
 20
67.249928165899945
 30
0.0
 40
0.2
 50
270.0
 51
0.0
  0
ARC
  5
23A4
  8
0
 10
64.5
 20
67.449928165899962
 30
0.0
 40
0.2
 50
270.0
 51
0.0
  0
LINE
  5
23F6
  8
3
 10
134.55299983980399
 20
49.549928165999958
 30
0.0
 11
134.5529998398047
 21
47.549928277799999
 31
0.0
  0
LINE
  5
23F7
  8
3
 10
124.44699983980411
 20
49.549928165999972
 30
0.0
 11
124.4469998398048
 21
47.549928277800007
 31
0.0
  0
LINE
  5
23F8
  8
0
 10
60.499999979400002
 20
47.549928277700019
 30
0.0
 11
60.499999979400002
 21
49.549928165899964
 31
0.0
  0
LINE
  5
23F9
  8
0
 10
48.500000020599991
 20
49.549928165899964
 30
0.0
 11
48.500000020599991
 21
47.549928277700019
 31
0.0
  0
LINE
  5
23FA
  8
3
 10
59.552999839804158
 20
49.549928165899971
 30
0.0
 11
59.552999839804841
 21
47.549928277700019
 31
0.0
  0
LINE
  5
23FB
  8
3
 10
49.446999839804221
 20
49.549928165899971
 30
0.0
 11
49.446999839804903
 21
47.549928277700019
 31
0.0
  0
CIRCLE
  5
23FC
  8
0
 10
54.499991535500037
 20
126.1497203905999
 30
0.0
 40
7.799991538301196
  0
LINE
  5
23FD
  8
0
 10
59.5
 20
129.03667951189991
 30
0.0
 11
59.5
 21
123.2631768199999
 31
0.0
  0
LINE
  5
23FE
  8
0
 10
54.5
 20
131.9234308577999
 30
0.0
 11
59.5
 21
129.03667951189991
 31
0.0
  0
LINE
  5
23FF
  8
0
 10
49.5
 20
129.03667951189991
 30
0.0
 11
54.5
 21
131.9234308577999
 31
0.0
  0
LINE
  5
2400
  8
0
 10
49.5
 20
123.2631768199999
 30
0.0
 11
49.5
 21
129.03667951189991
 31
0.0
  0
LINE
  5
2401
  8
0
 10
54.5
 20
120.3764254739999
 30
0.0
 11
49.5
 21
123.2631768199999
 31
0.0
  0
LINE
  5
2402
  8
0
 10
59.5
 20
123.2631768199999
 30
0.0
 11
54.5
 21
120.3764254739999
 31
0.0
  0
CIRCLE
  5
2403
  8
0
 10
54.5
 20
126.14992816589989
 30
0.0
 40
8.9999999999999734
  0
ARC
  5
2415
  8
0
 10
137.30222261455
 20
74.449927556099965
 30
0.0
 40
1.2000000000000239
 50
66.443535690900646
 51
90.0
  0
ARC
  5
2416
  8
0
 10
121.7022226145499
 20
74.449927556099965
 30
0.0
 40
1.2000000000000171
 50
90.0
 51
113.3783021202012
  0
LINE
  5
2417
  8
0
 10
137.29662887484989
 20
75.649926133499946
 30
0.0
 11
121.7033710839499
 21
75.649926133499946
 31
0.0
  0
ARC
  5
2418
  8
0
 10
62.302222474954213
 20
74.449927555999963
 30
0.0
 40
1.2000000000000239
 50
66.443535690900646
 51
90.0
  0
ARC
  5
2419
  8
0
 10
46.702222474954191
 20
74.449927555999963
 30
0.0
 40
1.2000000000000171
 50
90.0
 51
113.3783021202012
  0
LINE
  5
241A
  8
0
 10
62.296628735254181
 20
75.649926133399944
 30
0.0
 11
46.703370944354177
 21
75.649926133399944
 31
0.0
  0
LINE
  5
2477
  8
2
 10
49.573537339904071
 20
33.649926133299992
 30
0.0
 11
59.426462339804168
 21
33.649926133299992
 31
0.0
  0
LINE
  5
2478
  8
2
 10
45.50233187630419
 20
74.44992613339997
 30
0.0
 11
63.497667803404163
 21
74.449926133399941
 31
0.0
  0
LINE
  5
2479
  8
2
 10
48.499999839804211
 20
34.723463633399973
 30
0.0
 11
60.49999983980409
 21
34.723463633399973
 31
0.0
  0
ARC
  5
247A
  8
2
 10
62.299999839804158
 20
74.449926133399913
 30
0.0
 40
1.200000000000045
 50
0.0000000000016284
 51
66.443778514772504
  0
ARC
  5
247B
  8
2
 10
46.6999998398042
 20
74.44992613339997
 30
0.0
 40
1.2000000000000239
 50
113.55622148523079
 51
180.0
  0
LINE
  5
247C
  8
2
 10
63.499999839804211
 20
63.64992613339998
 30
0.0
 11
63.499999839804211
 21
74.449926133399941
 31
0.0
  0
LINE
  5
247D
  8
2
 10
45.499999839804211
 20
74.44992613339997
 30
0.0
 11
45.499999839804211
 21
63.64992613339998
 31
0.0
  0
LINE
  5
247E
  8
2
 10
48.499999839804211
 20
34.723463633399973
 30
0.0
 11
49.573537339857182
 21
33.649926133299992
 31
0.0
  0
LINE
  5
247F
  8
2
 10
59.426462339705417
 20
33.649926133299992
 30
0.0
 11
60.49999983980409
 21
34.723463633399973
 31
0.0
  0
LINE
  5
2480
  8
2
 10
49.446999839804207
 20
58.399926133399973
 30
0.0
 11
49.446999839804171
 21
49.549928165899971
 31
0.0
  0
LINE
  5
2481
  8
2
 10
59.552999839804059
 20
30.000000000000011
 30
0.0
 11
59.552999839804151
 21
47.549928277700033
 31
0.0
  0
LINE
  5
2482
  8
2
 10
49.446999839804157
 20
58.399926133399973
 30
0.0
 11
48.499999839804211
 21
60.040178248167699
 31
0.0
  0
LINE
  5
2483
  8
2
 10
59.552999839804201
 20
58.399926133399973
 30
0.0
 11
60.499999839804211
 21
60.040178248167699
 31
0.0
  0
LINE
  5
2484
  8
2
 10
48.499999839804147
 20
58.399926133399973
 30
0.0
 11
60.499999839804211
 21
58.399926133399973
 31
0.0
  0
LINE
  5
2485
  8
2
 10
48.499999839804211
 20
30.000000000000011
 30
0.0
 11
48.499999839804211
 21
47.549928277700019
 31
0.0
  0
LINE
  5
2486
  8
2
 10
60.499999839804147
 20
30.000000000000011
 30
0.0
 11
60.499999839804147
 21
47.549928277700019
 31
0.0
  0
LINE
  5
2487
  8
2
 10
44.252222353854222
 20
63.64992613339998
 30
0.0
 11
64.752222353854222
 21
63.649926133399987
 31
0.0
  0
LINE
  5
2488
  8
2
 10
124.57353747949981
 20
33.649926133399973
 30
0.0
 11
134.4264624793999
 21
33.649926133399973
 31
0.0
  0
LINE
  5
2489
  8
2
 10
120.5023320158999
 20
74.449926133499943
 30
0.0
 11
138.4976679429999
 21
74.449926133499915
 31
0.0
  0
LINE
  5
248A
  8
2
 10
123.4999999793999
 20
34.723463633499946
 30
0.0
 11
135.4999999793998
 21
34.723463633499946
 31
0.0
  0
ARC
  5
248B
  8
2
 10
137.2999999793999
 20
74.449926133499886
 30
0.0
 40
1.200000000000045
 50
0.0000000000016284
 51
66.443778514771893
  0
ARC
  5
248C
  8
2
 10
121.69999997939991
 20
74.449926133499943
 30
0.0
 40
1.2000000000000239
 50
113.5562214852323
 51
180.0
  0
LINE
  5
248D
  8
2
 10
138.49999997939989
 20
63.64992613349996
 30
0.0
 11
138.49999997939989
 21
74.449926133499915
 31
0.0
  0
LINE
  5
248E
  8
2
 10
120.4999999793999
 20
74.449926133499943
 30
0.0
 11
120.4999999793999
 21
63.64992613349996
 31
0.0
  0
LINE
  5
248F
  8
2
 10
123.4999999793999
 20
34.723463633499946
 30
0.0
 11
124.5735374794529
 21
33.649926133399973
 31
0.0
  0
LINE
  5
2490
  8
2
 10
134.42646247930119
 20
33.649926133399973
 30
0.0
 11
135.4999999793998
 21
34.723463633499946
 31
0.0
  0
LINE
  5
2491
  8
2
 10
124.4469999794
 20
58.39992613349996
 30
0.0
 11
124.44699997939991
 21
49.549928165999951
 31
0.0
  0
LINE
  5
2492
  8
2
 10
134.5529999793998
 20
30.0
 30
0.0
 11
134.55299997939991
 21
47.549928277800007
 31
0.0
  0
LINE
  5
2493
  8
2
 10
124.44699997939991
 20
58.39992613349996
 30
0.0
 11
123.4999999793999
 21
60.040178248267672
 31
0.0
  0
LINE
  5
2494
  8
2
 10
134.5529999794
 20
58.39992613349996
 30
0.0
 11
135.49999997939989
 21
60.040178248267672
 31
0.0
  0
LINE
  5
2495
  8
2
 10
123.4999999793999
 20
58.39992613349996
 30
0.0
 11
135.49999997939989
 21
58.39992613349996
 31
0.0
  0
LINE
  5
2496
  8
2
 10
123.4999999793999
 20
30.0
 30
0.0
 11
123.4999999793999
 21
47.549928277800007
 31
0.0
  0
LINE
  5
2497
  8
2
 10
135.49999997939989
 20
30.0
 30
0.0
 11
135.49999997939989
 21
47.549928277800007
 31
0.0
  0
LINE
  5
2498
  8
2
 10
120.2499999794
 20
63.64992613349996
 30
0.0
 11
138.7499999794
 21
63.64992613349996
 31
0.0
  0
LINE
  5
2499
  8
2
 10
44.252222353854208
 20
75.549928165899956
 30
0.0
 11
44.252222353854222
 21
63.64992613339998
 31
0.0
  0
LINE
  5
249A
  8
2
 10
64.752222353854222
 20
75.549928165899956
 30
0.0
 11
64.752222353854222
 21
63.64992613339998
 31
0.0
  0
LINE
  5
249C
  8
2
 10
138.7499999794
 20
63.64992613349996
 30
0.0
 11
138.7499999794
 21
75.549928165999944
 31
0.0
  0
LINE
  5
249D
  8
2
 10
120.2544450074999
 20
63.64992613349996
 30
0.0
 11
120.2544450074999
 21
75.549928165999944
 31
0.0
  0
LINE
  5
28E7
  8
0
 10
77.499999999999986
 20
112.14992816589989
 30
0.0
 11
77.499999999999986
 21
140.14992816589989
 31
0.0
  0
LINE
  5
28E8
  8
5
 10
79.199999999999989
 20
141.14992816589989
 30
0.0
 11
76.999999999999943
 21
141.14992816589989
 31
0.0
  0
LINE
  5
28E9
  8
5
 10
79.199999999999989
 20
111.14992816589989
 30
0.0
 11
76.999999999999986
 21
111.14992816589989
 31
0.0
  0
LINE
  5
28EA
  8
5
 10
80.999999999999986
 20
112.14992816589989
 30
0.0
 11
80.999999999999986
 21
140.14992816589989
 31
0.0
  0
LINE
  5
28EB
  8
5
 10
79.199999999999989
 20
111.14992816589989
 30
0.0
 11
79.199999999999989
 21
111.3499281658999
 31
0.0
  0
LINE
  5
28EC
  8
5
 10
80.999999999999986
 20
140.14992816589989
 30
0.0
 11
79.999999999999986
 21
140.14992816589989
 31
0.0
  0
LINE
  5
28ED
  8
5
 10
80.999999999999986
 20
112.14992816589989
 30
0.0
 11
79.999999999999986
 21
112.14992816589989
 31
0.0
  0
LINE
  5
28EE
  8
0
 10
75.699999999999989
 20
111.14992816589989
 30
0.0
 11
75.699999999999989
 21
111.3499281658999
 31
0.0
  0
LINE
  5
28EF
  8
0
 10
77.499999999999986
 20
140.14992816589989
 30
0.0
 11
76.499999999999986
 21
140.14992816589989
 31
0.0
  0
LINE
  5
28F0
  8
0
 10
77.499999999999986
 20
112.14992816589989
 30
0.0
 11
76.499999999999986
 21
112.14992816589989
 31
0.0
  0
LINE
  5
28F1
  8
5
 10
79.199999999999989
 20
140.94992816589991
 30
0.0
 11
79.199999999999989
 21
141.14992816589989
 31
0.0
  0
LINE
  5
28F2
  8
0
 10
75.699999999999989
 20
140.94992816589991
 30
0.0
 11
75.699999999999989
 21
141.14992816589989
 31
0.0
  0
INSERT
  5
28FF
  8
0
  2
M5A
 10
120.4999999999998
 20
60.549928165999951
 30
0.0
  0
INSERT
  5
2900
  8
0
  2
M5A
 10
138.4999999999998
 20
60.549928165999951
 30
0.0
  0
LINE
  5
2901
  8
0
 10
143.4999999999998
 20
49.549928165999937
 30
0.0
 11
143.4999999999998
 21
71.549928165999944
 31
0.0
  0
LINE
  5
2902
  8
0
 10
115.4999999999999
 20
71.549928165999944
 30
0.0
 11
115.4999999999999
 21
49.549928165999937
 31
0.0
  0
LINE
  5
2905
  8
0
 10
31.500000000000021
 20
112.14992816589989
 30
0.0
 11
31.500000000000021
 21
140.14992816589989
 31
0.0
  0
LINE
  5
2906
  8
5
 10
29.800000000000011
 20
141.14992816589989
 30
0.0
 11
32.00000000000005
 21
141.14992816589989
 31
0.0
  0
LINE
  5
2907
  8
5
 10
29.800000000000011
 20
111.14992816589989
 30
0.0
 11
32.000000000000007
 21
111.14992816589989
 31
0.0
  0
LINE
  5
2908
  8
5
 10
28.000000000000021
 20
112.14992816589989
 30
0.0
 11
28.000000000000021
 21
140.14992816589989
 31
0.0
  0
LINE
  5
2909
  8
5
 10
29.800000000000011
 20
111.14992816589989
 30
0.0
 11
29.800000000000011
 21
111.3499281658999
 31
0.0
  0
LINE
  5
290A
  8
5
 10
28.000000000000021
 20
140.14992816589989
 30
0.0
 11
29.000000000000011
 21
140.14992816589989
 31
0.0
  0
LINE
  5
290B
  8
5
 10
28.000000000000021
 20
112.14992816589989
 30
0.0
 11
29.000000000000011
 21
112.14992816589989
 31
0.0
  0
LINE
  5
290C
  8
0
 10
33.300000000000011
 20
111.14992816589989
 30
0.0
 11
33.300000000000011
 21
111.3499281658999
 31
0.0
  0
LINE
  5
290D
  8
0
 10
31.500000000000021
 20
140.14992816589989
 30
0.0
 11
32.500000000000021
 21
140.14992816589989
 31
0.0
  0
LINE
  5
290E
  8
0
 10
31.500000000000021
 20
112.14992816589989
 30
0.0
 11
32.500000000000021
 21
112.14992816589989
 31
0.0
  0
LINE
  5
290F
  8
5
 10
29.800000000000011
 20
140.94992816589991
 30
0.0
 11
29.800000000000011
 21
141.14992816589989
 31
0.0
  0
LINE
  5
2910
  8
0
 10
33.300000000000011
 20
140.94992816589991
 30
0.0
 11
33.300000000000011
 21
141.14992816589989
 31
0.0
  0
ARC
  5
2911
  8
0
 10
76.499999999999986
 20
140.94992816589991
 30
0.0
 40
0.8
 50
180.0
 51
270.0
  0
ARC
  5
2912
  8
5
 10
79.999999999999986
 20
140.94992816589991
 30
0.0
 40
0.8
 50
180.0
 51
270.0
  0
ARC
  5
2913
  8
0
 10
76.499999999999986
 20
111.3499281658999
 30
0.0
 40
0.8
 50
90.0
 51
180.0
  0
ARC
  5
2914
  8
5
 10
79.999999999999986
 20
111.3499281658999
 30
0.0
 40
0.8
 50
90.0
 51
180.0
  0
ARC
  5
2915
  8
5
 10
29.000000000000011
 20
140.94992816589991
 30
0.0
 40
0.8
 50
270.0
 51
0.0
  0
ARC
  5
2916
  8
0
 10
32.500000000000021
 20
140.94992816589991
 30
0.0
 40
0.8
 50
270.0
 51
0.0
  0
ARC
  5
2917
  8
5
 10
29.000000000000011
 20
111.3499281658999
 30
0.0
 40
0.8
 50
0.0
 51
90.0
  0
ARC
  5
2918
  8
0
 10
32.500000000000021
 20
111.3499281658999
 30
0.0
 40
0.8
 50
0.0
 51
90.0
  0
LINE
  5
2921
  8
0
 10
75.699999999999989
 20
71.549928165899956
 30
0.0
 11
75.699999999999989
 21
49.549928165899949
 31
0.0
  0
LINE
  5
2922
  8
5
 10
79.199999999999989
 20
71.549928165899956
 30
0.0
 11
79.199999999999989
 21
49.549928165899964
 31
0.0
  0
LINE
  5
2923
  8
5
 10
28.500000000000011
 20
49.549928165899964
 30
0.0
 11
31.500000000000021
 21
49.549928165899964
 31
0.0
  0
LINE
  5
2924
  8
5
 10
28.000000000000021
 20
71.049928165899956
 30
0.0
 11
28.000000000000021
 21
50.049928165899964
 31
0.0
  0
LINE
  5
2925
  8
5
 10
31.500000000000021
 20
71.549928165899956
 30
0.0
 11
28.500000000000011
 21
71.549928165899956
 31
0.0
  0
LINE
  5
2926
  8
0
 10
31.500000000000021
 20
50.049928165899964
 30
0.0
 11
31.500000000000021
 21
71.049928165899956
 31
0.0
  0
ARC
  5
2927
  8
0
 10
32.000000000000007
 20
71.049928165899956
 30
0.0
 40
0.5
 50
90.0
 51
180.0
  0
ARC
  5
2928
  8
0
 10
32.000000000000007
 20
50.049928165899964
 30
0.0
 40
0.5
 50
180.0
 51
270.0
  0
ARC
  5
2929
  8
5
 10
28.500000000000011
 20
50.049928165899964
 30
0.0
 40
0.5
 50
180.0
 51
270.0
  0
ARC
  5
292A
  8
5
 10
28.500000000000011
 20
71.049928165899956
 30
0.0
 40
0.5
 50
90.0
 51
180.0
  0
LINE
  5
292B
  8
0
 10
33.300000000000011
 20
71.549928165899956
 30
0.0
 11
33.300000000000011
 21
49.549928165899949
 31
0.0
  0
LINE
  5
292C
  8
5
 10
29.800000000000011
 20
71.549928165899956
 30
0.0
 11
29.800000000000011
 21
49.549928165899964
 31
0.0
  0
LINE
  5
29FE
  8
2
 10
60.499999839804147
 20
49.549928165899964
 30
0.0
 11
60.499999839804147
 21
63.64992613339998
 31
0.0
  0
LINE
  5
29FF
  8
2
 10
59.552999839804158
 20
49.549928165899971
 30
0.0
 11
59.552999839804201
 21
58.399926133399973
 31
0.0
  0
LINE
  5
2A00
  8
2
 10
49.446999839804157
 20
47.549928277700033
 30
0.0
 11
49.446999839804079
 21
30.000000000000011
 31
0.0
  0
LINE
  5
2A01
  8
2
 10
48.499999839804211
 20
49.549928165899964
 30
0.0
 11
48.499999839804211
 21
63.64992613339998
 31
0.0
  0
LINE
  5
2A02
  8
2
 10
134.55299997939991
 20
49.549928165999937
 30
0.0
 11
134.5529999794
 21
58.39992613349996
 31
0.0
  0
LINE
  5
2A03
  8
2
 10
124.44699997939991
 20
47.549928277800007
 30
0.0
 11
124.44699997939981
 21
30.000000000000011
 31
0.0
  0
LINE
  5
2A04
  8
2
 10
123.4999999793999
 20
49.549928165999951
 30
0.0
 11
123.4999999793999
 21
63.64992613349996
 31
0.0
  0
LINE
  5
2A4C
  8
2
 10
135.49999997939989
 20
49.549928165999951
 30
0.0
 11
135.49999997939989
 21
63.64992613349996
 31
0.0
  0
ENDSEC
  0
EOF
