  0
SECTION
  2
HEADER
  9
$ACADVER
  1
AC1009
  9
$INSBASE
 10
0.0
 20
0.0
 30
0.0
  9
$EXTMIN
 10
0.0
 20
-2.960436562073669
 30
0.0
  9
$EXTMAX
 10
145.0000008056048
 20
149.94992877479999
 30
0.0
  9
$LIMMIN
 10
0.0
 20
0.0
  9
$LIMMAX
 10
375.0
 20
270.0
  9
$ORTHOMODE
 70
     1
  9
$REGENMODE
 70
     1
  9
$FILLMODE
 70
     1
  9
$QTEXTMODE
 70
     0
  9
$MIRRTEXT
 70
     0
  9
$DRAGMODE
 70
     2
  9
$LTSCALE
 40
10.0
  9
$OSMODE
 70
    37
  9
$ATTMODE
 70
     1
  9
$TEXTSIZE
 40
0.2
  9
$TRACEWID
 40
0.05
  9
$TEXTSTYLE
  7
STANDARD
  9
$CLAYER
  8
0
  9
$CELTYPE
  6
BYLAYER
  9
$CECOLOR
 62
   256
  9
$DIMSCALE
 40
1.0
  9
$DIMASZ
 40
3.0
  9
$DIMEXO
 40
1.0
  9
$DIMDLI
 40
6.0
  9
$DIMRND
 40
0.0
  9
$DIMDLE
 40
0.0
  9
$DIMEXE
 40
1.0
  9
$DIMTP
 40
495.0
  9
$DIMTM
 40
0.0
  9
$DIMTXT
 40
3.0
  9
$DIMCEN
 40
0.0
  9
$DIMTSZ
 40
0.0
  9
$DIMTOL
 70
     0
  9
$DIMLIM
 70
     0
  9
$DIMTIH
 70
     0
  9
$DIMTOH
 70
     0
  9
$DIMSE1
 70
     0
  9
$DIMSE2
 70
     0
  9
$DIMTAD
 70
     1
  9
$DIMZIN
 70
     0
  9
$DIMBLK
  1

  9
$DIMASO
 70
     0
  9
$DIMSHO
 70
     0
  9
$DIMPOST
  1

  9
$DIMAPOST
  1

  9
$DIMALT
 70
     0
  9
$DIMALTD
 70
     2
  9
$DIMALTF
 40
25.399999999999999
  9
$DIMLFAC
 40
1.0
  9
$DIMTOFL
 70
     1
  9
$DIMTVP
 40
0.0
  9
$DIMTIX
 70
     1
  9
$DIMSOXD
 70
     0
  9
$DIMSAH
 70
     0
  9
$DIMBLK1
  1

  9
$DIMBLK2
  1

  9
$DIMSTYLE
  2
STANDARD
  9
$DIMCLRD
 70
     0
  9
$DIMCLRE
 70
     0
  9
$DIMCLRT
 70
     0
  9
$DIMTFAC
 40
1.0
  9
$DIMGAP
 40
0.09
  9
$LUNITS
 70
     2
  9
$LUPREC
 70
     2
  9
$SKETCHINC
 40
0.1
  9
$FILLETRAD
 40
0.5
  9
$AUNITS
 70
     0
  9
$AUPREC
 70
     2
  9
$MENU
  1
E:\r13\win\SUPPORT\ACAD
  9
$ELEVATION
 40
0.0
  9
$PELEVATION
 40
0.0
  9
$THICKNESS
 40
0.0
  9
$LIMCHECK
 70
     0
  9
$BLIPMODE
 70
     0
  9
$CHAMFERA
 40
0.0
  9
$CHAMFERB
 40
0.0
  9
$SKPOLY
 70
     0
  9
$TDCREATE
 40
2449840.3442129628
  9
$TDUPDATE
 40
2457711.39856485
  9
$TDINDWG
 40
0.0476986574
  9
$TDUSRTIMER
 40
0.0476986574
  9
$USRTIMER
 70
     1
  9
$ANGBASE
 50
0.0
  9
$ANGDIR
 70
     0
  9
$PDMODE
 70
     0
  9
$PDSIZE
 40
0.0
  9
$PLINEWID
 40
0.0
  9
$COORDS
 70
     1
  9
$SPLFRAME
 70
     0
  9
$SPLINETYPE
 70
     6
  9
$SPLINESEGS
 70
     8
  9
$ATTDIA
 70
     0
  9
$ATTREQ
 70
     1
  9
$HANDLING
 70
     1
  9
$HANDSEED
  5
1650
  9
$SURFTAB1
 70
     6
  9
$SURFTAB2
 70
     6
  9
$SURFTYPE
 70
     6
  9
$SURFU
 70
     6
  9
$SURFV
 70
     6
  9
$UCSNAME
  2

  9
$UCSORG
 10
0.0
 20
0.0
 30
0.0
  9
$UCSXDIR
 10
1.0
 20
0.0
 30
0.0
  9
$UCSYDIR
 10
0.0
 20
1.0
 30
0.0
  9
$PUCSNAME
  2

  9
$PUCSORG
 10
0.0
 20
0.0
 30
0.0
  9
$PUCSXDIR
 10
1.0
 20
0.0
 30
0.0
  9
$PUCSYDIR
 10
0.0
 20
1.0
 30
0.0
  9
$USERI1
 70
     3
  9
$USERI2
 70
     1
  9
$USERI3
 70
     0
  9
$USERI4
 70
     1
  9
$USERI5
 70
     0
  9
$USERR1
 40
1.0
  9
$USERR2
 40
3.0
  9
$USERR3
 40
3.0
  9
$USERR4
 40
3.0
  9
$USERR5
 40
10.0
  9
$WORLDVIEW
 70
     1
  9
$SHADEDGE
 70
     3
  9
$SHADEDIF
 70
    70
  9
$TILEMODE
 70
     1
  9
$MAXACTVP
 70
    16
  9
$PLIMCHECK
 70
     0
  9
$PEXTMIN
 10
1.0000000000000000E+020
 20
1.0000000000000000E+020
 30
1.0000000000000000E+020
  9
$PEXTMAX
 10
-1.0000000000000000E+020
 20
-1.0000000000000000E+020
 30
-1.0000000000000000E+020
  9
$PLIMMIN
 10
0.0
 20
0.0
  9
$PLIMMAX
 10
12.0
 20
9.0
  9
$UNITMODE
 70
     0
  9
$VISRETAIN
 70
     0
  9
$PLINEGEN
 70
     0
  9
$PSLTSCALE
 70
     0
  0
ENDSEC
  0
SECTION
  2
TABLES
  0
TABLE
  2
VPORT
 70
     1
  0
VPORT
  2
*ACTIVE
 70
     0
 10
0.0
 20
0.0
 11
1.0
 21
1.0
 12
114.9166614609821
 22
73.495477201470351
 13
0.0
 23
0.0
 14
1.0
 24
1.0
 15
10.0
 25
10.0
 16
0.0
 26
0.0
 36
1.0
 17
0.0
 27
0.0
 37
0.0
 40
154.18860232952599
 41
1.816239316239316
 42
50.0
 43
0.0
 44
0.0
 50
0.0
 51
0.0
 71
     0
 72
   100
 73
     1
 74
     0
 75
     0
 76
     0
 77
     0
 78
     0
  0
ENDTAB
  0
TABLE
  2
LTYPE
 70
     5
  0
LTYPE
  2
CONTINUOUS
 70
     0
  3
Solid Line
 72
    65
 73
     0
 40
0.0
  0
LTYPE
  2
CENTER
 70
     0
  3
____ _ ____ _ ____ _ ____ _ ____ _ ____ _ ____
 72
    65
 73
     4
 40
2.0
 49
1.25
 49
-0.25
 49
0.25
 49
-0.25
  0
LTYPE
  2
PHANTOM
 70
     0
  3
_____ _ _ _____ _ _ _____ _ _ _____ _ _ ____
 72
    65
 73
     6
 40
2.5
 49
1.25
 49
-0.25
 49
0.25
 49
-0.25
 49
0.25
 49
-0.25
  0
LTYPE
  2
PHANTOM2
 70
     0
  3
Phantom (.5x) ___ _ _ ___ _ _ ___ _ _ ___ _ _
 72
    65
 73
     6
 40
1.25
 49
0.625
 49
-0.125
 49
0.125
 49
-0.125
 49
0.125
 49
-0.125
  0
LTYPE
  2
HIDDEN
 70
     0
  3
_ _ _ _ _ _ _ _ _ _ _ _ _ _ _ _ _ _ _ _ _ _ _
 72
    65
 73
     2
 40
0.375
 49
0.25
 49
-0.125
  0
ENDTAB
  0
TABLE
  2
LAYER
 70
     4
  0
LAYER
  2
0
 70
     0
 62
     7
  6
CONTINUOUS
  0
LAYER
  2
1
 70
     0
 62
     1
  6
CENTER
  0
LAYER
  2
3
 70
     0
 62
     3
  6
CONTINUOUS
  0
LAYER
  2
2
 70
     0
 62
     2
  6
HIDDEN
  0
ENDTAB
  0
TABLE
  2
STYLE
 70
     2
  0
STYLE
  2
STANDARD
 70
     0
 40
0.0
 41
1.0
 50
0.0
 71
     0
 42
0.2
  3
TXT
  4
BIGFONT
  0
STYLE
  2
STANDARD1
 70
     0
 40
0.0
 41
1.0
 50
0.0
 71
     0
 42
3.0
  3
txt
  4

  0
ENDTAB
  0
TABLE
  2
VIEW
 70
     0
  0
ENDTAB
  0
TABLE
  2
UCS
 70
     0
  0
ENDTAB
  0
TABLE
  2
APPID
 70
     4
  0
APPID
  2
ACAD
 70
     0
  0
APPID
  2
ACAD_MLEADERVER
 70
     0
  0
APPID
  2
ACAD_EXEMPT_FROM_CAD_STANDARDS
 70
     0
  0
APPID
  2
ACAD_NAV_VCDISPLAY
 70
     0
  0
ENDTAB
  0
TABLE
  2
DIMSTYLE
 70
     2
  0
DIMSTYLE
  2
STANDARD
 70
     0
  3

  4

  5

  6

  7

 40
1.0
 41
0.18
 42
0.0625
 43
0.38
 44
0.18
 45
0.0
 46
0.0
 47
0.0
 48
0.0
140
0.18
141
0.09
142
0.0
143
25.399999999999999
144
1.0
145
0.0
146
1.0
147
0.09
 71
     0
 72
     0
 73
     1
 74
     1
 75
     0
 76
     0
 77
     0
 78
     0
170
     0
171
     2
172
     0
173
     0
174
     0
175
     0
176
     0
177
     0
178
     0
  0
DIMSTYLE
  2
ISO-25
 70
     0
  3

  4

  5

  6

  7

 40
1.0
 41
2.5
 42
0.625
 43
3.75
 44
1.25
 45
0.0
 46
0.0
 47
0.0
 48
0.0
140
2.5
141
2.5
142
0.0
143
0.0393700787
144
1.0
145
0.0
146
1.0
147
0.625
 71
     0
 72
     0
 73
     0
 74
     0
 75
     0
 76
     0
 77
     1
 78
     8
170
     0
171
     3
172
     1
173
     0
174
     0
175
     0
176
     0
177
     0
178
     0
  0
ENDTAB
  0
ENDSEC
  0
SECTION
  2
BLOCKS
  0
BLOCK
  8
0
  2
$MODEL_SPACE
 70
     0
 10
0.0
 20
0.0
 30
0.0
  3
$MODEL_SPACE
  1

  0
ENDBLK
  5
614
  8
0
  0
BLOCK
 67
     1
  8
0
  2
$PAPER_SPACE
 70
     0
 10
0.0
 20
0.0
 30
0.0
  3
$PAPER_SPACE
  1

  0
ENDBLK
  5
612
 67
     1
  8
0
  0
BLOCK
  8
0
  2
BBB
 70
     0
 10
0.0
 20
0.0
 30
0.0
  3
BBB
  1

  0
LINE
  5
2B
  8
0
 10
-16.347819000000001
 20
4.5612009999999996
 30
0.0
 11
-15.632993000000001
 21
5.9000000000000004
 31
0.0
  0
LINE
  5
2C
  8
0
 10
-16.309011999999999
 20
3.7145320000000002
 30
0.0
 11
-15.596173
 21
5.0496089999999993
 31
0.0
  0
LINE
  5
2D
  8
0
 10
-15.163779
 20
4.6844320000000002
 30
0.0
 11
-14.514749
 21
5.9000000000000004
 31
0.0
  0
LINE
  5
2E
  8
0
 10
-15.190769
 20
3.7145320000000002
 30
0.0
 11
-14.242421999999999
 21
5.4906930000000003
 31
0.0
  0
LINE
  5
2F
  8
0
 10
-13.863538999999999
 20
4.8530749999999987
 30
0.0
 11
-13.304553
 21
5.9000000000000004
 31
0.0
  0
LINE
  5
30
  8
0
 10
-13.980573
 20
3.7145320000000002
 30
0.0
 11
-13.078431999999999
 21
5.404151999999999
 31
0.0
  0
LINE
  5
31
  8
0
 10
-15.594749999999999
 20
5.8893810000000002
 30
0.0
 11
-15.598262
 21
3.8168730000000002
 31
0.0
  0
LINE
  5
32
  8
0
 10
-15.161719
 20
5.9000000000000004
 30
0.0
 11
-15.16525
 21
3.8161389999999988
 31
0.0
  0
ARC
  5
33
  8
0
 10
-15.381755999999999
 20
3.816506
 30
0.0
 40
0.216506
 50
179.90290300000001
 51
359.90290299999998
  0
ARC
  5
34
  8
0
 10
-14.171561000000001
 20
3.816506
 30
0.0
 40
0.216506
 50
175.0
 51
355.0
  0
LINE
  5
35
  8
0
 10
-13.771945000000001
 20
5.9000000000000004
 30
0.0
 11
-13.955878
 21
3.7976369999999999
 31
0.0
  0
LINE
  5
36
  8
0
 10
-14.206612
 20
5.9000000000000004
 30
0.0
 11
-14.387243
 21
3.8353760000000001
 31
0.0
  0
ARC
  5
37
  8
0
 10
-13.0
 20
3.816506
 30
0.0
 40
0.216506
 50
175.0
 51
355.0
  0
LINE
  5
38
  8
0
 10
-12.600384999999999
 20
5.9000000000000004
 30
0.0
 11
-12.784318000000001
 21
3.7976369999999999
 31
0.0
  0
LINE
  5
39
  8
0
 10
-13.035050999999999
 20
5.9000000000000004
 30
0.0
 11
-13.215681999999999
 21
3.8353760000000001
 31
0.0
  0
LINE
  5
3A
  8
0
 10
-23.964949000000001
 20
5.9000000000000004
 30
0.0
 11
-23.784317999999999
 21
3.8353760000000001
 31
0.0
  0
LINE
  5
3B
  8
0
 10
-14.304107999999999
 20
-6.2999999999999989
 30
0.0
 11
-14.216506000000001
 21
-5.9674959999999988
 31
0.0
  0
LINE
  5
3C
  8
0
 10
-14.980409999999999
 20
-6.2999999999999989
 30
0.0
 11
-14.766506
 21
-5.4881029999999988
 31
0.0
  0
ARC
  5
3D
  8
0
 10
-14.550000000000001
 20
-3.816506
 30
0.0
 40
0.216506
 50
0.0
 51
180.0
  0
LINE
  5
3E
  8
0
 10
-14.766506
 20
-6.2999999999999989
 30
0.0
 11
-14.766506
 21
-3.816506
 31
0.0
  0
LINE
  5
3F
  8
0
 10
-14.333494
 20
-6.2999999999999989
 30
0.0
 11
-14.333494
 21
-3.816506
 31
0.0
  0
LINE
  5
40
  8
0
 10
-15.190988000000001
 20
-3.7145320000000002
 30
0.0
 11
-16.485931000000001
 21
-6.1398339999999987
 31
0.0
  0
LINE
  5
41
  8
0
 10
-15.308021
 20
-4.8530749999999987
 30
0.0
 11
-16.080579
 21
-6.2999999999999989
 31
0.0
  0
ARC
  5
42
  8
0
 10
-15.0
 20
-3.816506
 30
0.0
 40
0.216506
 50
355.0
 51
175.0
  0
LINE
  5
43
  8
0
 10
-15.434611
 20
-6.2999999999999989
 30
0.0
 11
-15.215681999999999
 21
-3.7976369999999999
 31
0.0
  0
LINE
  5
44
  8
0
 10
-14.999943999999999
 20
-6.2999999999999989
 30
0.0
 11
-14.784318000000001
 21
-3.8353760000000001
 31
0.0
  0
LINE
  5
45
  8
0
 10
-14.216506000000001
 20
-6.2999999999999989
 30
0.0
 11
-14.216506000000001
 21
-3.816506
 31
0.0
  0
LINE
  5
46
  8
0
 10
-16.499943999999999
 20
-6.2999999999999989
 30
0.0
 11
-16.284317999999999
 21
-3.8353760000000001
 31
0.0
  0
LINE
  5
47
  8
0
 10
-16.899615000000001
 20
5.9000000000000004
 30
0.0
 11
-16.715682000000001
 21
3.7976369999999999
 31
0.0
  0
ARC
  5
48
  8
0
 10
-16.5
 20
-3.816506
 30
0.0
 40
0.216506
 50
355.0
 51
175.0
  0
LINE
  5
49
  8
0
 10
-16.808021
 20
4.8530749999999987
 30
0.0
 11
-17.367007000000001
 21
5.9000000000000004
 31
0.0
  0
LINE
  5
4A
  8
0
 10
-16.690988000000001
 20
3.7145320000000002
 30
0.0
 11
-17.857876999999998
 21
5.9000000000000004
 31
0.0
  0
LINE
  5
4B
  8
0
 10
-18.399615000000001
 20
5.9000000000000004
 30
0.0
 11
-18.215682000000001
 21
3.7976369999999999
 31
0.0
  0
LINE
  5
4C
  8
0
 10
-18.308021
 20
4.8530749999999987
 30
0.0
 11
-18.867007000000001
 21
5.9000000000000004
 31
0.0
  0
LINE
  5
4D
  8
0
 10
-18.190988000000001
 20
3.7145320000000002
 30
0.0
 11
-19.357876999999998
 21
5.9000000000000004
 31
0.0
  0
ARC
  5
4E
  8
0
 10
-18.0
 20
3.816506
 30
0.0
 40
0.216506
 50
185.0
 51
5.0
  0
LINE
  5
4F
  8
0
 10
-17.964949000000001
 20
5.9000000000000004
 30
0.0
 11
-17.784317999999999
 21
3.8353760000000001
 31
0.0
  0
LINE
  5
50
  8
0
 10
-19.899615000000001
 20
5.9000000000000004
 30
0.0
 11
-19.715682000000001
 21
3.7976369999999999
 31
0.0
  0
LINE
  5
51
  8
0
 10
-19.808021
 20
4.8530749999999987
 30
0.0
 11
-20.367007000000001
 21
5.9000000000000004
 31
0.0
  0
LINE
  5
52
  8
0
 10
-19.690988000000001
 20
3.7145320000000002
 30
0.0
 11
-20.857876999999998
 21
5.9000000000000004
 31
0.0
  0
ARC
  5
53
  8
0
 10
-19.5
 20
3.816506
 30
0.0
 40
0.216506
 50
185.0
 51
5.0
  0
LINE
  5
54
  8
0
 10
-19.464949000000001
 20
5.9000000000000004
 30
0.0
 11
-19.284317999999999
 21
3.8353760000000001
 31
0.0
  0
LINE
  5
55
  8
0
 10
-21.399615000000001
 20
5.9000000000000004
 30
0.0
 11
-21.215682000000001
 21
3.7976369999999999
 31
0.0
  0
LINE
  5
56
  8
0
 10
-21.308021
 20
4.8530749999999987
 30
0.0
 11
-21.867007000000001
 21
5.9000000000000004
 31
0.0
  0
LINE
  5
57
  8
0
 10
-21.190988000000001
 20
3.7145320000000002
 30
0.0
 11
-22.357876999999998
 21
5.9000000000000004
 31
0.0
  0
ARC
  5
58
  8
0
 10
-21.0
 20
3.816506
 30
0.0
 40
0.216506
 50
185.0
 51
5.0
  0
LINE
  5
59
  8
0
 10
-20.964949000000001
 20
5.9000000000000004
 30
0.0
 11
-20.784317999999999
 21
3.8353760000000001
 31
0.0
  0
LINE
  5
5A
  8
0
 10
-22.464949000000001
 20
5.9000000000000004
 30
0.0
 11
-22.284317999999999
 21
3.8353760000000001
 31
0.0
  0
LINE
  5
5B
  8
0
 10
-22.899615000000001
 20
5.9000000000000004
 30
0.0
 11
-22.715682000000001
 21
3.7976369999999999
 31
0.0
  0
ARC
  5
5C
  8
0
 10
-22.5
 20
3.816506
 30
0.0
 40
0.216506
 50
185.0
 51
5.0
  0
LINE
  5
5D
  8
0
 10
-22.808021
 20
4.8530749999999987
 30
0.0
 11
-23.367007000000001
 21
5.9000000000000004
 31
0.0
  0
LINE
  5
5E
  8
0
 10
-22.690988000000001
 20
3.7145320000000002
 30
0.0
 11
-23.857876999999998
 21
5.9000000000000004
 31
0.0
  0
ARC
  5
5F
  8
0
 10
-24.0
 20
3.816506
 30
0.0
 40
0.216506
 50
185.0
 51
5.0
  0
LINE
  5
60
  8
0
 10
-24.434611
 20
6.2999999999999989
 30
0.0
 11
-24.215682000000001
 21
3.7976369999999999
 31
0.0
  0
ARC
  5
61
  8
0
 10
-25.5
 20
3.816506
 30
0.0
 40
0.216506
 50
185.0
 51
5.0
  0
LINE
  5
62
  8
0
 10
-25.499943999999999
 20
6.2999999999999989
 30
0.0
 11
-25.284317999999999
 21
3.8353760000000001
 31
0.0
  0
LINE
  5
63
  8
0
 10
-25.934611
 20
6.2999999999999989
 30
0.0
 11
-25.715682000000001
 21
3.7976369999999999
 31
0.0
  0
ARC
  5
64
  8
0
 10
-27.0
 20
3.816506
 30
0.0
 40
0.216506
 50
185.0
 51
5.0
  0
LINE
  5
65
  8
0
 10
-26.999943999999999
 20
6.2999999999999989
 30
0.0
 11
-26.784317999999999
 21
3.8353760000000001
 31
0.0
  0
LINE
  5
66
  8
0
 10
-27.434611
 20
6.2999999999999989
 30
0.0
 11
-27.215682000000001
 21
3.7976369999999999
 31
0.0
  0
ARC
  5
67
  8
0
 10
-33.284999999999997
 20
0.0
 30
0.0
 40
0.215
 50
90.0
 51
270.0
  0
LINE
  5
68
  8
0
 10
-31.593574
 20
-0.215
 30
0.0
 11
-33.284999999999997
 21
-0.215
 31
0.0
  0
LINE
  5
69
  8
0
 10
-31.593574
 20
0.215
 30
0.0
 11
-33.284999999999997
 21
0.215
 31
0.0
  0
LINE
  5
6A
  8
0
 10
-31.198246000000001
 20
1.6526419999999991
 30
0.0
 11
-32.901539
 21
2.2060749999999989
 31
0.0
  0
LINE
  5
6B
  8
0
 10
-31.373275
 20
1.257382999999999
 30
0.0
 11
-33.034416999999998
 21
1.7971209999999991
 31
0.0
  0
ARC
  5
6C
  8
0
 10
-32.967978000000002
 20
2.0015979999999991
 30
0.0
 40
0.215
 50
72.0
 51
252.0
  0
LINE
  5
6D
  8
0
 10
-30.278337000000001
 20
2.7873250000000001
 30
0.0
 11
-31.921569999999999
 21
3.9812050000000001
 31
0.0
  0
LINE
  5
6E
  8
0
 10
-30.600261
 20
2.4897079999999998
 30
0.0
 11
-32.174318
 21
3.6333269999999991
 31
0.0
  0
ARC
  5
6F
  8
0
 10
-32.047944000000001
 20
3.8072659999999998
 30
0.0
 40
0.215
 50
54.0
 51
234.0
  0
LINE
  5
70
  8
0
 10
-29.044895
 20
3.4450249999999989
 30
0.0
 11
-30.441020000000002
 21
5.3666260000000001
 31
0.0
  0
LINE
  5
71
  8
0
 10
-29.46321
 20
3.289226999999999
 30
0.0
 11
-30.788896999999999
 21
5.1138779999999988
 31
0.0
  0
ARC
  5
72
  8
0
 10
-30.614958000000001
 20
5.240251999999999
 30
0.0
 40
0.215
 50
36.0
 51
216.0
  0
LINE
  5
73
  8
0
 10
-28.001322999999999
 20
3.7582049999999998
 30
0.0
 11
-28.764595
 21
6.1073149999999989
 31
0.0
  0
LINE
  5
74
  8
0
 10
-28.410277000000001
 20
3.6253279999999992
 30
0.0
 11
-29.173549000000001
 21
5.9744380000000001
 31
0.0
  0
ARC
  5
75
  8
0
 10
-28.969072000000001
 20
6.040875999999999
 30
0.0
 40
0.215
 50
18.0
 51
198.0
  0
ARC
  5
76
  8
0
 10
-28.2058
 20
3.691767
 30
0.0
 40
0.215
 50
198.0
 51
211.652694
  0
ARC
  5
77
  8
0
 10
-27.215627000000001
 20
6.2811300000000001
 30
0.0
 40
0.216506
 50
5.0
 51
185.0
  0
ARC
  5
78
  8
0
 10
-25.715627000000001
 20
6.2811300000000001
 30
0.0
 40
0.216506
 50
5.0
 51
185.0
  0
ARC
  5
79
  8
0
 10
-24.215627000000001
 20
6.2811300000000001
 30
0.0
 40
0.216506
 50
85.855304000000004
 51
185.0
  0
LINE
  5
7A
  8
0
 10
-24.286496
 20
4.607041999999999
 30
0.0
 11
-25.537932999999999
 21
6.4048230000000004
 31
0.0
  0
LINE
  5
7B
  8
0
 10
-24.177693999999999
 20
3.6928139999999989
 30
0.0
 11
-25.429130000000001
 21
5.4905939999999998
 31
0.0
  0
LINE
  5
7C
  8
0
 10
-25.677693999999999
 20
3.6928139999999989
 30
0.0
 11
-26.929130000000001
 21
5.4905939999999998
 31
0.0
  0
LINE
  5
7D
  8
0
 10
-25.786496
 20
4.607041999999999
 30
0.0
 11
-27.037932999999999
 21
6.4048230000000004
 31
0.0
  0
LINE
  5
7E
  8
0
 10
-27.162113000000002
 20
3.672998999999999
 30
0.0
 11
-28.444237000000001
 21
5.1213559999999987
 31
0.0
  0
LINE
  5
7F
  8
0
 10
-27.272880000000001
 20
4.4514050000000003
 30
0.0
 11
-28.806958999999999
 21
6.1843830000000004
 31
0.0
  0
LINE
  5
80
  8
0
 10
-28.424396000000002
 20
3.5748969999999991
 30
0.0
 11
-29.765552
 21
4.4369249999999987
 31
0.0
  0
LINE
  5
81
  8
0
 10
-28.597238000000001
 20
4.200734999999999
 30
0.0
 11
-30.497895
 21
5.4223809999999988
 31
0.0
  0
LINE
  5
82
  8
0
 10
-29.762816000000001
 20
3.1388660000000002
 30
0.0
 11
-31.131270000000001
 21
3.407017999999999
 31
0.0
  0
LINE
  5
83
  8
0
 10
-29.6599
 20
3.5599470000000002
 30
0.0
 11
-32.006310999999997
 21
4.0197320000000003
 31
0.0
  0
LINE
  5
84
  8
0
 10
-30.976490999999999
 20
2.0249700000000002
 30
0.0
 11
-31.972486
 21
1.9042069999999991
 31
0.0
  0
LINE
  5
85
  8
0
 10
-30.620387000000001
 20
2.5043299999999991
 30
0.0
 11
-32.994038000000003
 21
2.2165300000000001
 31
0.0
  0
LINE
  5
86
  8
0
 10
-31.555451000000001
 20
0.564596
 30
0.0
 11
-32.308135
 21
0.215
 31
0.0
  0
LINE
  5
87
  8
0
 10
-31.427332
 20
1.1015429999999991
 30
0.0
 11
-33.376201999999999
 21
0.19636
 31
0.0
  0
ARC
  5
88
  8
0
 10
-28.2058
 20
3.691767
 30
0.0
 40
0.215
 50
334.72868
 51
18.0
  0
ARC
  5
89
  8
0
 10
-28.2058
 20
-3.691767
 30
0.0
 40
0.215
 50
342.0
 51
25.271319999999999
  0
LINE
  5
8A
  8
0
 10
-31.427332
 20
-1.1015429999999991
 30
0.0
 11
-33.376201999999999
 21
-0.19636
 31
0.0
  0
LINE
  5
8B
  8
0
 10
-31.555451000000001
 20
-0.564596
 30
0.0
 11
-32.308135
 21
-0.215
 31
0.0
  0
LINE
  5
8C
  8
0
 10
-30.620387000000001
 20
-2.5043299999999991
 30
0.0
 11
-32.994038000000003
 21
-2.2165300000000001
 31
0.0
  0
LINE
  5
8D
  8
0
 10
-30.976490999999999
 20
-2.0249700000000002
 30
0.0
 11
-31.972486
 21
-1.9042069999999991
 31
0.0
  0
LINE
  5
8E
  8
0
 10
-29.6599
 20
-3.5599470000000002
 30
0.0
 11
-32.006310999999997
 21
-4.0197320000000003
 31
0.0
  0
LINE
  5
8F
  8
0
 10
-29.762816000000001
 20
-3.1388660000000002
 30
0.0
 11
-31.131270000000001
 21
-3.407017999999999
 31
0.0
  0
LINE
  5
90
  8
0
 10
-28.597238000000001
 20
-4.200734999999999
 30
0.0
 11
-30.497895
 21
-5.4223809999999988
 31
0.0
  0
LINE
  5
91
  8
0
 10
-28.424396000000002
 20
-3.5748969999999991
 30
0.0
 11
-29.765552
 21
-4.4369249999999987
 31
0.0
  0
LINE
  5
92
  8
0
 10
-27.272880000000001
 20
-4.4514050000000003
 30
0.0
 11
-28.806958999999999
 21
-6.1843830000000004
 31
0.0
  0
LINE
  5
93
  8
0
 10
-27.162113000000002
 20
-3.672998999999999
 30
0.0
 11
-28.444237000000001
 21
-5.1213559999999987
 31
0.0
  0
LINE
  5
94
  8
0
 10
-25.786496
 20
-4.607041999999999
 30
0.0
 11
-27.037932999999999
 21
-6.4048230000000004
 31
0.0
  0
LINE
  5
95
  8
0
 10
-25.677693999999999
 20
-3.6928139999999989
 30
0.0
 11
-26.929130000000001
 21
-5.4905939999999998
 31
0.0
  0
LINE
  5
96
  8
0
 10
-24.177693999999999
 20
-3.6928139999999989
 30
0.0
 11
-25.429130000000001
 21
-5.4905939999999998
 31
0.0
  0
LINE
  5
97
  8
0
 10
-24.286496
 20
-4.607041999999999
 30
0.0
 11
-25.537932999999999
 21
-6.4048230000000004
 31
0.0
  0
ARC
  5
98
  8
0
 10
-24.215627000000001
 20
-6.2811300000000001
 30
0.0
 40
0.216506
 50
175.0
 51
274.139002
  0
ARC
  5
99
  8
0
 10
-25.715627000000001
 20
-6.2811300000000001
 30
0.0
 40
0.216506
 50
175.0
 51
355.0
  0
ARC
  5
9A
  8
0
 10
-27.215627000000001
 20
-6.2811300000000001
 30
0.0
 40
0.216506
 50
175.0
 51
355.0
  0
ARC
  5
9B
  8
0
 10
-28.2058
 20
-3.691767
 30
0.0
 40
0.215
 50
148.347306
 51
162.0
  0
ARC
  5
9C
  8
0
 10
-28.969072000000001
 20
-6.040875999999999
 30
0.0
 40
0.215
 50
162.0
 51
342.0
  0
LINE
  5
9D
  8
0
 10
-28.410277000000001
 20
-3.6253279999999992
 30
0.0
 11
-29.173549000000001
 21
-5.9744380000000001
 31
0.0
  0
LINE
  5
9E
  8
0
 10
-28.001322999999999
 20
-3.7582049999999998
 30
0.0
 11
-28.764595
 21
-6.1073149999999989
 31
0.0
  0
ARC
  5
9F
  8
0
 10
-30.614958000000001
 20
-5.240251999999999
 30
0.0
 40
0.215
 50
144.0
 51
324.0
  0
LINE
  5
A0
  8
0
 10
-29.46321
 20
-3.289226999999999
 30
0.0
 11
-30.788896999999999
 21
-5.1138779999999988
 31
0.0
  0
LINE
  5
A1
  8
0
 10
-29.044895
 20
-3.4450249999999989
 30
0.0
 11
-30.441020000000002
 21
-5.3666260000000001
 31
0.0
  0
ARC
  5
A2
  8
0
 10
-32.047944000000001
 20
-3.8072659999999998
 30
0.0
 40
0.215
 50
126.0
 51
306.0
  0
LINE
  5
A3
  8
0
 10
-30.600261
 20
-2.4897079999999998
 30
0.0
 11
-32.174318
 21
-3.6333269999999991
 31
0.0
  0
LINE
  5
A4
  8
0
 10
-30.278337000000001
 20
-2.7873250000000001
 30
0.0
 11
-31.921569999999999
 21
-3.9812050000000001
 31
0.0
  0
ARC
  5
A5
  8
0
 10
-32.967978000000002
 20
-2.0015979999999991
 30
0.0
 40
0.215
 50
108.0
 51
288.0
  0
LINE
  5
A6
  8
0
 10
-31.373275
 20
-1.257382999999999
 30
0.0
 11
-33.034416999999998
 21
-1.7971209999999991
 31
0.0
  0
LINE
  5
A7
  8
0
 10
-31.198246000000001
 20
-1.6526419999999991
 30
0.0
 11
-32.901539
 21
-2.2060749999999989
 31
0.0
  0
LINE
  5
A8
  8
0
 10
-31.593574
 20
-0.215
 30
0.0
 11
-33.284999999999997
 21
-0.215
 31
0.0
  0
LINE
  5
A9
  8
0
 10
-31.593574
 20
0.215
 30
0.0
 11
-33.284999999999997
 21
0.215
 31
0.0
  0
ARC
  5
AA
  8
0
 10
-33.284999999999997
 20
0.0
 30
0.0
 40
0.215
 50
90.0
 51
270.0
  0
LINE
  5
AB
  8
0
 10
-27.434611
 20
-6.2999999999999989
 30
0.0
 11
-27.215682000000001
 21
-3.7976369999999999
 31
0.0
  0
LINE
  5
AC
  8
0
 10
-26.999943999999999
 20
-6.2999999999999989
 30
0.0
 11
-26.784317999999999
 21
-3.8353760000000001
 31
0.0
  0
ARC
  5
AD
  8
0
 10
-27.0
 20
-3.816506
 30
0.0
 40
0.216506
 50
355.0
 51
175.0
  0
LINE
  5
AE
  8
0
 10
-25.934611
 20
-6.2999999999999989
 30
0.0
 11
-25.715682000000001
 21
-3.7976369999999999
 31
0.0
  0
LINE
  5
AF
  8
0
 10
-25.499943999999999
 20
-6.2999999999999989
 30
0.0
 11
-25.284317999999999
 21
-3.8353760000000001
 31
0.0
  0
ARC
  5
B0
  8
0
 10
-25.5
 20
-3.816506
 30
0.0
 40
0.216506
 50
355.0
 51
175.0
  0
LINE
  5
B1
  8
0
 10
-24.434611
 20
-6.2999999999999989
 30
0.0
 11
-24.215682000000001
 21
-3.7976369999999999
 31
0.0
  0
LINE
  5
B2
  8
0
 10
-23.999943999999999
 20
-6.2999999999999989
 30
0.0
 11
-23.784317999999999
 21
-3.8353760000000001
 31
0.0
  0
ARC
  5
B3
  8
0
 10
-24.0
 20
-3.816506
 30
0.0
 40
0.216506
 50
355.0
 51
175.0
  0
LINE
  5
B4
  8
0
 10
-22.690988000000001
 20
-3.7145320000000002
 30
0.0
 11
-23.985931000000001
 21
-6.1398339999999987
 31
0.0
  0
LINE
  5
B5
  8
0
 10
-22.808021
 20
-4.8530749999999987
 30
0.0
 11
-23.580579
 21
-6.2999999999999989
 31
0.0
  0
ARC
  5
B6
  8
0
 10
-22.5
 20
-3.816506
 30
0.0
 40
0.216506
 50
355.0
 51
175.0
  0
LINE
  5
B7
  8
0
 10
-22.934611
 20
-6.2999999999999989
 30
0.0
 11
-22.715682000000001
 21
-3.7976369999999999
 31
0.0
  0
LINE
  5
B8
  8
0
 10
-22.499943999999999
 20
-6.2999999999999989
 30
0.0
 11
-22.284317999999999
 21
-3.8353760000000001
 31
0.0
  0
LINE
  5
B9
  8
0
 10
-20.999943999999999
 20
-6.2999999999999989
 30
0.0
 11
-20.784317999999999
 21
-3.8353760000000001
 31
0.0
  0
ARC
  5
BA
  8
0
 10
-21.0
 20
-3.816506
 30
0.0
 40
0.216506
 50
355.0
 51
175.0
  0
LINE
  5
BB
  8
0
 10
-21.190988000000001
 20
-3.7145320000000002
 30
0.0
 11
-22.485931000000001
 21
-6.1398339999999987
 31
0.0
  0
LINE
  5
BC
  8
0
 10
-21.308021
 20
-4.8530749999999987
 30
0.0
 11
-22.080579
 21
-6.2999999999999989
 31
0.0
  0
LINE
  5
BD
  8
0
 10
-21.434611
 20
-6.2999999999999989
 30
0.0
 11
-21.215682000000001
 21
-3.7976369999999999
 31
0.0
  0
LINE
  5
BE
  8
0
 10
-19.499943999999999
 20
-6.2999999999999989
 30
0.0
 11
-19.284317999999999
 21
-3.8353760000000001
 31
0.0
  0
ARC
  5
BF
  8
0
 10
-19.5
 20
-3.816506
 30
0.0
 40
0.216506
 50
355.0
 51
175.0
  0
LINE
  5
C0
  8
0
 10
-19.690988000000001
 20
-3.7145320000000002
 30
0.0
 11
-20.985931000000001
 21
-6.1398339999999987
 31
0.0
  0
LINE
  5
C1
  8
0
 10
-19.808021
 20
-4.8530749999999987
 30
0.0
 11
-20.580579
 21
-6.2999999999999989
 31
0.0
  0
LINE
  5
C2
  8
0
 10
-19.934611
 20
-6.2999999999999989
 30
0.0
 11
-19.715682000000001
 21
-3.7976369999999999
 31
0.0
  0
LINE
  5
C3
  8
0
 10
-17.999943999999999
 20
-6.2999999999999989
 30
0.0
 11
-17.784317999999999
 21
-3.8353760000000001
 31
0.0
  0
ARC
  5
C4
  8
0
 10
-18.0
 20
-3.816506
 30
0.0
 40
0.216506
 50
355.0
 51
175.0
  0
LINE
  5
C5
  8
0
 10
-18.190988000000001
 20
-3.7145320000000002
 30
0.0
 11
-19.485931000000001
 21
-6.1398339999999987
 31
0.0
  0
LINE
  5
C6
  8
0
 10
-18.308021
 20
-4.8530749999999987
 30
0.0
 11
-19.080579
 21
-6.2999999999999989
 31
0.0
  0
LINE
  5
C7
  8
0
 10
-18.434611
 20
-6.2999999999999989
 30
0.0
 11
-18.215682000000001
 21
-3.7976369999999999
 31
0.0
  0
LINE
  5
C8
  8
0
 10
-16.690988000000001
 20
-3.7145320000000002
 30
0.0
 11
-17.985931000000001
 21
-6.1398339999999987
 31
0.0
  0
LINE
  5
C9
  8
0
 10
-16.808021
 20
-4.8530749999999987
 30
0.0
 11
-17.580579
 21
-6.2999999999999989
 31
0.0
  0
ARC
  5
CA
  8
0
 10
-16.5
 20
3.816506
 30
0.0
 40
0.216506
 50
185.0
 51
5.0
  0
LINE
  5
CB
  8
0
 10
-16.934611
 20
-6.2999999999999989
 30
0.0
 11
-16.715682000000001
 21
-3.7976369999999999
 31
0.0
  0
LINE
  5
CC
  8
0
 10
-16.464949000000001
 20
5.9000000000000004
 30
0.0
 11
-16.284317999999999
 21
3.8353760000000001
 31
0.0
  0
LINE
  5
CD
  8
0
 10
-12.809011999999999
 20
3.7145320000000002
 30
0.0
 11
-11.642123
 21
5.9000000000000004
 31
0.0
  0
LINE
  5
CE
  8
0
 10
-12.691979
 20
4.8530749999999987
 30
0.0
 11
-12.132993000000001
 21
5.9000000000000004
 31
0.0
  0
LINE
  5
CF
  8
0
 10
-11.535050999999999
 20
5.9000000000000004
 30
0.0
 11
-11.715681999999999
 21
3.8353760000000001
 31
0.0
  0
LINE
  5
D0
  8
0
 10
-11.100384999999999
 20
5.9000000000000004
 30
0.0
 11
-11.284318000000001
 21
3.7976369999999999
 31
0.0
  0
ARC
  5
D1
  8
0
 10
-11.5
 20
3.816506
 30
0.0
 40
0.216506
 50
175.0
 51
355.0
  0
LINE
  5
D2
  8
0
 10
-11.191979
 20
4.8530749999999987
 30
0.0
 11
-10.632993000000001
 21
5.9000000000000004
 31
0.0
  0
LINE
  5
D3
  8
0
 10
-11.309011999999999
 20
3.7145320000000002
 30
0.0
 11
-10.142123
 21
5.9000000000000004
 31
0.0
  0
LINE
  5
D4
  8
0
 10
-9.6003850000000011
 20
5.9000000000000004
 30
0.0
 11
-9.7843179999999972
 21
3.7976369999999999
 31
0.0
  0
LINE
  5
D5
  8
0
 10
-9.6919789999999981
 20
4.8530749999999987
 30
0.0
 11
-9.132992999999999
 21
5.9000000000000004
 31
0.0
  0
LINE
  5
D6
  8
0
 10
-9.8090119999999992
 20
3.7145320000000002
 30
0.0
 11
-8.6421229999999998
 21
5.9000000000000004
 31
0.0
  0
ARC
  5
D7
  8
0
 10
-10.0
 20
3.816506
 30
0.0
 40
0.216506
 50
175.0
 51
355.0
  0
LINE
  5
D8
  8
0
 10
-10.035050999999999
 20
5.9000000000000004
 30
0.0
 11
-10.215681999999999
 21
3.8353760000000001
 31
0.0
  0
LINE
  5
D9
  8
0
 10
-8.1003850000000011
 20
5.9000000000000004
 30
0.0
 11
-8.2843179999999972
 21
3.7976369999999999
 31
0.0
  0
LINE
  5
DA
  8
0
 10
-8.1919789999999981
 20
4.8530749999999987
 30
0.0
 11
-7.632992999999999
 21
5.9000000000000004
 31
0.0
  0
LINE
  5
DB
  8
0
 10
-8.3090119999999992
 20
3.7145320000000002
 30
0.0
 11
-7.1421229999999989
 21
5.9000000000000004
 31
0.0
  0
ARC
  5
DC
  8
0
 10
-8.5
 20
3.816506
 30
0.0
 40
0.216506
 50
175.0
 51
355.0
  0
LINE
  5
DD
  8
0
 10
-8.5350509999999993
 20
5.9000000000000004
 30
0.0
 11
-8.715682000000001
 21
3.8353760000000001
 31
0.0
  0
LINE
  5
DE
  8
0
 10
-6.6003850000000002
 20
5.9000000000000004
 30
0.0
 11
-6.7843179999999981
 21
3.7976369999999999
 31
0.0
  0
LINE
  5
DF
  8
0
 10
-6.691978999999999
 20
4.8530749999999987
 30
0.0
 11
-6.132992999999999
 21
5.9000000000000004
 31
0.0
  0
LINE
  5
E0
  8
0
 10
-6.8090119999999992
 20
3.7145320000000002
 30
0.0
 11
-5.6421229999999998
 21
5.9000000000000004
 31
0.0
  0
ARC
  5
E1
  8
0
 10
-7.0
 20
3.816506
 30
0.0
 40
0.216506
 50
175.0
 51
355.0
  0
LINE
  5
E2
  8
0
 10
-7.0350509999999993
 20
5.9000000000000004
 30
0.0
 11
-7.215682000000001
 21
3.8353760000000001
 31
0.0
  0
LINE
  5
E3
  8
0
 10
-5.5350510000000002
 20
5.9000000000000004
 30
0.0
 11
-5.7156820000000002
 21
3.8353760000000001
 31
0.0
  0
LINE
  5
E4
  8
0
 10
-5.1003850000000002
 20
5.9000000000000004
 30
0.0
 11
-5.284317999999999
 21
3.7976369999999999
 31
0.0
  0
ARC
  5
E5
  8
0
 10
-5.5
 20
3.816506
 30
0.0
 40
0.216506
 50
175.0
 51
355.0
  0
LINE
  5
E6
  8
0
 10
-5.191978999999999
 20
4.8530749999999987
 30
0.0
 11
-4.632992999999999
 21
5.9000000000000004
 31
0.0
  0
LINE
  5
E7
  8
0
 10
-5.3090120000000001
 20
3.7145320000000002
 30
0.0
 11
-4.1421229999999998
 21
5.9000000000000004
 31
0.0
  0
ARC
  5
E8
  8
0
 10
-4.0
 20
3.816506
 30
0.0
 40
0.216506
 50
175.0
 51
355.0
  0
LINE
  5
E9
  8
0
 10
-4.0350510000000002
 20
5.9000000000000004
 30
0.0
 11
-4.2156820000000002
 21
3.8353760000000001
 31
0.0
  0
LINE
  5
EA
  8
0
 10
-3.5653890000000001
 20
6.2999999999999989
 30
0.0
 11
-3.784317999999999
 21
3.7976369999999999
 31
0.0
  0
ARC
  5
EB
  8
0
 10
-2.5
 20
3.816506
 30
0.0
 40
0.216506
 50
175.0
 51
355.0
  0
LINE
  5
EC
  8
0
 10
-2.5000559999999998
 20
6.2999999999999989
 30
0.0
 11
-2.7156820000000002
 21
3.8353760000000001
 31
0.0
  0
LINE
  5
ED
  8
0
 10
-2.0653890000000001
 20
6.2999999999999989
 30
0.0
 11
-2.284317999999999
 21
3.7976369999999999
 31
0.0
  0
ARC
  5
EE
  8
0
 10
-1.0
 20
3.816506
 30
0.0
 40
0.216506
 50
175.0
 51
355.0
  0
LINE
  5
EF
  8
0
 10
-1.0000560000000001
 20
6.2999999999999989
 30
0.0
 11
-1.215681999999999
 21
3.8353760000000001
 31
0.0
  0
LINE
  5
F0
  8
0
 10
-0.5653890000000001
 20
6.2999999999999989
 30
0.0
 11
-0.7843180000000001
 21
3.7976369999999999
 31
0.0
  0
ARC
  5
F1
  8
0
 10
5.2850000000000001
 20
0.0
 30
0.0
 40
0.215
 50
270.0
 51
90.0
  0
LINE
  5
F2
  8
0
 10
3.5935739999999989
 20
-0.215
 30
0.0
 11
5.2850000000000001
 21
-0.215
 31
0.0
  0
LINE
  5
F3
  8
0
 10
3.5935739999999989
 20
0.215
 30
0.0
 11
5.2850000000000001
 21
0.215
 31
0.0
  0
LINE
  5
F4
  8
0
 10
3.1982459999999988
 20
1.6526419999999991
 30
0.0
 11
4.9015389999999988
 21
2.2060749999999989
 31
0.0
  0
LINE
  5
F5
  8
0
 10
3.373275
 20
1.257382999999999
 30
0.0
 11
5.0344169999999986
 21
1.7971209999999991
 31
0.0
  0
ARC
  5
F6
  8
0
 10
4.9679779999999987
 20
2.0015979999999991
 30
0.0
 40
0.215
 50
288.0
 51
108.0
  0
LINE
  5
F7
  8
0
 10
2.2783370000000001
 20
2.7873250000000001
 30
0.0
 11
3.9215699999999991
 21
3.9812050000000001
 31
0.0
  0
LINE
  5
F8
  8
0
 10
2.6002610000000002
 20
2.4897079999999998
 30
0.0
 11
4.1743180000000004
 21
3.6333269999999991
 31
0.0
  0
ARC
  5
F9
  8
0
 10
4.0479440000000002
 20
3.8072659999999998
 30
0.0
 40
0.215
 50
306.0
 51
126.0
  0
LINE
  5
FA
  8
0
 10
1.0448949999999999
 20
3.4450249999999989
 30
0.0
 11
2.4410199999999991
 21
5.3666260000000001
 31
0.0
  0
LINE
  5
FB
  8
0
 10
1.4632099999999999
 20
3.289226999999999
 30
0.0
 11
2.7888969999999991
 21
5.1138779999999988
 31
0.0
  0
ARC
  5
FC
  8
0
 10
2.6149580000000001
 20
5.240251999999999
 30
0.0
 40
0.215
 50
324.0
 51
144.0
  0
LINE
  5
FD
  8
0
 10
0.001323
 20
3.7582049999999998
 30
0.0
 11
0.764595
 21
6.1073149999999989
 31
0.0
  0
LINE
  5
FE
  8
0
 10
0.4102770000000001
 20
3.6253279999999992
 30
0.0
 11
1.1735489999999991
 21
5.9744380000000001
 31
0.0
  0
ARC
  5
FF
  8
0
 10
0.9690719999999998
 20
6.040875999999999
 30
0.0
 40
0.215
 50
342.0
 51
162.0
  0
ARC
  5
100
  8
0
 10
0.2058
 20
3.691767
 30
0.0
 40
0.215
 50
328.347306
 51
342.0
  0
ARC
  5
101
  8
0
 10
-0.784373
 20
6.2811300000000001
 30
0.0
 40
0.216506
 50
355.0
 51
175.0
  0
ARC
  5
102
  8
0
 10
-2.2843729999999991
 20
6.2811300000000001
 30
0.0
 40
0.216506
 50
355.0
 51
175.0
  0
ARC
  5
103
  8
0
 10
-3.784373
 20
6.2811300000000001
 30
0.0
 40
0.216506
 50
355.0
 51
94.139002000000005
  0
LINE
  5
104
  8
0
 10
-3.713503999999999
 20
4.607041999999999
 30
0.0
 11
-2.4620669999999989
 21
6.4048230000000004
 31
0.0
  0
LINE
  5
105
  8
0
 10
-3.8223059999999989
 20
3.6928139999999989
 30
0.0
 11
-2.5708700000000002
 21
5.4905939999999998
 31
0.0
  0
LINE
  5
106
  8
0
 10
-2.3223060000000002
 20
3.6928139999999989
 30
0.0
 11
-1.0708699999999991
 21
5.4905939999999998
 31
0.0
  0
LINE
  5
107
  8
0
 10
-2.213503999999999
 20
4.607041999999999
 30
0.0
 11
-0.962067
 21
6.4048230000000004
 31
0.0
  0
LINE
  5
108
  8
0
 10
-0.8378870000000001
 20
3.672998999999999
 30
0.0
 11
0.4442370000000001
 21
5.1213559999999987
 31
0.0
  0
LINE
  5
109
  8
0
 10
-0.7271200000000001
 20
4.4514050000000003
 30
0.0
 11
0.8069589999999999
 21
6.1843830000000004
 31
0.0
  0
LINE
  5
10A
  8
0
 10
0.424396
 20
3.5748969999999991
 30
0.0
 11
1.765552
 21
4.4369249999999987
 31
0.0
  0
LINE
  5
10B
  8
0
 10
0.5972380000000001
 20
4.200734999999999
 30
0.0
 11
2.4978950000000002
 21
5.4223809999999988
 31
0.0
  0
LINE
  5
10C
  8
0
 10
1.7628159999999991
 20
3.1388660000000002
 30
0.0
 11
3.1312700000000002
 21
3.407017999999999
 31
0.0
  0
LINE
  5
10D
  8
0
 10
1.659899999999999
 20
3.5599470000000002
 30
0.0
 11
4.0063110000000002
 21
4.0197320000000003
 31
0.0
  0
LINE
  5
10E
  8
0
 10
2.9764909999999989
 20
2.0249700000000002
 30
0.0
 11
3.9724859999999991
 21
1.9042069999999991
 31
0.0
  0
LINE
  5
10F
  8
0
 10
2.620387
 20
2.5043299999999991
 30
0.0
 11
4.9940379999999989
 21
2.2165300000000001
 31
0.0
  0
LINE
  5
110
  8
0
 10
3.5554510000000001
 20
0.564596
 30
0.0
 11
4.308135
 21
0.215
 31
0.0
  0
LINE
  5
111
  8
0
 10
3.4273319999999989
 20
1.1015429999999991
 30
0.0
 11
5.3762019999999993
 21
0.19636
 31
0.0
  0
ARC
  5
112
  8
0
 10
0.2058
 20
3.691767
 30
0.0
 40
0.215
 50
162.0
 51
205.27132
  0
ARC
  5
113
  8
0
 10
0.2058
 20
-3.691767
 30
0.0
 40
0.215
 50
154.72868
 51
198.0
  0
LINE
  5
114
  8
0
 10
3.4273319999999989
 20
-1.1015429999999991
 30
0.0
 11
5.3762019999999993
 21
-0.19636
 31
0.0
  0
LINE
  5
115
  8
0
 10
3.5554510000000001
 20
-0.564596
 30
0.0
 11
4.308135
 21
-0.215
 31
0.0
  0
LINE
  5
116
  8
0
 10
2.620387
 20
-2.5043299999999991
 30
0.0
 11
4.9940379999999989
 21
-2.2165300000000001
 31
0.0
  0
LINE
  5
117
  8
0
 10
2.9764909999999989
 20
-2.0249700000000002
 30
0.0
 11
3.9724859999999991
 21
-1.9042069999999991
 31
0.0
  0
LINE
  5
118
  8
0
 10
1.659899999999999
 20
-3.5599470000000002
 30
0.0
 11
4.0063110000000002
 21
-4.0197320000000003
 31
0.0
  0
LINE
  5
119
  8
0
 10
1.7628159999999991
 20
-3.1388660000000002
 30
0.0
 11
3.1312700000000002
 21
-3.407017999999999
 31
0.0
  0
LINE
  5
11A
  8
0
 10
0.5972380000000001
 20
-4.200734999999999
 30
0.0
 11
2.4978950000000002
 21
-5.4223809999999988
 31
0.0
  0
LINE
  5
11B
  8
0
 10
0.424396
 20
-3.5748969999999991
 30
0.0
 11
1.765552
 21
-4.4369249999999987
 31
0.0
  0
LINE
  5
11C
  8
0
 10
-0.7271200000000001
 20
-4.4514050000000003
 30
0.0
 11
0.8069589999999999
 21
-6.1843830000000004
 31
0.0
  0
LINE
  5
11D
  8
0
 10
-0.8378870000000001
 20
-3.672998999999999
 30
0.0
 11
0.4442370000000001
 21
-5.1213559999999987
 31
0.0
  0
LINE
  5
11E
  8
0
 10
-2.213503999999999
 20
-4.607041999999999
 30
0.0
 11
-0.962067
 21
-6.4048230000000004
 31
0.0
  0
LINE
  5
11F
  8
0
 10
-2.3223060000000002
 20
-3.6928139999999989
 30
0.0
 11
-1.0708699999999991
 21
-5.4905939999999998
 31
0.0
  0
LINE
  5
120
  8
0
 10
-3.8223059999999989
 20
-3.6928139999999989
 30
0.0
 11
-2.5708700000000002
 21
-5.4905939999999998
 31
0.0
  0
LINE
  5
121
  8
0
 10
-3.713503999999999
 20
-4.607041999999999
 30
0.0
 11
-2.4620669999999989
 21
-6.4048230000000004
 31
0.0
  0
ARC
  5
122
  8
0
 10
-3.784373
 20
-6.2811300000000001
 30
0.0
 40
0.216506
 50
265.85530399999999
 51
5.0
  0
ARC
  5
123
  8
0
 10
-2.2843729999999991
 20
-6.2811300000000001
 30
0.0
 40
0.216506
 50
185.0
 51
5.0
  0
ARC
  5
124
  8
0
 10
-0.784373
 20
-6.2811300000000001
 30
0.0
 40
0.216506
 50
185.0
 51
5.0
  0
ARC
  5
125
  8
0
 10
0.2058
 20
-3.691767
 30
0.0
 40
0.215
 50
18.0
 51
31.652694
  0
ARC
  5
126
  8
0
 10
0.9690719999999998
 20
-6.040875999999999
 30
0.0
 40
0.215
 50
198.0
 51
18.0
  0
LINE
  5
127
  8
0
 10
0.4102770000000001
 20
-3.6253279999999992
 30
0.0
 11
1.1735489999999991
 21
-5.9744380000000001
 31
0.0
  0
LINE
  5
128
  8
0
 10
0.001323
 20
-3.7582049999999998
 30
0.0
 11
0.764595
 21
-6.1073149999999989
 31
0.0
  0
ARC
  5
129
  8
0
 10
2.6149580000000001
 20
-5.240251999999999
 30
0.0
 40
0.215
 50
216.0
 51
36.0
  0
LINE
  5
12A
  8
0
 10
1.4632099999999999
 20
-3.289226999999999
 30
0.0
 11
2.7888969999999991
 21
-5.1138779999999988
 31
0.0
  0
LINE
  5
12B
  8
0
 10
1.0448949999999999
 20
-3.4450249999999989
 30
0.0
 11
2.4410199999999991
 21
-5.3666260000000001
 31
0.0
  0
ARC
  5
12C
  8
0
 10
4.0479440000000002
 20
-3.8072659999999998
 30
0.0
 40
0.215
 50
234.0
 51
54.0
  0
LINE
  5
12D
  8
0
 10
2.6002610000000002
 20
-2.4897079999999998
 30
0.0
 11
4.1743180000000004
 21
-3.6333269999999991
 31
0.0
  0
LINE
  5
12E
  8
0
 10
2.2783370000000001
 20
-2.7873250000000001
 30
0.0
 11
3.9215699999999991
 21
-3.9812050000000001
 31
0.0
  0
ARC
  5
12F
  8
0
 10
4.9679779999999987
 20
-2.0015979999999991
 30
0.0
 40
0.215
 50
252.0
 51
72.0
  0
LINE
  5
130
  8
0
 10
3.373275
 20
-1.257382999999999
 30
0.0
 11
5.0344169999999986
 21
-1.7971209999999991
 31
0.0
  0
LINE
  5
131
  8
0
 10
3.1982459999999988
 20
-1.6526419999999991
 30
0.0
 11
4.9015389999999988
 21
-2.2060749999999989
 31
0.0
  0
LINE
  5
132
  8
0
 10
3.5935739999999989
 20
-0.215
 30
0.0
 11
5.2850000000000001
 21
-0.215
 31
0.0
  0
LINE
  5
133
  8
0
 10
3.5935739999999989
 20
0.215
 30
0.0
 11
5.2850000000000001
 21
0.215
 31
0.0
  0
ARC
  5
134
  8
0
 10
5.2850000000000001
 20
0.0
 30
0.0
 40
0.215
 50
270.0
 51
90.0
  0
LINE
  5
135
  8
0
 10
-0.5653890000000001
 20
-6.2999999999999989
 30
0.0
 11
-0.7843180000000001
 21
-3.7976369999999999
 31
0.0
  0
LINE
  5
136
  8
0
 10
-1.0000560000000001
 20
-6.2999999999999989
 30
0.0
 11
-1.215681999999999
 21
-3.8353760000000001
 31
0.0
  0
ARC
  5
137
  8
0
 10
-1.0
 20
-3.816506
 30
0.0
 40
0.216506
 50
5.0
 51
185.0
  0
LINE
  5
138
  8
0
 10
-2.0653890000000001
 20
-6.2999999999999989
 30
0.0
 11
-2.284317999999999
 21
-3.7976369999999999
 31
0.0
  0
LINE
  5
139
  8
0
 10
-2.5000559999999998
 20
-6.2999999999999989
 30
0.0
 11
-2.7156820000000002
 21
-3.8353760000000001
 31
0.0
  0
ARC
  5
13A
  8
0
 10
-2.5
 20
-3.816506
 30
0.0
 40
0.216506
 50
5.0
 51
185.0
  0
LINE
  5
13B
  8
0
 10
-3.5653890000000001
 20
-6.2999999999999989
 30
0.0
 11
-3.784317999999999
 21
-3.7976369999999999
 31
0.0
  0
LINE
  5
13C
  8
0
 10
-4.0000559999999989
 20
-6.2999999999999989
 30
0.0
 11
-4.2156820000000002
 21
-3.8353760000000001
 31
0.0
  0
ARC
  5
13D
  8
0
 10
-4.0
 20
-3.816506
 30
0.0
 40
0.216506
 50
5.0
 51
185.0
  0
LINE
  5
13E
  8
0
 10
-5.3090120000000001
 20
-3.7145320000000002
 30
0.0
 11
-4.0140690000000001
 21
-6.1398339999999987
 31
0.0
  0
LINE
  5
13F
  8
0
 10
-5.191978999999999
 20
-4.8530749999999987
 30
0.0
 11
-4.4194209999999989
 21
-6.2999999999999989
 31
0.0
  0
ARC
  5
140
  8
0
 10
-5.5
 20
-3.816506
 30
0.0
 40
0.216506
 50
5.0
 51
185.0
  0
LINE
  5
141
  8
0
 10
-5.0653889999999988
 20
-6.2999999999999989
 30
0.0
 11
-5.284317999999999
 21
-3.7976369999999999
 31
0.0
  0
LINE
  5
142
  8
0
 10
-5.5000559999999989
 20
-6.2999999999999989
 30
0.0
 11
-5.7156820000000002
 21
-3.8353760000000001
 31
0.0
  0
LINE
  5
143
  8
0
 10
-7.0000559999999989
 20
-6.2999999999999989
 30
0.0
 11
-7.215682000000001
 21
-3.8353760000000001
 31
0.0
  0
ARC
  5
144
  8
0
 10
-7.0
 20
-3.816506
 30
0.0
 40
0.216506
 50
5.0
 51
185.0
  0
LINE
  5
145
  8
0
 10
-6.8090119999999992
 20
-3.7145320000000002
 30
0.0
 11
-5.5140690000000001
 21
-6.1398339999999987
 31
0.0
  0
LINE
  5
146
  8
0
 10
-6.691978999999999
 20
-4.8530749999999987
 30
0.0
 11
-5.9194209999999989
 21
-6.2999999999999989
 31
0.0
  0
LINE
  5
147
  8
0
 10
-6.5653889999999988
 20
-6.2999999999999989
 30
0.0
 11
-6.7843179999999981
 21
-3.7976369999999999
 31
0.0
  0
LINE
  5
148
  8
0
 10
-8.5000559999999972
 20
-6.2999999999999989
 30
0.0
 11
-8.715682000000001
 21
-3.8353760000000001
 31
0.0
  0
ARC
  5
149
  8
0
 10
-8.5
 20
-3.816506
 30
0.0
 40
0.216506
 50
5.0
 51
185.0
  0
LINE
  5
14A
  8
0
 10
-8.3090119999999992
 20
-3.7145320000000002
 30
0.0
 11
-7.0140690000000001
 21
-6.1398339999999987
 31
0.0
  0
LINE
  5
14B
  8
0
 10
-8.1919789999999981
 20
-4.8530749999999987
 30
0.0
 11
-7.4194209999999998
 21
-6.2999999999999989
 31
0.0
  0
LINE
  5
14C
  8
0
 10
-8.0653889999999997
 20
-6.2999999999999989
 30
0.0
 11
-8.2843179999999972
 21
-3.7976369999999999
 31
0.0
  0
LINE
  5
14D
  8
0
 10
-10.000056000000001
 20
-6.2999999999999989
 30
0.0
 11
-10.215681999999999
 21
-3.8353760000000001
 31
0.0
  0
ARC
  5
14E
  8
0
 10
-10.0
 20
-3.816506
 30
0.0
 40
0.216506
 50
5.0
 51
185.0
  0
LINE
  5
14F
  8
0
 10
-9.8090119999999992
 20
-3.7145320000000002
 30
0.0
 11
-8.5140689999999992
 21
-6.1398339999999987
 31
0.0
  0
LINE
  5
150
  8
0
 10
-9.6919789999999981
 20
-4.8530749999999987
 30
0.0
 11
-8.9194209999999998
 21
-6.2999999999999989
 31
0.0
  0
LINE
  5
151
  8
0
 10
-9.5653889999999997
 20
-6.2999999999999989
 30
0.0
 11
-9.7843179999999972
 21
-3.7976369999999999
 31
0.0
  0
LINE
  5
152
  8
0
 10
-11.309011999999999
 20
-3.7145320000000002
 30
0.0
 11
-10.014068999999999
 21
-6.1398339999999987
 31
0.0
  0
LINE
  5
153
  8
0
 10
-11.191979
 20
-4.8530749999999987
 30
0.0
 11
-10.419421
 21
-6.2999999999999989
 31
0.0
  0
ARC
  5
154
  8
0
 10
-11.5
 20
-3.816506
 30
0.0
 40
0.216506
 50
5.0
 51
185.0
  0
LINE
  5
155
  8
0
 10
-11.065389
 20
-6.2999999999999989
 30
0.0
 11
-11.284318000000001
 21
-3.7976369999999999
 31
0.0
  0
LINE
  5
156
  8
0
 10
-11.500056000000001
 20
-6.2999999999999989
 30
0.0
 11
-11.715681999999999
 21
-3.8353760000000001
 31
0.0
  0
ARC
  5
157
  8
0
 10
-24.0
 20
6.2999999999999989
 30
0.0
 40
0.2
 50
180.0
 51
270.0
  0
ARC
  5
158
  8
0
 10
-14.0
 20
-3.816506
 30
0.0
 40
0.216506
 50
0.0
 51
180.0
  0
LINE
  5
159
  8
0
 10
-13.783493999999999
 20
-6.2999999999999989
 30
0.0
 11
-13.783493999999999
 21
-3.816506
 31
0.0
  0
LINE
  5
15A
  8
0
 10
-13.000056000000001
 20
-6.2999999999999989
 30
0.0
 11
-13.215681999999999
 21
-3.8353760000000001
 31
0.0
  0
LINE
  5
15B
  8
0
 10
-12.565389
 20
-6.2999999999999989
 30
0.0
 11
-12.784318000000001
 21
-3.7976369999999999
 31
0.0
  0
ARC
  5
15C
  8
0
 10
-13.0
 20
-3.816506
 30
0.0
 40
0.216506
 50
5.0
 51
185.0
  0
LINE
  5
15D
  8
0
 10
-12.691979
 20
-4.8530749999999987
 30
0.0
 11
-11.919421
 21
-6.2999999999999989
 31
0.0
  0
LINE
  5
15E
  8
0
 10
-12.809011999999999
 20
-3.7145320000000002
 30
0.0
 11
-11.514068999999999
 21
-6.1398339999999987
 31
0.0
  0
LINE
  5
15F
  8
0
 10
-13.666506
 20
-6.2999999999999989
 30
0.0
 11
-13.666506
 21
-3.816506
 31
0.0
  0
LINE
  5
160
  8
0
 10
-13.233494
 20
-6.2999999999999989
 30
0.0
 11
-13.233494
 21
-3.816506
 31
0.0
  0
ARC
  5
161
  8
0
 10
-13.449999999999999
 20
-3.816506
 30
0.0
 40
0.216506
 50
0.0
 51
180.0
  0
LINE
  5
162
  8
0
 10
-13.019590000000001
 20
-6.2999999999999989
 30
0.0
 11
-13.233494
 21
-5.4881029999999988
 31
0.0
  0
LINE
  5
163
  8
0
 10
-13.695892000000001
 20
-6.2999999999999989
 30
0.0
 11
-13.783493999999999
 21
-5.9674959999999988
 31
0.0
  0
ENDBLK
  5
164
  8
0
  0
ENDSEC
  0
SECTION
  2
ENTITIES
  0
TEXT
  5
6F4
  8
0
 62
     3
 10
0.0
 20
0.0
 30
0.0
 40
10.0
  1
MR-S-S
  7
STANDARD1
  0
CIRCLE
  5
8DC
  8
0
 10
49.999991535500037
 20
122.9497209995
 30
0.0
 40
7.799991538301196
  0
LINE
  5
8DD
  8
0
 10
55.0
 20
125.8366801208
 30
0.0
 11
55.0
 21
120.0631774289
 31
0.0
  0
LINE
  5
8DE
  8
0
 10
50.0
 20
128.72343146669999
 30
0.0
 11
55.0
 21
125.8366801208
 31
0.0
  0
LINE
  5
8DF
  8
0
 10
45.0
 20
125.8366801208
 30
0.0
 11
50.0
 21
128.72343146669999
 31
0.0
  0
LINE
  5
8E0
  8
0
 10
45.0
 20
120.0631774289
 30
0.0
 11
45.0
 21
125.8366801208
 31
0.0
  0
LINE
  5
8E1
  8
0
 10
50.0
 20
117.17642608289999
 30
0.0
 11
45.0
 21
120.0631774289
 31
0.0
  0
LINE
  5
8E2
  8
0
 10
55.0
 20
120.0631774289
 30
0.0
 11
50.0
 21
117.17642608289999
 31
0.0
  0
CIRCLE
  5
8E3
  8
0
 10
50.0
 20
122.9499287748
 30
0.0
 40
8.9999999999999734
  0
LINE
  5
8E4
  8
0
 10
30.0
 20
100.9499287748
 30
0.0
 11
70.0
 21
100.9499287748
 31
0.0
  0
LINE
  5
8E5
  8
0
 10
30.0
 20
144.94992877479999
 30
0.0
 11
30.0
 21
100.9499287748
 31
0.0
  0
LINE
  5
8E6
  8
0
 10
70.0
 20
144.94992877479999
 30
0.0
 11
30.0
 21
144.94992877479999
 31
0.0
  0
LINE
  5
8E7
  8
0
 10
70.0
 20
100.9499287748
 30
0.0
 11
70.0
 21
144.94992877479999
 31
0.0
  0
CIRCLE
  5
8E8
  8
0
 10
50.0
 20
122.9499287748
 30
0.0
 40
10.00000000000003
  0
LINE
  5
8E9
  8
0
 10
32.0
 20
39.549928774800037
 30
0.0
 11
68.0
 21
39.549928774800037
 31
0.0
  0
LINE
  5
8EA
  8
0
 10
68.0
 20
30.0
 30
0.0
 11
32.0
 21
30.0
 31
0.0
  0
LINE
  5
8EB
  8
0
 10
32.0
 20
30.0
 30
0.0
 11
32.0
 21
49.549928774800058
 31
0.0
  0
LINE
  5
8EC
  8
0
 10
68.0
 20
49.549928774800058
 30
0.0
 11
68.0
 21
30.0
 31
0.0
  0
LINE
  5
8ED
  8
0
 10
30.0
 20
70.949928774800071
 30
0.0
 11
70.0
 21
70.949928774800071
 31
0.0
  0
LINE
  5
8EE
  8
0
 10
70.0
 20
49.549928774800058
 30
0.0
 11
30.0
 21
49.549928774800058
 31
0.0
  0
LINE
  5
8EF
  8
0
 10
70.0
 20
70.949928774800071
 30
0.0
 11
70.0
 21
49.549928774800058
 31
0.0
  0
LINE
  5
8F0
  8
0
 10
30.0
 20
49.549928774800058
 30
0.0
 11
30.0
 21
70.949928774800071
 31
0.0
  0
LINE
  5
8F1
  8
2
 10
32.0
 20
51.549928774800037
 30
0.0
 11
68.0
 21
51.549928774800037
 31
0.0
  0
LINE
  5
8F2
  8
2
 10
32.0
 20
49.549928774800058
 30
0.0
 11
32.0
 21
51.549928774800037
 31
0.0
  0
LINE
  5
8F3
  8
2
 10
68.0
 20
51.549928774800037
 30
0.0
 11
68.0
 21
49.549928774800058
 31
0.0
  0
LINE
  5
8F4
  8
2
 10
40.0
 20
58.949928774800071
 30
0.0
 11
60.0
 21
58.949928774800071
 31
0.0
  0
LINE
  5
8F5
  8
2
 10
30.0
 20
51.949928774800043
 30
0.0
 11
70.0
 21
51.949928774800043
 31
0.0
  0
LINE
  5
8F6
  8
2
 10
40.0
 20
70.949928774800071
 30
0.0
 11
40.0
 21
58.949928774800071
 31
0.0
  0
LINE
  5
8F7
  8
2
 10
60.0
 20
58.949928774800071
 30
0.0
 11
60.0
 21
70.949928774800071
 31
0.0
  0
LINE
  5
8F8
  8
2
 10
43.75
 20
58.949928774800071
 30
0.0
 11
43.75
 21
51.949928774800043
 31
0.0
  0
LINE
  5
8F9
  8
2
 10
56.25
 20
51.949928774800043
 30
0.0
 11
56.25
 21
58.949928774800071
 31
0.0
  0
LINE
  5
8FA
  8
0
 10
44.023466274896691
 20
30.000000000000089
 30
0.0
 11
45.073537500099917
 21
28.94992877470008
 31
0.0
  0
LINE
  5
8FB
  8
0
 10
54.926462499999957
 20
28.94992877470008
 30
0.0
 11
55.976533725199943
 21
30.000000000000089
 31
0.0
  0
LINE
  5
8FC
  8
0
 10
45.073537500099917
 20
28.94992877470008
 30
0.0
 11
54.926462499999957
 21
28.94992877470008
 31
0.0
  0
LINE
  5
8FD
  8
0
 10
114.0
 20
51.949928774800043
 30
0.0
 11
113.9999999999999
 21
39.549928774800037
 31
0.0
  0
LINE
  5
8FE
  8
0
 10
130.0
 20
51.549928774800037
 30
0.0
 11
114.0
 21
51.549928774800037
 31
0.0
  0
LINE
  5
8FF
  8
0
 10
129.99999999999989
 20
39.549928774800037
 30
0.0
 11
130.0
 21
51.949928774800043
 31
0.0
  0
LINE
  5
900
  8
0
 10
133.99999999999989
 20
39.549928774800037
 30
0.0
 11
129.99999999999989
 21
39.549928774800037
 31
0.0
  0
LINE
  5
901
  8
0
 10
133.99999999999989
 20
30.00000000000006
 30
0.0
 11
109.9999999999999
 21
30.00000000000006
 31
0.0
  0
LINE
  5
902
  8
0
 10
109.9999999999999
 20
39.549928774800037
 30
0.0
 11
109.9999999999999
 21
30.00000000000006
 31
0.0
  0
LINE
  5
903
  8
0
 10
113.9999999999999
 20
39.549928774800037
 30
0.0
 11
109.9999999999999
 21
39.549928774800037
 31
0.0
  0
LINE
  5
904
  8
0
 10
133.99999999999989
 20
39.549928774800037
 30
0.0
 11
133.99999999999989
 21
30.00000000000006
 31
0.0
  0
LINE
  5
905
  8
0
 10
114.0
 20
51.949928774800043
 30
0.0
 11
130.0
 21
51.949928774800043
 31
0.0
  0
LINE
  5
906
  8
0
 10
100.0
 20
70.949928774800071
 30
0.0
 11
99.999999999999943
 21
49.549928774800087
 31
0.0
  0
LINE
  5
907
  8
0
 10
100.0
 20
70.949928774800071
 30
0.0
 11
144.0
 21
70.949928774800043
 31
0.0
  0
LINE
  5
908
  8
0
 10
99.999999999999943
 20
49.549928774800087
 30
0.0
 11
114.0
 21
49.549928774800058
 31
0.0
  0
LINE
  5
909
  8
0
 10
130.0
 20
49.549928774800058
 30
0.0
 11
144.0
 21
49.549928774800058
 31
0.0
  0
LINE
  5
90A
  8
0
 10
144.0
 20
70.949928774800043
 30
0.0
 11
144.0
 21
49.549928774800058
 31
0.0
  0
LINE
  5
90B
  8
2
 10
41.002332036499979
 20
69.749928774800054
 30
0.0
 11
58.997667963600009
 21
69.749928774800026
 31
0.0
  0
LINE
  5
90C
  8
2
 10
44.00000000009998
 20
30.023466274800061
 30
0.0
 11
55.999999999999943
 21
30.023466274800061
 31
0.0
  0
LINE
  5
90D
  8
2
 10
111.9999999999999
 20
58.949928774800043
 30
0.0
 11
132.0
 21
58.949928774800043
 31
0.0
  0
ARC
  5
90E
  8
2
 10
57.799999999999947
 20
69.749928774799997
 30
0.0
 40
1.200000000000045
 50
0.0000000000016284
 51
90.0
  0
ARC
  5
90F
  8
2
 10
42.200000000000053
 20
69.749928774800054
 30
0.0
 40
1.2000000000000239
 50
90.0
 51
180.0
  0
LINE
  5
910
  8
2
 10
59.0
 20
58.949928774800071
 30
0.0
 11
59.0
 21
69.749928774800026
 31
0.0
  0
LINE
  5
911
  8
2
 10
41.0
 20
69.749928774800054
 30
0.0
 11
41.0
 21
58.949928774800071
 31
0.0
  0
LINE
  5
912
  8
2
 10
44.00000000009998
 20
30.023466274800061
 30
0.0
 11
44.023466274896691
 21
30.000000000000089
 31
0.0
  0
LINE
  5
913
  8
2
 10
55.976533725199943
 20
30.000000000000089
 30
0.0
 11
55.999999999999943
 21
30.023466274800061
 31
0.0
  0
LINE
  5
914
  8
2
 10
55.999999999999943
 20
30.023466274800061
 30
0.0
 11
56.0
 21
58.949928774800071
 31
0.0
  0
LINE
  5
915
  8
2
 10
44.00000000000005
 20
58.949928774800071
 30
0.0
 11
43.999999999999943
 21
30.023466274800061
 31
0.0
  0
LINE
  5
916
  8
2
 10
44.947000000000003
 20
53.699928774800071
 30
0.0
 11
44.946999999999939
 21
30.000000000000089
 31
0.0
  0
LINE
  5
917
  8
2
 10
55.05299999999994
 20
30.000000000000089
 30
0.0
 11
55.052999999999997
 21
53.699928774800071
 31
0.0
  0
LINE
  5
918
  8
2
 10
112.0
 20
70.949928774800043
 30
0.0
 11
111.9999999999999
 21
58.949928774800043
 31
0.0
  0
LINE
  5
919
  8
2
 10
132.0
 20
58.949928774800043
 30
0.0
 11
132.0
 21
70.949928774800043
 31
0.0
  0
LINE
  5
91A
  8
2
 10
115.75
 20
58.949928774800043
 30
0.0
 11
115.75
 21
51.949928774800043
 31
0.0
  0
LINE
  5
91B
  8
2
 10
128.25
 20
51.949928774800043
 30
0.0
 11
128.25
 21
58.949928774800043
 31
0.0
  0
LINE
  5
91C
  8
3
 10
55.05299999999994
 20
30.000000000000089
 30
0.0
 11
55.052999999999997
 21
29.076466274712121
 31
0.0
  0
LINE
  5
91D
  8
3
 10
44.946999999999939
 20
30.000000000000089
 30
0.0
 11
44.947000000000003
 21
29.076466274712121
 31
0.0
  0
LINE
  5
91E
  8
2
 10
44.947000000000003
 20
53.699928774800071
 30
0.0
 11
44.0
 21
55.34018088956779
 31
0.0
  0
LINE
  5
91F
  8
2
 10
55.052999999999997
 20
53.699928774800071
 30
0.0
 11
56.0
 21
55.34018088956779
 31
0.0
  0
LINE
  5
920
  8
2
 10
44.0
 20
53.699928774800071
 30
0.0
 11
56.0
 21
53.699928774800071
 31
0.0
  0
LINE
  5
921
  8
0
 10
116.02346627489671
 20
30.00000000000006
 30
0.0
 11
117.0735375000998
 21
28.949928774700059
 31
0.0
  0
LINE
  5
922
  8
0
 10
126.9264624999999
 20
28.949928774700059
 30
0.0
 11
127.9765337251999
 21
30.00000000000006
 31
0.0
  0
LINE
  5
923
  8
0
 10
117.0735375000998
 20
28.949928774700059
 30
0.0
 11
126.9264624999999
 21
28.949928774700059
 31
0.0
  0
LINE
  5
924
  8
2
 10
113.00233203649999
 20
69.749928774800026
 30
0.0
 11
130.99766796359989
 21
69.749928774799997
 31
0.0
  0
LINE
  5
925
  8
2
 10
116.0000000000999
 20
30.023466274800029
 30
0.0
 11
127.9999999999999
 21
30.023466274800029
 31
0.0
  0
ARC
  5
926
  8
2
 10
129.7999999999999
 20
69.749928774799969
 30
0.0
 40
1.200000000000045
 50
0.0000000000016284
 51
90.0
  0
ARC
  5
927
  8
2
 10
114.2
 20
69.749928774800026
 30
0.0
 40
1.2000000000000239
 50
90.0
 51
180.0
  0
LINE
  5
928
  8
2
 10
131.0
 20
58.949928774800043
 30
0.0
 11
131.0
 21
69.749928774799997
 31
0.0
  0
LINE
  5
929
  8
2
 10
113.0
 20
69.749928774800026
 30
0.0
 11
113.0
 21
58.949928774800043
 31
0.0
  0
LINE
  5
92A
  8
2
 10
116.0000000000999
 20
30.023466274800029
 30
0.0
 11
116.02346627489671
 21
30.00000000000006
 31
0.0
  0
LINE
  5
92B
  8
2
 10
127.9765337251999
 20
30.00000000000006
 30
0.0
 11
127.9999999999999
 21
30.023466274800029
 31
0.0
  0
LINE
  5
92C
  8
2
 10
127.9999999999999
 20
30.023466274800029
 30
0.0
 11
127.9999999999999
 21
51.549928774800037
 31
0.0
  0
LINE
  5
92D
  8
2
 10
116.0
 20
51.549928774800037
 30
0.0
 11
115.9999999999999
 21
30.023466274800029
 31
0.0
  0
LINE
  5
92E
  8
2
 10
116.947
 20
53.699928774800043
 30
0.0
 11
116.947
 21
51.949928774800043
 31
0.0
  0
LINE
  5
92F
  8
2
 10
127.0529999999999
 20
30.00000000000006
 30
0.0
 11
127.0529999999999
 21
51.549928774800037
 31
0.0
  0
LINE
  5
930
  8
3
 10
127.0529999999999
 20
30.00000000000006
 30
0.0
 11
127.0529999999999
 21
29.076466274712089
 31
0.0
  0
LINE
  5
931
  8
3
 10
116.9469999999999
 20
30.00000000000006
 30
0.0
 11
116.9469999999999
 21
29.076466274712089
 31
0.0
  0
LINE
  5
932
  8
2
 10
116.9469999999999
 20
53.699928774800043
 30
0.0
 11
116.0
 21
55.340180889567762
 31
0.0
  0
LINE
  5
933
  8
2
 10
127.053
 20
53.699928774800043
 30
0.0
 11
128.0
 21
55.340180889567762
 31
0.0
  0
LINE
  5
934
  8
2
 10
115.9999999999999
 20
53.699928774800043
 30
0.0
 11
128.0
 21
53.699928774800043
 31
0.0
  0
LINE
  5
935
  8
0
 10
116.0
 20
51.549928774800037
 30
0.0
 11
116.0
 21
51.949928774800043
 31
0.0
  0
LINE
  5
936
  8
0
 10
127.9999999999999
 20
51.549928774800037
 30
0.0
 11
127.9999999999999
 21
51.949928774800043
 31
0.0
  0
LINE
  5
937
  8
2
 10
116.0
 20
51.949928774800043
 30
0.0
 11
116.0
 21
58.949928774800043
 31
0.0
  0
LINE
  5
938
  8
2
 10
127.9999999999999
 20
51.949928774800043
 30
0.0
 11
127.9999999999999
 21
58.949928774800043
 31
0.0
  0
LINE
  5
939
  8
1
 10
50.0
 20
75.949928774800071
 30
0.0
 11
50.000000000049909
 21
23.94992877470008
 31
0.0
  0
LINE
  5
93A
  8
1
 10
122.0
 20
75.949928774800043
 30
0.0
 11
122.00000000004989
 21
23.949928774700059
 31
0.0
  0
LINE
  5
93B
  8
1
 10
25.0
 20
122.9499287748
 30
0.0
 11
75.0
 21
122.9499287748
 31
0.0
  0
LINE
  5
93C
  8
1
 10
50.0
 20
149.94992877479999
 30
0.0
 11
50.0
 21
95.949928774800085
 31
0.0
  0
LINE
  5
B90
  8
1
 10
99.000000805604813
 20
62.949928149600098
 30
0.0
 11
121.0000008056048
 21
62.949928149600098
 31
0.0
  0
LINE
  5
B91
  8
1
 10
110.0000008056048
 20
73.949928149600083
 30
0.0
 11
110.0000008056048
 21
51.949928149600112
 31
0.0
  0
LINE
  5
B92
  8
1
 10
134.0000008056048
 20
73.949928149600083
 30
0.0
 11
134.0000008056048
 21
51.94992814960009
 31
0.0
  0
LINE
  5
B93
  8
1
 10
123.0000008056048
 20
62.949928149600098
 30
0.0
 11
145.0000008056048
 21
62.949928149600098
 31
0.0
  0
LINE
  5
B96
  8
1
 10
23.000000289100029
 20
134.94992992965001
 30
0.0
 11
35.0
 21
134.94992992965001
 31
0.0
  0
LINE
  5
B97
  8
1
 10
23.000000289100029
 20
110.9499294881501
 30
0.0
 11
35.0
 21
110.9499294881501
 31
0.0
  0
LINE
  5
B98
  8
1
 10
76.999999710899971
 20
134.94992992965001
 30
0.0
 11
65.0
 21
134.94992992965001
 31
0.0
  0
LINE
  5
B99
  8
1
 10
76.999999710899971
 20
110.9499294881501
 30
0.0
 11
65.0
 21
110.9499294881501
 31
0.0
  0
LINE
  5
B9A
  8
1
 10
23.000000736104859
 20
62.949928161950112
 30
0.0
 11
35.000000447004822
 21
62.949928161950112
 31
0.0
  0
LINE
  5
B9B
  8
1
 10
77.000000157904793
 20
62.949928161950112
 30
0.0
 11
65.000000447004822
 21
62.949928161950112
 31
0.0
  0
LINE
  5
118D
  8
0
 10
69.999999553000009
 20
128.94992801490011
 30
0.0
 11
70.594999024299995
 21
128.94992801490011
 31
0.0
  0
LINE
  5
118E
  8
0
 10
70.594999024299995
 20
140.94992811920011
 30
0.0
 11
69.999999553000009
 21
140.94992811920011
 31
0.0
  0
LINE
  5
118F
  8
0
 10
69.999999553000009
 20
104.94992780620009
 30
0.0
 11
70.594999024299995
 21
104.94992780620009
 31
0.0
  0
LINE
  5
1190
  8
0
 10
70.594999024299995
 20
116.9499279106001
 30
0.0
 11
69.999999553000009
 21
116.9499279106001
 31
0.0
  0
LINE
  5
1191
  8
0
 10
70.594999024299995
 20
104.94992780620009
 30
0.0
 11
70.725000479800002
 21
105.0799273991001
 31
0.0
  0
LINE
  5
1192
  8
0
 10
70.725000479800002
 20
116.8199283177001
 30
0.0
 11
70.594999024299995
 21
116.9499279106001
 31
0.0
  0
LINE
  5
1193
  8
0
 10
70.594999024299995
 20
128.94992801490011
 30
0.0
 11
70.725000479800002
 21
129.07992807340011
 31
0.0
  0
LINE
  5
1194
  8
0
 10
70.725000479800002
 20
140.81992852630009
 30
0.0
 11
70.594999024299995
 21
140.94992811920011
 31
0.0
  0
LINE
  5
1195
  8
0
 10
70.594999024299995
 20
128.94992801490011
 30
0.0
 11
70.594999024299995
 21
140.94992811920011
 31
0.0
  0
LINE
  5
1196
  8
0
 10
70.594999024299995
 20
104.94992780620009
 30
0.0
 11
70.594999024299995
 21
116.9499279106001
 31
0.0
  0
LINE
  5
1197
  8
0
 10
70.725000479800002
 20
105.0799273991001
 30
0.0
 11
70.725000479800002
 21
116.8199283177001
 31
0.0
  0
LINE
  5
1198
  8
0
 10
70.725000479800002
 20
129.07992807340011
 30
0.0
 11
70.725000479800002
 21
140.81992852630009
 31
0.0
  0
LINE
  5
1199
  8
0
 10
71.999999710899971
 20
111.02612774010009
 30
0.0
 11
71.999999710899971
 21
110.8737279767001
 31
0.0
  0
LINE
  5
119A
  8
0
 10
71.999999710899971
 20
110.8737279767001
 30
0.0
 11
70.725000479800002
 21
109.5987278142001
 31
0.0
  0
LINE
  5
119B
  8
0
 10
70.725000479800002
 20
112.3011279026001
 30
0.0
 11
71.999999710899971
 21
111.02612774010009
 31
0.0
  0
LINE
  5
11AC
  8
0
 10
71.999999710899971
 20
135.02612794870001
 30
0.0
 11
71.999999710899971
 21
134.87372818530011
 31
0.0
  0
LINE
  5
11AD
  8
0
 10
71.999999710899971
 20
134.87372818530011
 30
0.0
 11
70.725000479800002
 21
133.5987280229001
 31
0.0
  0
LINE
  5
11AE
  8
0
 10
70.725000479800002
 20
136.30112811120009
 30
0.0
 11
71.999999710899971
 21
135.02612794870001
 31
0.0
  0
LINE
  5
11AF
  8
0
 10
71.999999710899971
 20
107.8511280113001
 30
0.0
 11
71.999999710899971
 21
107.69872824790011
 31
0.0
  0
LINE
  5
11B0
  8
0
 10
71.999999710899971
 20
107.69872824790011
 30
0.0
 11
70.725000479800002
 21
106.4237290167995
 31
0.0
  0
LINE
  5
11B1
  8
0
 10
70.725000479800002
 20
109.1261283773503
 30
0.0
 11
71.999999710899971
 21
107.8511280113001
 31
0.0
  0
LINE
  5
11B2
  8
0
 10
71.999999710899971
 20
138.2011276775001
 30
0.0
 11
71.999999710899971
 21
138.04872791410011
 31
0.0
  0
LINE
  5
11B3
  8
0
 10
71.999999710899971
 20
138.2011276775001
 30
0.0
 11
70.725000479800002
 21
139.47612690860041
 31
0.0
  0
LINE
  5
11B4
  8
0
 10
71.999999710899971
 20
138.04872791410011
 30
0.0
 11
70.725000479800002
 21
136.77372868287819
 31
0.0
  0
LINE
  5
11B5
  8
0
 10
71.999999710899971
 20
131.85112821990009
 30
0.0
 11
71.999999710899971
 21
131.69872799080011
 31
0.0
  0
LINE
  5
11B6
  8
0
 10
71.999999710899971
 20
131.69872799080011
 30
0.0
 11
70.725000479800002
 21
130.42373896217359
 31
0.0
  0
LINE
  5
11B7
  8
0
 10
70.725000479800002
 20
133.1261274511219
 30
0.0
 11
71.999999710899971
 21
131.85112821990009
 31
0.0
  0
LINE
  5
11B8
  8
0
 10
71.999999710899971
 20
114.20112840030011
 30
0.0
 11
71.999999710899971
 21
114.0487277055001
 31
0.0
  0
LINE
  5
11B9
  8
0
 10
71.999999710899971
 20
114.20112840030011
 30
0.0
 11
70.725000479800002
 21
115.4761174289259
 31
0.0
  0
LINE
  5
11BA
  8
0
 10
71.999999710899971
 20
114.0487277055001
 30
0.0
 11
70.725000479800002
 21
112.7737284742782
 31
0.0
  0
LINE
  5
11BF
  8
0
 10
30.000000446999991
 20
128.94992801490011
 30
0.0
 11
29.405000975700009
 21
128.94992801490011
 31
0.0
  0
LINE
  5
11C0
  8
0
 10
29.405000975700009
 20
140.94992811920011
 30
0.0
 11
30.000000446999991
 21
140.94992811920011
 31
0.0
  0
LINE
  5
11C1
  8
0
 10
30.000000446999991
 20
104.94992780620009
 30
0.0
 11
29.405000975700009
 21
104.94992780620009
 31
0.0
  0
LINE
  5
11C2
  8
0
 10
29.405000975700009
 20
116.9499279106001
 30
0.0
 11
30.000000446999991
 21
116.9499279106001
 31
0.0
  0
LINE
  5
11C3
  8
0
 10
29.405000975700009
 20
104.94992780620009
 30
0.0
 11
29.274999520200009
 21
105.0799273991001
 31
0.0
  0
LINE
  5
11C4
  8
0
 10
29.274999520200009
 20
116.8199283177001
 30
0.0
 11
29.405000975700009
 21
116.9499279106001
 31
0.0
  0
LINE
  5
11C5
  8
0
 10
29.405000975700009
 20
128.94992801490011
 30
0.0
 11
29.274999520200009
 21
129.07992807340011
 31
0.0
  0
LINE
  5
11C6
  8
0
 10
29.274999520200009
 20
140.81992852630009
 30
0.0
 11
29.405000975700009
 21
140.94992811920011
 31
0.0
  0
LINE
  5
11C7
  8
0
 10
29.405000975700009
 20
128.94992801490011
 30
0.0
 11
29.405000975700009
 21
140.94992811920011
 31
0.0
  0
LINE
  5
11C8
  8
0
 10
29.405000975700009
 20
104.94992780620009
 30
0.0
 11
29.405000975700009
 21
116.9499279106001
 31
0.0
  0
LINE
  5
11C9
  8
0
 10
29.274999520200009
 20
105.0799273991001
 30
0.0
 11
29.274999520200009
 21
116.8199283177001
 31
0.0
  0
LINE
  5
11CA
  8
0
 10
29.274999520200009
 20
129.07992807340011
 30
0.0
 11
29.274999520200009
 21
140.81992852630009
 31
0.0
  0
LINE
  5
11CB
  8
0
 10
28.00000028910004
 20
111.02612774010009
 30
0.0
 11
28.00000028910004
 21
110.8737279767001
 31
0.0
  0
LINE
  5
11CC
  8
0
 10
28.00000028910004
 20
110.8737279767001
 30
0.0
 11
29.274999520200009
 21
109.5987278142001
 31
0.0
  0
LINE
  5
11CD
  8
0
 10
29.274999520200009
 20
112.3011279026001
 30
0.0
 11
28.00000028910004
 21
111.02612774010009
 31
0.0
  0
LINE
  5
11DE
  8
0
 10
28.00000028910004
 20
135.02612794870001
 30
0.0
 11
28.00000028910004
 21
134.87372818530011
 31
0.0
  0
LINE
  5
11DF
  8
0
 10
28.00000028910004
 20
134.87372818530011
 30
0.0
 11
29.274999520200009
 21
133.5987280229001
 31
0.0
  0
LINE
  5
11E0
  8
0
 10
29.274999520200009
 20
136.30112811120009
 30
0.0
 11
28.00000028910004
 21
135.02612794870001
 31
0.0
  0
LINE
  5
11E1
  8
0
 10
28.00000028910004
 20
107.8511280113001
 30
0.0
 11
28.00000028910004
 21
107.69872824790011
 31
0.0
  0
LINE
  5
11E2
  8
0
 10
28.00000028910004
 20
107.69872824790011
 30
0.0
 11
29.274999520200009
 21
106.4237290167995
 31
0.0
  0
LINE
  5
11E3
  8
0
 10
29.274999520200002
 20
109.1261283773503
 30
0.0
 11
28.00000028910004
 21
107.8511280113001
 31
0.0
  0
LINE
  5
11E4
  8
0
 10
28.00000028910004
 20
138.2011276775001
 30
0.0
 11
28.00000028910004
 21
138.04872791410011
 31
0.0
  0
LINE
  5
11E5
  8
0
 10
28.00000028910004
 20
138.2011276775001
 30
0.0
 11
29.274999520200002
 21
139.47612690860029
 31
0.0
  0
LINE
  5
11E6
  8
0
 10
28.00000028910004
 20
138.04872791410011
 30
0.0
 11
29.274999520200009
 21
136.77372868287819
 31
0.0
  0
LINE
  5
11E7
  8
0
 10
28.00000028910004
 20
131.85112821990009
 30
0.0
 11
28.00000028910004
 21
131.69872799080011
 31
0.0
  0
LINE
  5
11E8
  8
0
 10
28.00000028910004
 20
131.69872799080011
 30
0.0
 11
29.274999520200002
 21
130.42373896217359
 31
0.0
  0
LINE
  5
11E9
  8
0
 10
29.274999520200009
 20
133.1261274511219
 30
0.0
 11
28.00000028910004
 21
131.85112821990009
 31
0.0
  0
LINE
  5
11EA
  8
0
 10
28.00000028910004
 20
114.20112840030011
 30
0.0
 11
28.00000028910004
 21
114.0487277055001
 31
0.0
  0
LINE
  5
11EB
  8
0
 10
28.00000028910004
 20
114.20112840030011
 30
0.0
 11
29.274999520200009
 21
115.4761174289259
 31
0.0
  0
LINE
  5
11EC
  8
0
 10
28.00000028910004
 20
114.0487277055001
 30
0.0
 11
29.274999520200002
 21
112.7737284742782
 31
0.0
  0
LINE
  5
12B9
  8
0
 10
70.0
 20
68.949928447000048
 30
0.0
 11
70.594999471299985
 21
68.949928447000048
 31
0.0
  0
LINE
  5
12BA
  8
0
 10
70.594999471299985
 20
56.94992834260006
 30
0.0
 11
70.0
 21
56.94992834260006
 31
0.0
  0
LINE
  5
12BB
  8
0
 10
70.594999471299985
 20
68.949928447000048
 30
0.0
 11
70.725000926799993
 21
68.819928854100112
 31
0.0
  0
LINE
  5
12BC
  8
0
 10
70.725000926799993
 20
57.079927935500109
 30
0.0
 11
70.594999471299985
 21
56.94992834260006
 31
0.0
  0
LINE
  5
12BD
  8
0
 10
70.594999471299985
 20
68.949928447000048
 30
0.0
 11
70.594999471299985
 21
56.94992834260006
 31
0.0
  0
LINE
  5
12BE
  8
0
 10
70.725000926799993
 20
68.819928854100112
 30
0.0
 11
70.725000926799993
 21
57.079927935500109
 31
0.0
  0
LINE
  5
12C7
  8
0
 10
72.000000157899962
 20
62.873728513100048
 30
0.0
 11
72.000000157899962
 21
63.02612827650006
 31
0.0
  0
LINE
  5
12C8
  8
0
 10
72.000000157899962
 20
63.02612827650006
 30
0.0
 11
70.725000926799993
 21
64.301127507600086
 31
0.0
  0
LINE
  5
12C9
  8
0
 10
70.725000926799993
 20
61.598729282000022
 30
0.0
 11
72.000000157899962
 21
62.873728513100048
 31
0.0
  0
LINE
  5
12CA
  8
0
 10
72.000000157899962
 20
59.698728784300101
 30
0.0
 11
72.000000157899962
 21
59.85112854770005
 31
0.0
  0
LINE
  5
12CB
  8
0
 10
72.000000157899962
 20
59.698728784300101
 30
0.0
 11
70.725000926799993
 21
58.423729553199841
 31
0.0
  0
LINE
  5
12CC
  8
0
 10
72.000000157899962
 20
59.85112854770005
 30
0.0
 11
70.725000926799993
 21
61.12612777892199
 31
0.0
  0
LINE
  5
12CD
  8
0
 10
72.000000157899962
 20
66.048728241900051
 30
0.0
 11
72.000000157899962
 21
66.201128005300063
 31
0.0
  0
LINE
  5
12CE
  8
0
 10
72.000000157899962
 20
66.201128005300063
 30
0.0
 11
70.725000926799993
 21
67.476127236400359
 31
0.0
  0
LINE
  5
12CF
  8
0
 10
70.725000926799993
 20
64.773729010678224
 30
0.0
 11
72.000000157899962
 21
66.048728241900051
 31
0.0
  0
LINE
  5
12D2
  8
0
 10
113.2511995063048
 20
66.048728241900051
 30
0.0
 11
113.2511995063048
 21
66.201128005400051
 31
0.0
  0
LINE
  5
12D3
  8
0
 10
113.2511995063048
 20
66.201128005400051
 30
0.0
 11
113.3675952703048
 21
66.317524700700062
 31
0.0
  0
ARC
  5
12D4
  8
0
 10
109.99999919440479
 20
62.949928427400067
 30
0.0
 40
4.7625000000000002
 50
25.528779365500181
 51
44.999999999999559
  0
LINE
  5
12D5
  8
0
 10
114.2975311056048
 20
65.002396642500045
 30
0.0
 11
113.2511995063048
 21
66.048728241900051
 31
0.0
  0
ARC
  5
12D6
  8
0
 10
109.99999919440479
 20
62.949928427400067
 30
0.0
 40
4.7624999999999984
 50
19.471220634500291
 51
25.528779365500181
  0
LINE
  5
12D7
  8
0
 10
114.4901276827048
 20
64.537428259200055
 30
0.0
 11
111.5874988288048
 21
64.537428259200055
 31
0.0
  0
LINE
  5
12D8
  8
0
 10
111.5874988288048
 20
64.537428259200055
 30
0.0
 11
113.09879881150481
 21
66.048728241900051
 31
0.0
  0
LINE
  5
12D9
  8
0
 10
113.2511995063048
 20
66.048728241900051
 30
0.0
 11
113.09879881150481
 21
66.048728241900051
 31
0.0
  0
LINE
  5
12DA
  8
0
 10
113.09879881150481
 20
66.048728241900051
 30
0.0
 11
113.09879881150481
 21
66.201128005400051
 31
0.0
  0
LINE
  5
12DB
  8
0
 10
113.2511995063048
 20
66.201128005400051
 30
0.0
 11
113.09879881150481
 21
66.201128005400051
 31
0.0
  0
LINE
  5
12DC
  8
0
 10
113.09879881150481
 20
66.201128005400051
 30
0.0
 11
112.0524672121048
 21
67.247459604700055
 31
0.0
  0
ARC
  5
12DD
  8
0
 10
109.99999919440479
 20
62.949928427400067
 30
0.0
 40
4.7625000000000037
 50
44.999999999999559
 51
64.471220634499232
  0
LINE
  5
12DE
  8
0
 10
137.2511987835048
 20
62.873728513100062
 30
0.0
 11
137.2511987835048
 21
63.026128276600062
 31
0.0
  0
LINE
  5
12DF
  8
0
 10
137.2511987835048
 20
63.026128276600062
 30
0.0
 11
138.55744016170479
 21
64.332369654800061
 31
0.0
  0
ARC
  5
12E0
  8
0
 10
133.99999919440481
 20
62.949928427400067
 30
0.0
 40
4.7625000000000171
 50
343.12550570209947
 51
16.87449429790049
  0
LINE
  5
12E1
  8
0
 10
138.55744016170479
 20
61.567487134900048
 30
0.0
 11
137.2511987835048
 21
62.873728513100062
 31
0.0
  0
ARC
  5
12E2
  8
0
 10
109.99999919440479
 20
62.949928427400067
 30
0.0
 40
4.7625000000000064
 50
64.471220634499232
 51
70.528779365500085
  0
LINE
  5
12E3
  8
0
 10
111.5874988288048
 20
64.537428259200055
 30
0.0
 11
111.5874988288048
 21
67.440057113100053
 31
0.0
  0
LINE
  5
12E4
  8
0
 10
135.5874990374048
 20
61.362428530400052
 30
0.0
 11
135.5874990374048
 21
64.537428259200055
 31
0.0
  0
LINE
  5
12E5
  8
0
 10
137.09879902010479
 20
63.026128276600062
 30
0.0
 11
135.5874990374048
 21
64.537428259200055
 31
0.0
  0
LINE
  5
12E6
  8
0
 10
137.09879902010479
 20
63.026128276600062
 30
0.0
 11
137.09879902010479
 21
62.873728513100062
 31
0.0
  0
LINE
  5
12E7
  8
0
 10
135.5874990374048
 20
61.362428530400052
 30
0.0
 11
137.09879902010479
 21
62.873728513100062
 31
0.0
  0
ARC
  5
12E8
  8
0
 10
133.99999919440481
 20
62.949928427400067
 30
0.0
 40
4.7625000000000473
 50
340.5287793654997
 51
343.12550570209947
  0
LINE
  5
12E9
  8
0
 10
135.5874990374048
 20
61.362428530400052
 30
0.0
 11
138.4901269600048
 21
61.362428530400052
 31
0.0
  0
LINE
  5
12EA
  8
0
 10
137.2511987835048
 20
62.873728513100062
 30
0.0
 11
137.09879902010479
 21
62.873728513100062
 31
0.0
  0
LINE
  5
12EB
  8
0
 10
113.2511995063048
 20
59.698728784300059
 30
0.0
 11
113.2511995063048
 21
59.851128547800052
 31
0.0
  0
LINE
  5
12EC
  8
0
 10
113.2511995063048
 20
59.851128547800052
 30
0.0
 11
114.2975311056048
 21
60.897460147100062
 31
0.0
  0
ARC
  5
12ED
  8
0
 10
109.99999919440479
 20
62.949928427400067
 30
0.0
 40
4.762500000000025
 50
315.00000000000051
 51
334.47122063449979
  0
LINE
  5
12EE
  8
0
 10
113.2511995063048
 20
59.698728784300059
 30
0.0
 11
113.3675952703048
 21
59.58233208890006
 31
0.0
  0
LINE
  5
12EF
  8
0
 10
137.09879902010479
 20
63.026128276600062
 30
0.0
 11
137.2511987835048
 21
63.026128276600062
 31
0.0
  0
LINE
  5
12F0
  8
0
 10
138.4901269600048
 20
64.537428259200055
 30
0.0
 11
135.5874990374048
 21
64.537428259200055
 31
0.0
  0
ARC
  5
12F1
  8
0
 10
133.99999919440481
 20
62.949928427400067
 30
0.0
 40
4.7625000000000206
 50
16.87449429790049
 51
19.471220634500291
  0
LINE
  5
12F2
  8
0
 10
113.09879881150481
 20
59.851128547800052
 30
0.0
 11
113.2511995063048
 21
59.851128547800052
 31
0.0
  0
LINE
  5
12F3
  8
0
 10
111.5874988288048
 20
61.362428530400052
 30
0.0
 11
113.09879881150481
 21
59.851128547800052
 31
0.0
  0
LINE
  5
12F4
  8
0
 10
111.5874988288048
 20
61.362428530400052
 30
0.0
 11
114.4901276827048
 21
61.362428530400052
 31
0.0
  0
ARC
  5
12F5
  8
0
 10
109.99999919440479
 20
62.949928427400067
 30
0.0
 40
4.7624999999999869
 50
334.47122063449979
 51
340.5287793654997
  0
LINE
  5
12F6
  8
0
 10
113.09879881150481
 20
59.698728784300059
 30
0.0
 11
113.2511995063048
 21
59.698728784300059
 31
0.0
  0
LINE
  5
12F7
  8
0
 10
113.09879881150481
 20
59.698728784300059
 30
0.0
 11
113.09879881150481
 21
59.851128547800052
 31
0.0
  0
ARC
  5
12F8
  8
0
 10
133.99999919440481
 20
62.949928427400067
 30
0.0
 40
4.7624999999999984
 50
19.471220634500291
 51
25.528779365500181
  0
LINE
  5
12F9
  8
0
 10
135.5874990374048
 20
64.537428259200055
 30
0.0
 11
137.09879902010479
 21
66.048728241900051
 31
0.0
  0
LINE
  5
12FA
  8
0
 10
137.2511987835048
 20
66.048728241900051
 30
0.0
 11
137.09879902010479
 21
66.048728241900051
 31
0.0
  0
LINE
  5
12FB
  8
0
 10
138.2975313142048
 20
65.002396642500045
 30
0.0
 11
137.2511987835048
 21
66.048728241900051
 31
0.0
  0
LINE
  5
12FC
  8
0
 10
135.5874990374048
 20
61.362428530400052
 30
0.0
 11
135.5874990374048
 21
58.459799676500062
 31
0.0
  0
LINE
  5
12FD
  8
0
 10
135.5874990374048
 20
61.362428530400052
 30
0.0
 11
137.09879902010479
 21
59.851128547800052
 31
0.0
  0
LINE
  5
12FE
  8
0
 10
137.09879902010479
 20
59.698728784300059
 30
0.0
 11
137.09879902010479
 21
59.851128547800052
 31
0.0
  0
LINE
  5
12FF
  8
0
 10
136.0524674207048
 20
58.65239718490006
 30
0.0
 11
137.09879902010479
 21
59.698728784300059
 31
0.0
  0
ARC
  5
1300
  8
0
 10
133.99999919440481
 20
62.949928427400067
 30
0.0
 40
4.7624999999999984
 50
289.4712206344999
 51
295.52877936550078
  0
LINE
  5
1301
  8
0
 10
111.5874988288048
 20
61.362428530400052
 30
0.0
 11
111.5874988288048
 21
58.459799676500062
 31
0.0
  0
LINE
  5
1302
  8
0
 10
112.0524672121048
 20
58.65239718490006
 30
0.0
 11
113.09879881150481
 21
59.698728784300059
 31
0.0
  0
ARC
  5
1303
  8
0
 10
109.99999919440479
 20
62.949928427400067
 30
0.0
 40
4.7624999999999931
 50
289.4712206344999
 51
295.52877936550078
  0
ARC
  5
1304
  8
0
 10
109.99999919440479
 20
62.949928427400067
 30
0.0
 40
4.762500000000025
 50
295.52877936550078
 51
315.00000000000051
  0
ARC
  5
1305
  8
0
 10
133.99999919440481
 20
62.949928427400067
 30
0.0
 40
4.762500000000025
 50
295.52877936550078
 51
315.00000000000051
  0
LINE
  5
1306
  8
0
 10
137.09879902010479
 20
59.698728784300059
 30
0.0
 11
137.2511987835048
 21
59.698728784300059
 31
0.0
  0
LINE
  5
1307
  8
0
 10
137.2511987835048
 20
59.698728784300059
 30
0.0
 11
137.3675954789048
 21
59.58233208890006
 31
0.0
  0
ARC
  5
1308
  8
0
 10
133.99999919440481
 20
62.949928427400067
 30
0.0
 40
4.762500000000002
 50
64.471220634499232
 51
70.528779365500085
  0
LINE
  5
1309
  8
0
 10
137.09879902010479
 20
66.201128005400051
 30
0.0
 11
136.0524674207048
 21
67.247459604700055
 31
0.0
  0
LINE
  5
130A
  8
0
 10
137.09879902010479
 20
66.048728241900051
 30
0.0
 11
137.09879902010479
 21
66.201128005400051
 31
0.0
  0
LINE
  5
130B
  8
0
 10
135.5874990374048
 20
64.537428259200055
 30
0.0
 11
135.5874990374048
 21
67.440057113100053
 31
0.0
  0
LINE
  5
130C
  8
0
 10
137.2511987835048
 20
66.048728241900051
 30
0.0
 11
137.2511987835048
 21
66.201128005400051
 31
0.0
  0
LINE
  5
130D
  8
0
 10
137.2511987835048
 20
66.201128005400051
 30
0.0
 11
137.3675954789048
 21
66.317524700700062
 31
0.0
  0
ARC
  5
130E
  8
0
 10
133.99999919440481
 20
62.949928427400067
 30
0.0
 40
4.7625000000000171
 50
25.528779365500181
 51
44.999999999999559
  0
ARC
  5
130F
  8
0
 10
109.99999919440479
 20
62.949928427400067
 30
0.0
 40
4.762500000000033
 50
253.1255057021003
 51
286.87449429789967
  0
LINE
  5
1310
  8
0
 10
108.6175586358048
 20
58.392487406100059
 30
0.0
 11
109.9237990827048
 21
59.698728784300059
 31
0.0
  0
LINE
  5
1311
  8
0
 10
109.9237990827048
 20
59.698728784300059
 30
0.0
 11
110.0761988461048
 21
59.698728784300059
 31
0.0
  0
LINE
  5
1312
  8
0
 10
110.0761988461048
 20
59.698728784300059
 30
0.0
 11
111.38243929300479
 21
58.392487406100059
 31
0.0
  0
LINE
  5
1313
  8
0
 10
137.2511987835048
 20
66.201128005400051
 30
0.0
 11
137.09879902010479
 21
66.201128005400051
 31
0.0
  0
ARC
  5
1314
  8
0
 10
133.99999919440481
 20
62.949928427400067
 30
0.0
 40
4.7625000000000171
 50
44.999999999999559
 51
64.471220634499232
  0
LINE
  5
1315
  8
0
 10
137.09879902010479
 20
59.851128547800052
 30
0.0
 11
137.2511987835048
 21
59.851128547800052
 31
0.0
  0
LINE
  5
1316
  8
0
 10
137.2511987835048
 20
59.698728784300059
 30
0.0
 11
137.2511987835048
 21
59.851128547800052
 31
0.0
  0
ARC
  5
1317
  8
0
 10
133.99999919440481
 20
62.949928427400067
 30
0.0
 40
4.762500000000025
 50
253.1255057021003
 51
286.87449429789967
  0
LINE
  5
1318
  8
0
 10
132.61755884440481
 20
58.392487406100059
 30
0.0
 11
133.92379929130479
 21
59.698728784300059
 31
0.0
  0
LINE
  5
1319
  8
0
 10
133.92379929130479
 20
59.698728784300059
 30
0.0
 11
134.0761990547048
 21
59.698728784300059
 31
0.0
  0
LINE
  5
131A
  8
0
 10
134.0761990547048
 20
59.698728784300059
 30
0.0
 11
135.38243950160481
 21
58.392487406100059
 31
0.0
  0
LINE
  5
131B
  8
0
 10
113.2511995063048
 20
62.873728513100062
 30
0.0
 11
113.2511995063048
 21
63.026128276600062
 31
0.0
  0
LINE
  5
131C
  8
0
 10
113.2511995063048
 20
63.026128276600062
 30
0.0
 11
114.5574399531048
 21
64.332369654800061
 31
0.0
  0
ARC
  5
131D
  8
0
 10
109.99999919440479
 20
62.949928427400067
 30
0.0
 40
4.7625000000000028
 50
343.12550570209947
 51
16.87449429790049
  0
LINE
  5
131E
  8
0
 10
114.5574399531048
 20
61.567487134900048
 30
0.0
 11
113.2511995063048
 21
62.873728513100062
 31
0.0
  0
ARC
  5
131F
  8
0
 10
109.99999919440479
 20
62.949928427400067
 30
0.0
 40
4.7624999999999931
 50
340.5287793654997
 51
343.12550570209947
  0
LINE
  5
1320
  8
0
 10
111.5874988288048
 20
61.362428530400052
 30
0.0
 11
113.09879881150481
 21
62.873728513100062
 31
0.0
  0
LINE
  5
1321
  8
0
 10
113.2511995063048
 20
62.873728513100062
 30
0.0
 11
113.09879881150481
 21
62.873728513100062
 31
0.0
  0
ARC
  5
1322
  8
0
 10
109.99999919440479
 20
62.949928427400067
 30
0.0
 40
4.7625000000000171
 50
250.5287793655001
 51
253.1255057021003
  0
LINE
  5
1323
  8
0
 10
108.41249910000479
 20
61.362428530400052
 30
0.0
 11
108.41249910000479
 21
58.459799676500062
 31
0.0
  0
LINE
  5
1324
  8
0
 10
108.41249910000479
 20
61.362428530400052
 30
0.0
 11
109.9237990827048
 21
59.851128547800052
 31
0.0
  0
LINE
  5
1325
  8
0
 10
109.9237990827048
 20
59.698728784300059
 30
0.0
 11
109.9237990827048
 21
59.851128547800052
 31
0.0
  0
LINE
  5
1326
  8
0
 10
113.09879881150481
 20
63.026128276600062
 30
0.0
 11
113.09879881150481
 21
62.873728513100062
 31
0.0
  0
LINE
  5
1327
  8
0
 10
113.09879881150481
 20
63.026128276600062
 30
0.0
 11
113.2511995063048
 21
63.026128276600062
 31
0.0
  0
ARC
  5
1328
  8
0
 10
133.99999919440481
 20
62.949928427400067
 30
0.0
 40
4.7625000000000091
 50
250.5287793655001
 51
253.1255057021003
  0
LINE
  5
1329
  8
0
 10
132.41249930860479
 20
61.362428530400052
 30
0.0
 11
132.41249930860479
 21
58.459799676500062
 31
0.0
  0
LINE
  5
132A
  8
0
 10
132.41249930860479
 20
61.362428530400052
 30
0.0
 11
133.92379929130479
 21
59.851128547800052
 31
0.0
  0
LINE
  5
132B
  8
0
 10
133.92379929130479
 20
59.698728784300059
 30
0.0
 11
133.92379929130479
 21
59.851128547800052
 31
0.0
  0
LINE
  5
132C
  8
0
 10
109.9237990827048
 20
59.851128547800052
 30
0.0
 11
110.0761988461048
 21
59.851128547800052
 31
0.0
  0
LINE
  5
132D
  8
0
 10
110.0761988461048
 20
59.698728784300059
 30
0.0
 11
110.0761988461048
 21
59.851128547800052
 31
0.0
  0
LINE
  5
132E
  8
0
 10
113.09879881150481
 20
63.026128276600062
 30
0.0
 11
111.5874988288048
 21
64.537428259200055
 31
0.0
  0
ARC
  5
132F
  8
0
 10
109.99999919440479
 20
62.949928427400067
 30
0.0
 40
4.7624999999999931
 50
16.87449429790049
 51
19.471220634500291
  0
ARC
  5
1330
  8
0
 10
133.99999919440481
 20
62.949928427400067
 30
0.0
 40
4.7625000000000171
 50
334.47122063449979
 51
340.5287793654997
  0
LINE
  5
1331
  8
0
 10
137.2511987835048
 20
59.851128547800052
 30
0.0
 11
138.2975313142048
 21
60.897460147100062
 31
0.0
  0
ARC
  5
1332
  8
0
 10
109.99999919440479
 20
62.949928427400067
 30
0.0
 40
4.7625000000000064
 50
244.4712206344993
 51
250.5287793655001
  0
LINE
  5
1333
  8
0
 10
106.9011991173048
 20
59.698728784300059
 30
0.0
 11
107.9475316480048
 21
58.65239718490006
 31
0.0
  0
LINE
  5
1334
  8
0
 10
106.9011991173048
 20
59.851128547800052
 30
0.0
 11
106.9011991173048
 21
59.698728784300059
 31
0.0
  0
LINE
  5
1335
  8
0
 10
108.41249910000479
 20
61.362428530400052
 30
0.0
 11
106.9011991173048
 21
59.851128547800052
 31
0.0
  0
ARC
  5
1336
  8
0
 10
133.99999919440481
 20
62.949928427400067
 30
0.0
 40
4.7625000000000064
 50
244.4712206344993
 51
250.5287793655001
  0
LINE
  5
1337
  8
0
 10
130.9011993259048
 20
59.698728784300059
 30
0.0
 11
131.94753092530479
 21
58.65239718490006
 31
0.0
  0
LINE
  5
1338
  8
0
 10
130.9011993259048
 20
59.851128547800052
 30
0.0
 11
130.9011993259048
 21
59.698728784300059
 31
0.0
  0
LINE
  5
1339
  8
0
 10
132.41249930860479
 20
61.362428530400052
 30
0.0
 11
130.9011993259048
 21
59.851128547800052
 31
0.0
  0
ARC
  5
133A
  8
0
 10
109.99999919440479
 20
62.949928427400067
 30
0.0
 40
4.7625000000000064
 50
224.9999999999996
 51
244.4712206344993
  0
LINE
  5
133B
  8
0
 10
106.7487993539048
 20
59.698728784300059
 30
0.0
 11
106.6324026585048
 21
59.58233208890006
 31
0.0
  0
LINE
  5
133C
  8
0
 10
106.7487993539048
 20
59.698728784300059
 30
0.0
 11
106.9011991173048
 21
59.698728784300059
 31
0.0
  0
ARC
  5
133D
  8
0
 10
133.99999919440481
 20
62.949928427400067
 30
0.0
 40
4.7625000000000064
 50
224.9999999999996
 51
244.4712206344993
  0
LINE
  5
133E
  8
0
 10
130.74879909680479
 20
59.698728784300059
 30
0.0
 11
130.63240333280481
 21
59.58233208890006
 31
0.0
  0
LINE
  5
133F
  8
0
 10
130.74879909680479
 20
59.698728784300059
 30
0.0
 11
130.9011993259048
 21
59.698728784300059
 31
0.0
  0
LINE
  5
1340
  8
0
 10
108.41249910000479
 20
61.362428530400052
 30
0.0
 11
111.5874988288048
 21
61.362428530400052
 31
0.0
  0
LINE
  5
1341
  8
0
 10
110.0761988461048
 20
59.851128547800052
 30
0.0
 11
111.5874988288048
 21
61.362428530400052
 31
0.0
  0
ARC
  5
1342
  8
0
 10
133.99999919440481
 20
62.949928427400067
 30
0.0
 40
4.762500000000025
 50
315.00000000000051
 51
334.47122063449979
  0
LINE
  5
1343
  8
0
 10
106.7487993539048
 20
59.851128547800052
 30
0.0
 11
106.7487993539048
 21
59.698728784300059
 31
0.0
  0
LINE
  5
1344
  8
0
 10
106.7487993539048
 20
59.851128547800052
 30
0.0
 11
106.9011991173048
 21
59.851128547800052
 31
0.0
  0
LINE
  5
1345
  8
0
 10
105.7024677545048
 20
60.897460147100062
 30
0.0
 11
106.7487993539048
 21
59.851128547800052
 31
0.0
  0
ARC
  5
1346
  8
0
 10
109.99999919440479
 20
62.949928427400067
 30
0.0
 40
4.7625000000000082
 50
199.4712206345003
 51
205.52877936550021
  0
LINE
  5
1347
  8
0
 10
108.41249910000479
 20
61.362428530400052
 30
0.0
 11
105.5098702461048
 21
61.362428530400052
 31
0.0
  0
LINE
  5
1348
  8
0
 10
130.74879909680479
 20
59.851128547800052
 30
0.0
 11
130.74879909680479
 21
59.698728784300059
 31
0.0
  0
LINE
  5
1349
  8
0
 10
130.74879909680479
 20
59.851128547800052
 30
0.0
 11
130.9011993259048
 21
59.851128547800052
 31
0.0
  0
LINE
  5
134A
  8
0
 10
133.92379929130479
 20
59.851128547800052
 30
0.0
 11
134.0761990547048
 21
59.851128547800052
 31
0.0
  0
LINE
  5
134B
  8
0
 10
134.0761990547048
 20
59.698728784300059
 30
0.0
 11
134.0761990547048
 21
59.851128547800052
 31
0.0
  0
LINE
  5
134C
  8
0
 10
132.41249930860479
 20
61.362428530400052
 30
0.0
 11
135.5874990374048
 21
61.362428530400052
 31
0.0
  0
LINE
  5
134D
  8
0
 10
134.0761990547048
 20
59.851128547800052
 30
0.0
 11
135.5874990374048
 21
61.362428530400052
 31
0.0
  0
LINE
  5
134E
  8
0
 10
129.70246703180479
 20
60.897460147100062
 30
0.0
 11
130.74879909680479
 21
59.851128547800052
 31
0.0
  0
ARC
  5
134F
  8
0
 10
133.99999919440481
 20
62.949928427400067
 30
0.0
 40
4.7625000000000126
 50
199.4712206345003
 51
205.52877936550021
  0
LINE
  5
1350
  8
0
 10
132.41249930860479
 20
61.362428530400052
 30
0.0
 11
129.50987092040481
 21
61.362428530400052
 31
0.0
  0
LINE
  5
1351
  8
0
 10
130.9011993259048
 20
63.026128276600062
 30
0.0
 11
130.9011993259048
 21
62.873728513100062
 31
0.0
  0
LINE
  5
1352
  8
0
 10
132.41249930860479
 20
64.537428259200055
 30
0.0
 11
130.9011993259048
 21
63.026128276600062
 31
0.0
  0
LINE
  5
1353
  8
0
 10
132.41249930860479
 20
64.537428259200055
 30
0.0
 11
132.41249930860479
 21
61.362428530400052
 31
0.0
  0
LINE
  5
1354
  8
0
 10
130.9011993259048
 20
62.873728513100062
 30
0.0
 11
132.41249930860479
 21
61.362428530400052
 31
0.0
  0
ARC
  5
1355
  8
0
 10
133.99999919440481
 20
62.949928427400067
 30
0.0
 40
4.7624999999999851
 50
196.87449429790041
 51
199.4712206345003
  0
LINE
  5
1356
  8
0
 10
130.74879909680479
 20
62.873728513100062
 30
0.0
 11
129.4425586500048
 21
61.567487134900048
 31
0.0
  0
LINE
  5
1357
  8
0
 10
130.74879909680479
 20
62.873728513100062
 30
0.0
 11
130.9011993259048
 21
62.873728513100062
 31
0.0
  0
ARC
  5
1358
  8
0
 10
109.99999919440479
 20
62.949928427400067
 30
0.0
 40
4.7625000000000117
 50
196.87449429790041
 51
199.4712206345003
  0
LINE
  5
1359
  8
0
 10
106.7487993539048
 20
62.873728513100062
 30
0.0
 11
105.4425579757048
 21
61.567487134900048
 31
0.0
  0
LINE
  5
135A
  8
0
 10
106.7487993539048
 20
62.873728513100062
 30
0.0
 11
106.9011991173048
 21
62.873728513100062
 31
0.0
  0
LINE
  5
135B
  8
0
 10
106.9011991173048
 20
62.873728513100062
 30
0.0
 11
108.41249910000479
 21
61.362428530400052
 31
0.0
  0
LINE
  5
135C
  8
0
 10
106.9011991173048
 20
63.026128276600062
 30
0.0
 11
106.9011991173048
 21
62.873728513100062
 31
0.0
  0
LINE
  5
135D
  8
0
 10
108.41249910000479
 20
64.537428259200055
 30
0.0
 11
106.9011991173048
 21
63.026128276600062
 31
0.0
  0
LINE
  5
135E
  8
0
 10
108.41249910000479
 20
64.537428259200055
 30
0.0
 11
108.41249910000479
 21
61.362428530400052
 31
0.0
  0
LINE
  5
135F
  8
0
 10
106.7487993539048
 20
63.026128276600062
 30
0.0
 11
106.7487993539048
 21
62.873728513100062
 31
0.0
  0
LINE
  5
1360
  8
0
 10
106.7487993539048
 20
63.026128276600062
 30
0.0
 11
106.9011991173048
 21
63.026128276600062
 31
0.0
  0
LINE
  5
1361
  8
0
 10
130.74879909680479
 20
63.026128276600062
 30
0.0
 11
130.74879909680479
 21
62.873728513100062
 31
0.0
  0
LINE
  5
1362
  8
0
 10
130.74879909680479
 20
63.026128276600062
 30
0.0
 11
130.9011993259048
 21
63.026128276600062
 31
0.0
  0
LINE
  5
1363
  8
0
 10
105.4425579757048
 20
64.332369654800061
 30
0.0
 11
106.7487993539048
 21
63.026128276600062
 31
0.0
  0
ARC
  5
1364
  8
0
 10
109.99999919440479
 20
62.949928427400067
 30
0.0
 40
4.7625000000000171
 50
160.5287793654997
 51
163.1255057020995
  0
LINE
  5
1365
  8
0
 10
108.41249910000479
 20
64.537428259200055
 30
0.0
 11
105.5098702461048
 21
64.537428259200055
 31
0.0
  0
ARC
  5
1366
  8
0
 10
109.99999919440479
 20
62.949928427400067
 30
0.0
 40
4.762499999999994
 50
106.8744942978997
 51
109.4712206344999
  0
LINE
  5
1367
  8
0
 10
109.9237990827048
 20
66.201128005400051
 30
0.0
 11
108.6175586358048
 21
67.50736938360005
 31
0.0
  0
LINE
  5
1368
  8
0
 10
109.9237990827048
 20
66.048728241900051
 30
0.0
 11
109.9237990827048
 21
66.201128005400051
 31
0.0
  0
LINE
  5
1369
  8
0
 10
109.9237990827048
 20
66.048728241900051
 30
0.0
 11
108.41249910000479
 21
64.537428259200055
 31
0.0
  0
LINE
  5
136A
  8
0
 10
108.41249910000479
 20
64.537428259200055
 30
0.0
 11
108.41249910000479
 21
67.440057113100053
 31
0.0
  0
LINE
  5
136B
  8
0
 10
129.4425586500048
 20
64.332369654800061
 30
0.0
 11
130.74879909680479
 21
63.026128276600062
 31
0.0
  0
ARC
  5
136C
  8
0
 10
133.99999919440481
 20
62.949928427400067
 30
0.0
 40
4.7624999999999797
 50
160.5287793654997
 51
163.1255057020995
  0
LINE
  5
136D
  8
0
 10
132.41249930860479
 20
64.537428259200055
 30
0.0
 11
129.50987092040481
 21
64.537428259200055
 31
0.0
  0
LINE
  5
136E
  8
0
 10
111.5874988288048
 20
64.537428259200055
 30
0.0
 11
108.41249910000479
 21
64.537428259200055
 31
0.0
  0
LINE
  5
136F
  8
0
 10
109.9237990827048
 20
66.048728241900051
 30
0.0
 11
110.0761988461048
 21
66.048728241900051
 31
0.0
  0
LINE
  5
1370
  8
0
 10
111.5874988288048
 20
64.537428259200055
 30
0.0
 11
110.0761988461048
 21
66.048728241900051
 31
0.0
  0
LINE
  5
1371
  8
0
 10
110.0761988461048
 20
66.201128005400051
 30
0.0
 11
109.9237990827048
 21
66.201128005400051
 31
0.0
  0
LINE
  5
1372
  8
0
 10
110.0761988461048
 20
66.201128005400051
 30
0.0
 11
110.0761988461048
 21
66.048728241900051
 31
0.0
  0
ARC
  5
1373
  8
0
 10
133.99999919440481
 20
62.949928427400067
 30
0.0
 40
4.7624999999999851
 50
106.8744942978997
 51
109.4712206344999
  0
LINE
  5
1374
  8
0
 10
133.92379929130479
 20
66.201128005400051
 30
0.0
 11
132.61755884440481
 21
67.50736938360005
 31
0.0
  0
LINE
  5
1375
  8
0
 10
133.92379929130479
 20
66.048728241900051
 30
0.0
 11
133.92379929130479
 21
66.201128005400051
 31
0.0
  0
LINE
  5
1376
  8
0
 10
133.92379929130479
 20
66.048728241900051
 30
0.0
 11
132.41249930860479
 21
64.537428259200055
 31
0.0
  0
LINE
  5
1377
  8
0
 10
132.41249930860479
 20
64.537428259200055
 30
0.0
 11
132.41249930860479
 21
67.440057113100053
 31
0.0
  0
LINE
  5
1378
  8
0
 10
111.5874988288048
 20
61.362428530400052
 30
0.0
 11
111.5874988288048
 21
64.537428259200055
 31
0.0
  0
LINE
  5
1379
  8
0
 10
135.5874990374048
 20
64.537428259200055
 30
0.0
 11
132.41249930860479
 21
64.537428259200055
 31
0.0
  0
LINE
  5
137A
  8
0
 10
133.92379929130479
 20
66.048728241900051
 30
0.0
 11
134.0761990547048
 21
66.048728241900051
 31
0.0
  0
LINE
  5
137B
  8
0
 10
135.5874990374048
 20
64.537428259200055
 30
0.0
 11
134.0761990547048
 21
66.048728241900051
 31
0.0
  0
LINE
  5
137C
  8
0
 10
134.0761990547048
 20
66.201128005400051
 30
0.0
 11
133.92379929130479
 21
66.201128005400051
 31
0.0
  0
LINE
  5
137D
  8
0
 10
134.0761990547048
 20
66.201128005400051
 30
0.0
 11
134.0761990547048
 21
66.048728241900051
 31
0.0
  0
LINE
  5
137E
  8
0
 10
111.38243929300479
 20
67.50736938360005
 30
0.0
 11
110.0761988461048
 21
66.201128005400051
 31
0.0
  0
ARC
  5
137F
  8
0
 10
109.99999919440479
 20
62.949928427400067
 30
0.0
 40
4.7624999999999869
 50
70.528779365500085
 51
73.125505702100284
  0
ARC
  5
1380
  8
0
 10
109.99999919440479
 20
62.949928427400067
 30
0.0
 40
4.7624999999999904
 50
73.125505702100284
 51
106.8744942978997
  0
ARC
  5
1381
  8
0
 10
133.99999919440481
 20
62.949928427400067
 30
0.0
 40
4.762500000000025
 50
286.87449429789967
 51
289.4712206344999
  0
ARC
  5
1382
  8
0
 10
109.99999919440479
 20
62.949928427400067
 30
0.0
 40
4.762500000000025
 50
286.87449429789967
 51
289.4712206344999
  0
ARC
  5
1383
  8
0
 10
133.99999919440481
 20
62.949928427400067
 30
0.0
 40
4.7625000000000108
 50
154.47122063449979
 51
160.5287793654997
  0
LINE
  5
1384
  8
0
 10
130.74879909680479
 20
66.048728241900051
 30
0.0
 11
129.70246703180479
 21
65.002396642500045
 31
0.0
  0
LINE
  5
1385
  8
0
 10
130.9011993259048
 20
66.048728241900051
 30
0.0
 11
130.74879909680479
 21
66.048728241900051
 31
0.0
  0
LINE
  5
1386
  8
0
 10
132.41249930860479
 20
64.537428259200055
 30
0.0
 11
130.9011993259048
 21
66.048728241900051
 31
0.0
  0
LINE
  5
1387
  8
0
 10
135.38243950160481
 20
67.50736938360005
 30
0.0
 11
134.0761990547048
 21
66.201128005400051
 31
0.0
  0
ARC
  5
1388
  8
0
 10
133.99999919440481
 20
62.949928427400067
 30
0.0
 40
4.7624999999999984
 50
70.528779365500085
 51
73.125505702100284
  0
ARC
  5
1389
  8
0
 10
133.99999919440481
 20
62.949928427400067
 30
0.0
 40
4.7625000000000179
 50
109.4712206344999
 51
115.5287793655007
  0
LINE
  5
138A
  8
0
 10
130.9011993259048
 20
66.201128005400051
 30
0.0
 11
130.9011993259048
 21
66.048728241900051
 31
0.0
  0
LINE
  5
138B
  8
0
 10
131.94753092530479
 20
67.247459604700055
 30
0.0
 11
130.9011993259048
 21
66.201128005400051
 31
0.0
  0
ARC
  5
138C
  8
0
 10
109.99999919440479
 20
62.949928427400067
 30
0.0
 40
4.7624999999999957
 50
205.52877936550021
 51
224.9999999999996
  0
LINE
  5
138D
  8
0
 10
130.74879909680479
 20
66.201128005400051
 30
0.0
 11
130.74879909680479
 21
66.048728241900051
 31
0.0
  0
LINE
  5
138E
  8
0
 10
130.9011993259048
 20
66.201128005400051
 30
0.0
 11
130.74879909680479
 21
66.201128005400051
 31
0.0
  0
ARC
  5
138F
  8
0
 10
133.99999919440481
 20
62.949928427400067
 30
0.0
 40
4.762499999999994
 50
205.52877936550021
 51
224.9999999999996
  0
ARC
  5
1390
  8
0
 10
133.99999919440481
 20
62.949928427400067
 30
0.0
 40
4.7624999999999984
 50
73.125505702100284
 51
106.8744942978997
  0
ARC
  5
1391
  8
0
 10
109.99999919440479
 20
62.949928427400067
 30
0.0
 40
4.7625000000000082
 50
109.4712206344999
 51
115.5287793655007
  0
LINE
  5
1392
  8
0
 10
108.41249910000479
 20
64.537428259200055
 30
0.0
 11
106.9011991173048
 21
66.048728241900051
 31
0.0
  0
LINE
  5
1393
  8
0
 10
106.9011991173048
 20
66.201128005400051
 30
0.0
 11
106.9011991173048
 21
66.048728241900051
 31
0.0
  0
LINE
  5
1394
  8
0
 10
107.9475316480048
 20
67.247459604700055
 30
0.0
 11
106.9011991173048
 21
66.201128005400051
 31
0.0
  0
ARC
  5
1395
  8
0
 10
109.99999919440479
 20
62.949928427400067
 30
0.0
 40
4.7625000000000171
 50
154.47122063449979
 51
160.5287793654997
  0
LINE
  5
1396
  8
0
 10
106.7487993539048
 20
66.048728241900051
 30
0.0
 11
105.7024677545048
 21
65.002396642500045
 31
0.0
  0
LINE
  5
1397
  8
0
 10
106.9011991173048
 20
66.048728241900051
 30
0.0
 11
106.7487993539048
 21
66.048728241900051
 31
0.0
  0
ARC
  5
1398
  8
0
 10
109.99999919440479
 20
62.949928427400067
 30
0.0
 40
4.7624999999999869
 50
163.1255057020995
 51
196.87449429790041
  0
LINE
  5
1399
  8
0
 10
106.9011991173048
 20
66.201128005400051
 30
0.0
 11
106.7487993539048
 21
66.201128005400051
 31
0.0
  0
LINE
  5
139A
  8
0
 10
106.7487993539048
 20
66.201128005400051
 30
0.0
 11
106.6324026585048
 21
66.317524700700062
 31
0.0
  0
ARC
  5
139B
  8
0
 10
109.99999919440479
 20
62.949928427400067
 30
0.0
 40
4.7624999999999957
 50
115.5287793655007
 51
135.0000000000004
  0
ARC
  5
139C
  8
0
 10
109.99999919440479
 20
62.949928427400067
 30
0.0
 40
4.7624999999999957
 50
135.0000000000004
 51
154.47122063449979
  0
LINE
  5
139D
  8
0
 10
106.7487993539048
 20
66.201128005400051
 30
0.0
 11
106.7487993539048
 21
66.048728241900051
 31
0.0
  0
LINE
  5
139E
  8
0
 10
134.0761990547048
 20
62.873728513100062
 30
0.0
 11
135.5874990374048
 21
61.362428530400052
 31
0.0
  0
LINE
  5
139F
  8
0
 10
134.0761990547048
 20
62.873728513100062
 30
0.0
 11
134.0761990547048
 21
63.026128276600062
 31
0.0
  0
LINE
  5
13A0
  8
0
 10
135.5874990374048
 20
64.537428259200055
 30
0.0
 11
134.0761990547048
 21
63.026128276600062
 31
0.0
  0
LINE
  5
13A1
  8
0
 10
109.9237990827048
 20
63.026128276600062
 30
0.0
 11
108.41249910000479
 21
64.537428259200055
 31
0.0
  0
LINE
  5
13A2
  8
0
 10
109.9237990827048
 20
63.026128276600062
 30
0.0
 11
109.9237990827048
 21
62.873728513100062
 31
0.0
  0
LINE
  5
13A3
  8
0
 10
109.9237990827048
 20
62.873728513100062
 30
0.0
 11
108.41249910000479
 21
61.362428530400052
 31
0.0
  0
LINE
  5
13A4
  8
0
 10
133.92379929130479
 20
63.026128276600062
 30
0.0
 11
132.41249930860479
 21
64.537428259200055
 31
0.0
  0
LINE
  5
13A5
  8
0
 10
133.92379929130479
 20
63.026128276600062
 30
0.0
 11
133.92379929130479
 21
62.873728513100062
 31
0.0
  0
LINE
  5
13A6
  8
0
 10
133.92379929130479
 20
62.873728513100062
 30
0.0
 11
132.41249930860479
 21
61.362428530400052
 31
0.0
  0
LINE
  5
13A7
  8
0
 10
133.92379929130479
 20
62.873728513100062
 30
0.0
 11
134.0761990547048
 21
62.873728513100062
 31
0.0
  0
LINE
  5
13A8
  8
0
 10
110.0761988461048
 20
62.873728513100062
 30
0.0
 11
111.5874988288048
 21
61.362428530400052
 31
0.0
  0
LINE
  5
13A9
  8
0
 10
110.0761988461048
 20
62.873728513100062
 30
0.0
 11
110.0761988461048
 21
63.026128276600062
 31
0.0
  0
LINE
  5
13AA
  8
0
 10
111.5874988288048
 20
64.537428259200055
 30
0.0
 11
110.0761988461048
 21
63.026128276600062
 31
0.0
  0
LINE
  5
13AB
  8
0
 10
109.9237990827048
 20
62.873728513100062
 30
0.0
 11
110.0761988461048
 21
62.873728513100062
 31
0.0
  0
ARC
  5
13AC
  8
0
 10
133.99999919440481
 20
62.949928427400067
 30
0.0
 40
4.7624999999999691
 50
163.1255057020995
 51
196.87449429790041
  0
LINE
  5
13AD
  8
0
 10
110.0761988461048
 20
63.026128276600062
 30
0.0
 11
109.9237990827048
 21
63.026128276600062
 31
0.0
  0
LINE
  5
13AE
  8
0
 10
134.0761990547048
 20
63.026128276600062
 30
0.0
 11
133.92379929130479
 21
63.026128276600062
 31
0.0
  0
LINE
  5
13AF
  8
0
 10
130.74879909680479
 20
66.201128005400051
 30
0.0
 11
130.63240333280481
 21
66.317524700700062
 31
0.0
  0
ARC
  5
13B0
  8
0
 10
133.99999919440481
 20
62.949928427400067
 30
0.0
 40
4.7624999999999931
 50
115.5287793655007
 51
135.0000000000004
  0
ARC
  5
13B1
  8
0
 10
133.99999919440481
 20
62.949928427400067
 30
0.0
 40
4.7624999999999771
 50
135.0000000000004
 51
154.47122063449979
  0
CIRCLE
  5
13B2
  8
0
 10
109.99999919440479
 20
62.949928427400067
 30
0.0
 40
5.8699999999913919
  0
CIRCLE
  5
13B3
  8
0
 10
109.99999919440479
 20
62.949928427400067
 30
0.0
 40
6.0000000000000266
  0
CIRCLE
  5
13B4
  8
0
 10
109.99999919440479
 20
62.949928427400067
 30
0.0
 40
4.9549999999629497
  0
CIRCLE
  5
13B5
  8
0
 10
133.99999919440481
 20
62.949928427400067
 30
0.0
 40
5.8699999999903696
  0
CIRCLE
  5
13B6
  8
0
 10
133.99999919440481
 20
62.949928427400067
 30
0.0
 40
4.9550000000208163
  0
CIRCLE
  5
13B7
  8
0
 10
133.99999919440481
 20
62.949928427400067
 30
0.0
 40
6.0
  0
LINE
  5
13F9
  8
0
 10
30.0
 20
68.949928447000048
 30
0.0
 11
29.405000528700018
 21
68.949928447000048
 31
0.0
  0
LINE
  5
13FA
  8
0
 10
29.405000528700018
 20
56.94992834260006
 30
0.0
 11
30.0
 21
56.94992834260006
 31
0.0
  0
LINE
  5
13FB
  8
0
 10
29.405000528700018
 20
68.949928447000048
 30
0.0
 11
29.274999073200011
 21
68.819928854100112
 31
0.0
  0
LINE
  5
13FC
  8
0
 10
29.274999073200011
 20
57.079927935500109
 30
0.0
 11
29.405000528700018
 21
56.94992834260006
 31
0.0
  0
LINE
  5
13FD
  8
0
 10
29.405000528700018
 20
68.949928447000048
 30
0.0
 11
29.405000528700018
 21
56.94992834260006
 31
0.0
  0
LINE
  5
13FE
  8
0
 10
29.274999073200011
 20
68.819928854100112
 30
0.0
 11
29.274999073200011
 21
57.079927935500109
 31
0.0
  0
LINE
  5
1407
  8
0
 10
27.999999842100049
 20
62.873728513100048
 30
0.0
 11
27.999999842100049
 21
63.02612827650006
 31
0.0
  0
LINE
  5
1408
  8
0
 10
27.999999842100049
 20
63.02612827650006
 30
0.0
 11
29.274999073200011
 21
64.301127507600086
 31
0.0
  0
LINE
  5
1409
  8
0
 10
29.274999073200011
 20
61.598729282000022
 30
0.0
 11
27.999999842100049
 21
62.873728513100048
 31
0.0
  0
LINE
  5
140A
  8
0
 10
27.999999842100049
 20
59.698728784300101
 30
0.0
 11
27.999999842100049
 21
59.85112854770005
 31
0.0
  0
LINE
  5
140B
  8
0
 10
27.999999842100049
 20
59.698728784300101
 30
0.0
 11
29.274999073200011
 21
58.423729553199841
 31
0.0
  0
LINE
  5
140C
  8
0
 10
27.999999842100049
 20
59.85112854770005
 30
0.0
 11
29.274999073200021
 21
61.126127778921997
 31
0.0
  0
LINE
  5
140D
  8
0
 10
27.999999842100049
 20
66.048728241900051
 30
0.0
 11
27.999999842100049
 21
66.201128005300063
 31
0.0
  0
LINE
  5
140E
  8
0
 10
27.999999842100049
 20
66.201128005300063
 30
0.0
 11
29.274999073200011
 21
67.476127236400359
 31
0.0
  0
LINE
  5
140F
  8
0
 10
29.274999073200021
 20
64.773729010678224
 30
0.0
 11
27.999999842100049
 21
66.048728241900051
 31
0.0
  0
LINE
  5
1459
  8
2
 10
127.0529999999999
 20
51.949928774800043
 30
0.0
 11
127.053
 21
53.699928774800043
 31
0.0
  0
LINE
  5
145A
  8
2
 10
116.947
 20
51.549928774800037
 30
0.0
 11
116.9469999999999
 21
30.00000000000006
 31
0.0
  0
LINE
  5
145B
  8
3
 10
116.947
 20
51.549928774800037
 30
0.0
 11
116.947
 21
51.949928774800043
 31
0.0
  0
LINE
  5
145C
  8
3
 10
127.0529999999999
 20
51.549928774800037
 30
0.0
 11
127.0529999999999
 21
51.949928774800043
 31
0.0
  0
LINE
  5
14EF
  8
2
 10
30.0
 20
130.94992877479999
 30
0.0
 11
70.0
 21
130.94992877479999
 31
0.0
  0
LINE
  5
14F0
  8
2
 10
30.0
 20
114.9499287748001
 30
0.0
 11
70.0
 21
114.9499287748001
 31
0.0
  0
ENDSEC
  0
EOF
