  0
SECTION
  2
HEADER
  9
$ACADVER
  1
AC1009
  9
$INSBASE
 10
0.0
 20
0.0
 30
0.0
  9
$EXTMIN
 10
0.0
 20
-2.960436562073669
 30
0.0
  9
$EXTMAX
 10
325.38630533700388
 20
243.15557553956839
 30
0.0
  9
$LIMMIN
 10
0.0
 20
0.0
  9
$LIMMAX
 10
375.0
 20
270.0
  9
$ORTHOMODE
 70
     1
  9
$REGENMODE
 70
     1
  9
$FILLMODE
 70
     1
  9
$QTEXTMODE
 70
     0
  9
$MIRRTEXT
 70
     0
  9
$DRAGMODE
 70
     2
  9
$LTSCALE
 40
10.0
  9
$OSMODE
 70
  3071
  9
$ATTMODE
 70
     1
  9
$TEXTSIZE
 40
0.2
  9
$TRACEWID
 40
0.05
  9
$TEXTSTYLE
  7
SIM080
  9
$CLAYER
  8
0
  9
$CELTYPE
  6
BYLAYER
  9
$CECOLOR
 62
   256
  9
$DIMSCALE
 40
1.0
  9
$DIMASZ
 40
3.0
  9
$DIMEXO
 40
2.0
  9
$DIMDLI
 40
0.38
  9
$DIMRND
 40
0.0
  9
$DIMDLE
 40
0.0
  9
$DIMEXE
 40
2.0
  9
$DIMTP
 40
0.0
  9
$DIMTM
 40
0.0
  9
$DIMTXT
 40
3.2000000000000002
  9
$DIMCEN
 40
0.0
  9
$DIMTSZ
 40
0.0
  9
$DIMTOL
 70
     0
  9
$DIMLIM
 70
     0
  9
$DIMTIH
 70
     0
  9
$DIMTOH
 70
     0
  9
$DIMSE1
 70
     0
  9
$DIMSE2
 70
     0
  9
$DIMTAD
 70
     1
  9
$DIMZIN
 70
     0
  9
$DIMBLK
  1

  9
$DIMASO
 70
     0
  9
$DIMSHO
 70
     0
  9
$DIMPOST
  1

  9
$DIMAPOST
  1

  9
$DIMALT
 70
     0
  9
$DIMALTD
 70
     2
  9
$DIMALTF
 40
25.399999999999999
  9
$DIMLFAC
 40
1.0
  9
$DIMTOFL
 70
     1
  9
$DIMTVP
 40
1.6000000000000001
  9
$DIMTIX
 70
     1
  9
$DIMSOXD
 70
     0
  9
$DIMSAH
 70
     0
  9
$DIMBLK1
  1

  9
$DIMBLK2
  1

  9
$DIMSTYLE
  2
STANDARD
  9
$DIMCLRD
 70
     0
  9
$DIMCLRE
 70
     0
  9
$DIMCLRT
 70
     0
  9
$DIMTFAC
 40
1.0
  9
$DIMGAP
 40
0.09
  9
$LUNITS
 70
     2
  9
$LUPREC
 70
     4
  9
$SKETCHINC
 40
0.1
  9
$FILLETRAD
 40
0.0
  9
$AUNITS
 70
     0
  9
$AUPREC
 70
     4
  9
$MENU
  1
E:\r13\win\SUPPORT\ACAD
  9
$ELEVATION
 40
0.0
  9
$PELEVATION
 40
0.0
  9
$THICKNESS
 40
0.0
  9
$LIMCHECK
 70
     0
  9
$BLIPMODE
 70
     0
  9
$CHAMFERA
 40
0.0
  9
$CHAMFERB
 40
0.0
  9
$SKPOLY
 70
     0
  9
$TDCREATE
 40
2449840.646701389
  9
$TDUPDATE
 40
2456597.669828889
  9
$TDINDWG
 40
0.0052945486
  9
$TDUSRTIMER
 40
0.0052945486
  9
$USRTIMER
 70
     1
  9
$ANGBASE
 50
0.0
  9
$ANGDIR
 70
     0
  9
$PDMODE
 70
     0
  9
$PDSIZE
 40
0.0
  9
$PLINEWID
 40
0.0
  9
$COORDS
 70
     1
  9
$SPLFRAME
 70
     0
  9
$SPLINETYPE
 70
     6
  9
$SPLINESEGS
 70
     8
  9
$ATTDIA
 70
     0
  9
$ATTREQ
 70
     1
  9
$HANDLING
 70
     1
  9
$HANDSEED
  5
222
  9
$SURFTAB1
 70
     6
  9
$SURFTAB2
 70
     6
  9
$SURFTYPE
 70
     6
  9
$SURFU
 70
     6
  9
$SURFV
 70
     6
  9
$UCSNAME
  2

  9
$UCSORG
 10
0.0
 20
0.0
 30
0.0
  9
$UCSXDIR
 10
1.0
 20
0.0
 30
0.0
  9
$UCSYDIR
 10
0.0
 20
1.0
 30
0.0
  9
$PUCSNAME
  2

  9
$PUCSORG
 10
0.0
 20
0.0
 30
0.0
  9
$PUCSXDIR
 10
1.0
 20
0.0
 30
0.0
  9
$PUCSYDIR
 10
0.0
 20
1.0
 30
0.0
  9
$USERI1
 70
     0
  9
$USERI2
 70
     1
  9
$USERI3
 70
     0
  9
$USERI4
 70
     0
  9
$USERI5
 70
     0
  9
$USERR1
 40
0.0
  9
$USERR2
 40
0.0
  9
$USERR3
 40
0.0
  9
$USERR4
 40
0.0
  9
$USERR5
 40
0.0
  9
$WORLDVIEW
 70
     1
  9
$SHADEDGE
 70
     3
  9
$SHADEDIF
 70
    70
  9
$TILEMODE
 70
     1
  9
$MAXACTVP
 70
    16
  9
$PLIMCHECK
 70
     0
  9
$PEXTMIN
 10
1.0000000000000000E+020
 20
1.0000000000000000E+020
 30
1.0000000000000000E+020
  9
$PEXTMAX
 10
-1.0000000000000000E+020
 20
-1.0000000000000000E+020
 30
-1.0000000000000000E+020
  9
$PLIMMIN
 10
0.0
 20
0.0
  9
$PLIMMAX
 10
12.0
 20
9.0
  9
$UNITMODE
 70
     0
  9
$VISRETAIN
 70
     0
  9
$PLINEGEN
 70
     0
  9
$PSLTSCALE
 70
     0
  0
ENDSEC
  0
SECTION
  2
TABLES
  0
TABLE
  2
VPORT
 70
     1
  0
VPORT
  2
*ACTIVE
 70
     0
 10
0.0
 20
0.0
 11
1.0
 21
1.0
 12
187.49427839065231
 22
134.10366293909439
 13
0.0
 23
0.0
 14
10.0
 24
10.0
 15
10.0
 25
10.0
 16
0.0
 26
0.0
 36
1.0
 17
0.0
 27
0.0
 37
0.0
 40
277.29405978699532
 41
2.304913294797688
 42
50.0
 43
0.0
 44
0.0
 50
0.0
 51
0.0
 71
     0
 72
   500
 73
     1
 74
     0
 75
     0
 76
     0
 77
     0
 78
     2
  0
ENDTAB
  0
TABLE
  2
LTYPE
 70
     3
  0
LTYPE
  2
CONTINUOUS
 70
     0
  3
Solid Line
 72
    65
 73
     0
 40
0.0
  0
LTYPE
  2
CENTER
 70
     0
  3
____ _ ____ _ ____ _ ____ _ ____ _ ____ _ ____
 72
    65
 73
     4
 40
2.0
 49
1.25
 49
-0.25
 49
0.25
 49
-0.25
  0
LTYPE
  2
PHANTOM2
 70
     0
  3
___ _ _ ___ _ _ ___ _ _ ___ _ _
 72
    65
 73
     6
 40
1.25
 49
0.625
 49
-0.125
 49
0.125
 49
-0.125
 49
0.125
 49
-0.125
  0
ENDTAB
  0
TABLE
  2
LAYER
 70
     3
  0
LAYER
  2
0
 70
     0
 62
     7
  6
CONTINUOUS
  0
LAYER
  2
1
 70
     0
 62
     1
  6
CENTER
  0
LAYER
  2
3
 70
     0
 62
     3
  6
CONTINUOUS
  0
ENDTAB
  0
TABLE
  2
STYLE
 70
     5
  0
STYLE
  2
STANDARD
 70
     0
 40
0.0
 41
1.0
 50
0.0
 71
     0
 42
0.2
  3
romans.shx
  4

  0
STYLE
  2
K80
 70
     0
 40
0.0
 41
1.0
 50
0.0
 71
     0
 42
0.2
  3
romans.shx
  4

  0
STYLE
  2
08000
 70
     0
 40
0.0
 41
1.0
 50
0.0
 71
     0
 42
0.2
  3
romans.shx
  4

  0
STYLE
  2
SIM080
 70
     0
 40
0.0
 41
1.0
 50
0.0
 71
     0
 42
0.2
  3
romans.shx
  4

  0
STYLE
  2
STANDARD1
 70
     0
 40
0.0
 41
1.0
 50
0.0
 71
     0
 42
3.0
  3
txt
  4

  0
ENDTAB
  0
TABLE
  2
VIEW
 70
     1
  0
VIEW
  2
ALL
 70
     0
 40
270.0
 10
220.99159663865549
 20
135.0
 41
0.0
 11
0.0
 21
0.0
 31
1.0
 12
0.0
 22
0.0
 32
0.0
 42
0.0
 43
0.0
 44
0.0
 50
0.0
 71
     0
  0
ENDTAB
  0
TABLE
  2
UCS
 70
     0
  0
ENDTAB
  0
TABLE
  2
APPID
 70
     3
  0
APPID
  2
ACAD
 70
     0
  0
APPID
  2
ACAD_MLEADERVER
 70
     0
  0
APPID
  2
ACAD_NAV_VCDISPLAY
 70
     0
  0
ENDTAB
  0
TABLE
  2
DIMSTYLE
 70
     1
  0
DIMSTYLE
  2
STANDARD
 70
     0
  3

  4

  5

  6

  7

 40
1.0
 41
0.18
 42
0.0625
 43
0.38
 44
0.18
 45
0.0
 46
0.0
 47
0.0
 48
0.0
140
0.18
141
0.09
142
0.0
143
25.399999999999999
144
1.0
145
0.0
146
1.0
147
0.09
 71
     0
 72
     0
 73
     1
 74
     1
 75
     0
 76
     0
 77
     0
 78
     0
170
     0
171
     2
172
     0
173
     0
174
     0
175
     0
176
     0
177
     0
178
     0
  0
ENDTAB
  0
ENDSEC
  0
SECTION
  2
BLOCKS
  0
BLOCK
  8
0
  2
$MODEL_SPACE
 70
     0
 10
0.0
 20
0.0
 30
0.0
  3
$MODEL_SPACE
  1

  0
ENDBLK
  5
B9
  8
0
  0
BLOCK
 67
     1
  8
0
  2
$PAPER_SPACE
 70
     0
 10
0.0
 20
0.0
 30
0.0
  3
$PAPER_SPACE
  1

  0
ENDBLK
  5
B7
 67
     1
  8
0
  0
ENDSEC
  0
SECTION
  2
ENTITIES
  0
LINE
  5
36
  8
1
 10
325.38630533700388
 20
165.0
 30
0.0
 11
310.88630533700388
 21
165.0
 31
0.0
  0
LINE
  5
37
  8
1
 10
325.38630533700388
 20
134.0
 30
0.0
 11
310.88630533700388
 21
134.0
 31
0.0
  0
LINE
  5
38
  8
1
 10
325.38630533700388
 20
118.0
 30
0.0
 11
310.88630533700388
 21
118.0
 31
0.0
  0
LINE
  5
39
  8
0
 10
320.38630533700388
 20
185.0
 30
0.0
 11
320.38630533700388
 21
110.0
 31
0.0
  0
LINE
  5
3A
  8
0
 10
315.88630533700388
 20
185.0
 30
0.0
 11
320.38630533700388
 21
185.0
 31
0.0
  0
LINE
  5
3B
  8
0
 10
315.88630533700388
 20
110.0
 30
0.0
 11
315.88630533700388
 21
185.0
 31
0.0
  0
LINE
  5
3C
  8
0
 10
320.38630533700388
 20
110.0
 30
0.0
 11
315.88630533700388
 21
110.0
 31
0.0
  0
TEXT
  5
3D
  8
0
 10
203.01487676557531
 20
144.25
 30
0.0
 40
4.5
  1
T
 50
360.0
 41
0.8
  7
08000
 72
     4
 11
204.3863053370039
 21
146.5
 31
0.0
  0
TEXT
  5
3E
  8
0
 10
198.6720196227181
 20
144.25
 30
0.0
 40
4.5
  1
5
 41
0.8
  7
08000
 72
     4
 11
200.3863053370039
 21
146.5
 31
0.0
  0
TEXT
  5
3F
  8
0
 10
194.6720196227181
 20
144.25
 30
0.0
 40
4.5
  1
7
 41
0.8
  7
08000
 72
     4
 11
196.38630533700379
 21
146.5
 31
0.0
  0
TEXT
  5
40
  8
0
 10
190.15773390843239
 20
144.57142857142861
 30
0.0
 40
4.5
  1
-
 50
360.0
 41
0.8
  7
08000
 72
     4
 11
192.38630533700379
 21
146.5
 31
0.0
  0
TEXT
  5
41
  8
0
 10
186.92916247986099
 20
144.25
 30
0.0
 40
4.5
  1
1
 41
0.8
  7
08000
 72
     4
 11
188.3863053370039
 21
146.5
 31
0.0
  0
TEXT
  5
42
  8
0
 10
182.5005910512896
 20
144.25
 30
0.0
 40
4.5
  1
P
 50
360.0
 41
0.8
  7
08000
 72
     4
 11
184.3863053370039
 21
146.5
 31
0.0
  0
TEXT
  5
43
  8
0
 10
178.6720196227181
 20
144.25
 30
0.0
 40
4.5
  1
S
 50
360.0
 41
0.8
  7
08000
 72
     4
 11
180.3863053370039
 21
146.5
 31
0.0
  0
TEXT
  5
46
  8
0
 10
174.329162479861
 20
144.25
 30
0.0
 40
4.5
  1
M
 50
360.0
 41
0.8
  7
08000
 72
     4
 11
176.38630533700379
 21
146.5
 31
0.0
  0
ARC
  5
47
  8
0
 10
216.3863053370039
 20
114.0
 30
0.0
 40
4.0
 50
270.0
 51
0.0000000000000127
  0
ARC
  5
48
  8
0
 10
164.38630533700379
 20
114.0
 30
0.0
 40
4.0
 50
180.0
 51
269.99999999999989
  0
ARC
  5
49
  8
0
 10
164.38630533700379
 20
181.0
 30
0.0
 40
4.0
 50
90.0
 51
179.99999999999989
  0
ARC
  5
4A
  8
0
 10
216.3863053370039
 20
181.0
 30
0.0
 40
4.0
 50
0.0
 51
90.0
  0
LINE
  5
4B
  8
1
 10
178.88630533700379
 20
118.0
 30
0.0
 11
161.8863053370039
 21
118.0
 31
0.0
  0
LINE
  5
4C
  8
1
 10
178.88630533700379
 20
134.0
 30
0.0
 11
161.8863053370039
 21
134.0
 31
0.0
  0
LINE
  5
4D
  8
1
 10
184.68630533700389
 20
165.0
 30
0.0
 11
170.686305337004
 21
165.0
 31
0.0
  0
LINE
  5
4E
  8
1
 10
170.3863053370039
 20
142.5
 30
0.0
 11
170.3863053370039
 21
109.5
 31
0.0
  0
LINE
  5
4F
  8
0
 10
166.8863053370039
 20
118.0
 30
0.0
 11
166.8863053370039
 21
134.0
 31
0.0
  0
LINE
  5
50
  8
0
 10
173.8863053370039
 20
118.0
 30
0.0
 11
173.8863053370039
 21
134.0
 31
0.0
  0
ARC
  5
51
  8
0
 10
170.3863053370039
 20
134.0
 30
0.0
 40
3.5
 50
0.0
 51
180.0
  0
ARC
  5
52
  8
0
 10
170.3863053370039
 20
118.0
 30
0.0
 40
3.5
 50
180.0
 51
360.0
  0
CIRCLE
  5
53
  8
0
 10
177.68630533700389
 20
165.0
 30
0.0
 40
1.6209999999999991
  0
CIRCLE
  5
54
  8
3
 10
177.68630533700389
 20
165.0
 30
0.0
 40
2.0
  0
LINE
  5
55
  8
1
 10
177.68630533700389
 20
158.0
 30
0.0
 11
177.68630533700389
 21
171.99999999999989
 31
0.0
  0
LINE
  5
56
  8
1
 10
203.08630533700389
 20
158.0
 30
0.0
 11
203.08630533700389
 21
171.99999999999989
 31
0.0
  0
CIRCLE
  5
57
  8
3
 10
203.08630533700389
 20
165.0
 30
0.0
 40
2.0
  0
CIRCLE
  5
58
  8
0
 10
203.08630533700389
 20
165.0
 30
0.0
 40
1.6209999999999991
  0
ARC
  5
59
  8
0
 10
210.3863053370039
 20
118.0
 30
0.0
 40
3.5
 50
180.0
 51
0.0
  0
ARC
  5
5A
  8
0
 10
210.3863053370039
 20
134.0
 30
0.0
 40
3.5
 50
0.0
 51
180.0
  0
LINE
  5
5B
  8
0
 10
206.8863053370039
 20
118.0
 30
0.0
 11
206.8863053370039
 21
134.0
 31
0.0
  0
LINE
  5
5C
  8
0
 10
213.8863053370039
 20
118.0
 30
0.0
 11
213.8863053370039
 21
134.0
 31
0.0
  0
LINE
  5
5D
  8
1
 10
210.3863053370039
 20
142.5
 30
0.0
 11
210.3863053370039
 21
109.5
 31
0.0
  0
LINE
  5
5E
  8
1
 10
196.08630533700381
 20
165.0
 30
0.0
 11
210.08630533700381
 21
165.0
 31
0.0
  0
LINE
  5
5F
  8
1
 10
201.8863053370039
 20
134.0
 30
0.0
 11
218.8863053370039
 21
134.0
 31
0.0
  0
LINE
  5
60
  8
1
 10
201.8863053370039
 20
118.0
 30
0.0
 11
218.8863053370039
 21
118.0
 31
0.0
  0
LINE
  5
61
  8
0
 10
164.38630533700379
 20
185.0
 30
0.0
 11
216.3863053370039
 21
185.0
 31
0.0
  0
LINE
  5
62
  8
0
 10
164.38630533700379
 20
110.0
 30
0.0
 11
216.3863053370039
 21
110.0
 31
0.0
  0
LINE
  5
63
  8
0
 10
160.3863053370039
 20
181.0
 30
0.0
 11
160.3863053370039
 21
114.0
 31
0.0
  0
LINE
  5
64
  8
0
 10
220.3863053370039
 20
181.0
 30
0.0
 11
220.3863053370039
 21
114.0
 31
0.0
  0
LINE
  5
65
  8
0
 10
65.348270932617652
 20
110.0
 30
0.0
 11
60.848270932617652
 21
110.0
 31
0.0
  0
LINE
  5
66
  8
0
 10
60.848270932617652
 20
110.0
 30
0.0
 11
60.848270932617652
 21
185.0
 31
0.0
  0
LINE
  5
67
  8
0
 10
60.848270932617652
 20
185.0
 30
0.0
 11
65.348270932617652
 21
185.0
 31
0.0
  0
LINE
  5
68
  8
0
 10
65.348270932617652
 20
185.0
 30
0.0
 11
65.348270932617652
 21
110.0
 31
0.0
  0
LINE
  5
69
  8
1
 10
70.348270932617652
 20
118.0
 30
0.0
 11
55.848270932617652
 21
118.0
 31
0.0
  0
LINE
  5
6A
  8
1
 10
70.348270932617652
 20
134.0
 30
0.0
 11
55.848270932617652
 21
134.0
 31
0.0
  0
LINE
  5
6B
  8
1
 10
70.348270932617652
 20
165.0
 30
0.0
 11
55.848270932617652
 21
165.0
 31
0.0
  0
LINE
  5
6C
  8
0
 10
164.38630533700379
 20
233.6555755395683
 30
0.0
 11
216.3863053370039
 21
233.6555755395683
 31
0.0
  0
LINE
  5
6D
  8
0
 10
164.38630533700379
 20
238.15557553956839
 30
0.0
 11
216.3863053370039
 21
238.15557553956839
 31
0.0
  0
LINE
  5
6E
  8
0
 10
216.3863053370039
 20
238.15557553956839
 30
0.0
 11
216.3863053370039
 21
233.6555755395683
 31
0.0
  0
LINE
  5
6F
  8
0
 10
164.38630533700379
 20
238.15557553956839
 30
0.0
 11
164.38630533700379
 21
233.6555755395683
 31
0.0
  0
LINE
  5
70
  8
1
 10
210.3863053370039
 20
228.6555755395683
 30
0.0
 11
210.3863053370039
 21
243.15557553956839
 31
0.0
  0
LINE
  5
71
  8
1
 10
203.08630533700381
 20
228.6555755395683
 30
0.0
 11
203.08630533700389
 21
243.15557553956839
 31
0.0
  0
LINE
  5
72
  8
1
 10
177.68630533700389
 20
228.65557553956839
 30
0.0
 11
177.6863053370038
 21
243.15557553956839
 31
0.0
  0
LINE
  5
73
  8
1
 10
170.3863053370039
 20
228.6555755395683
 30
0.0
 11
170.3863053370039
 21
243.1555755395683
 31
0.0
  0
LINE
  5
74
  8
1
 10
170.3863053370039
 20
39.428956834532357
 30
0.0
 11
170.3863053370039
 21
53.928956834532357
 31
0.0
  0
LINE
  5
75
  8
1
 10
177.68630533700389
 20
39.428956834532393
 30
0.0
 11
177.6863053370038
 21
53.928956834532393
 31
0.0
  0
LINE
  5
76
  8
1
 10
203.08630533700381
 20
39.428956834532357
 30
0.0
 11
203.08630533700389
 21
53.928956834532393
 31
0.0
  0
LINE
  5
77
  8
1
 10
210.3863053370039
 20
39.428956834532357
 30
0.0
 11
210.3863053370039
 21
53.928956834532393
 31
0.0
  0
LINE
  5
78
  8
0
 10
164.38630533700379
 20
48.928956834532393
 30
0.0
 11
164.38630533700379
 21
44.428956834532379
 31
0.0
  0
LINE
  5
79
  8
0
 10
216.3863053370039
 20
48.928956834532393
 30
0.0
 11
216.3863053370039
 21
44.428956834532379
 31
0.0
  0
LINE
  5
7A
  8
0
 10
164.38630533700379
 20
48.928956834532393
 30
0.0
 11
216.3863053370039
 21
48.928956834532393
 31
0.0
  0
LINE
  5
7B
  8
0
 10
164.38630533700379
 20
44.428956834532379
 30
0.0
 11
216.3863053370039
 21
44.428956834532379
 31
0.0
  0
LINE
  5
7C
  8
1
 10
190.3863053370039
 20
190.0
 30
0.0
 11
190.3863053370039
 21
105.0
 31
0.0
  0
TEXT
  5
DF
  8
0
 10
174.330919645557
 20
149.97112017119611
 30
0.0
 40
4.2000000000000002
  1
Venlic
  7
K80
  0
LINE
  5
E0
  8
0
 10
177.68517583885659
 20
154.1433086728434
 30
0.0
 11
184.6909848830033
 21
154.1433086728434
 31
0.0
  0
TEXT
  5
192
  8
0
 62
     3
 10
0.0
 20
0.0
 30
0.0
 40
10.0
  1
MSP1-75T
  7
STANDARD1
  0
ENDSEC
  0
EOF
