  0
SECTION
  2
HEADER
  9
$ACADVER
  1
AC1009
  9
$INSBASE
 10
82.638099999999994
 20
103.82319099999999
 30
0.0
  9
$EXTMIN
 10
0.0
 20
-1.4802182810368341
 30
0.0
  9
$EXTMAX
 10
54.345156889495229
 20
30.636614868285111
 30
0.0
  9
$LIMMIN
 10
0.0
 20
0.0
  9
$LIMMAX
 10
187.5
 20
135.0
  9
$ORTHOMODE
 70
     1
  9
$REGENMODE
 70
     1
  9
$FILLMODE
 70
     1
  9
$QTEXTMODE
 70
     0
  9
$MIRRTEXT
 70
     0
  9
$DRAGMODE
 70
     2
  9
$LTSCALE
 40
5.0
  9
$OSMODE
 70
    37
  9
$ATTMODE
 70
     1
  9
$TEXTSIZE
 40
0.06
  9
$TRACEWID
 40
0.05
  9
$TEXTSTYLE
  7
STANDARD
  9
$CLAYER
  8
0
  9
$CELTYPE
  6
BYLAYER
  9
$CECOLOR
 62
   256
  9
$DIMSCALE
 40
0.5
  9
$DIMASZ
 40
3.0
  9
$DIMEXO
 40
2.0
  9
$DIMDLI
 40
10.0
  9
$DIMRND
 40
0.0
  9
$DIMDLE
 40
0.0
  9
$DIMEXE
 40
2.0
  9
$DIMTP
 40
0.0
  9
$DIMTM
 40
0.0
  9
$DIMTXT
 40
3.0
  9
$DIMCEN
 40
0.0
  9
$DIMTSZ
 40
0.0
  9
$DIMTOL
 70
     0
  9
$DIMLIM
 70
     0
  9
$DIMTIH
 70
     0
  9
$DIMTOH
 70
     0
  9
$DIMSE1
 70
     0
  9
$DIMSE2
 70
     0
  9
$DIMTAD
 70
     1
  9
$DIMZIN
 70
     0
  9
$DIMBLK
  1

  9
$DIMASO
 70
     1
  9
$DIMSHO
 70
     0
  9
$DIMPOST
  1

  9
$DIMAPOST
  1

  9
$DIMALT
 70
     0
  9
$DIMALTD
 70
     2
  9
$DIMALTF
 40
25.399999999999999
  9
$DIMLFAC
 40
1.0
  9
$DIMTOFL
 70
     1
  9
$DIMTVP
 40
1.6000000000000001
  9
$DIMTIX
 70
     1
  9
$DIMSOXD
 70
     0
  9
$DIMSAH
 70
     0
  9
$DIMBLK1
  1

  9
$DIMBLK2
  1

  9
$DIMSTYLE
  2
STANDARD
  9
$DIMCLRD
 70
     0
  9
$DIMCLRE
 70
     0
  9
$DIMCLRT
 70
     0
  9
$DIMTFAC
 40
1.0
  9
$DIMGAP
 40
0.09
  9
$LUNITS
 70
     2
  9
$LUPREC
 70
     4
  9
$SKETCHINC
 40
0.1
  9
$FILLETRAD
 40
0.0
  9
$AUNITS
 70
     0
  9
$AUPREC
 70
     4
  9
$MENU
  1
E:\r13\win\SUPPORT\ACAD
  9
$ELEVATION
 40
0.0
  9
$PELEVATION
 40
0.0
  9
$THICKNESS
 40
0.0
  9
$LIMCHECK
 70
     0
  9
$BLIPMODE
 70
     0
  9
$CHAMFERA
 40
0.0
  9
$CHAMFERB
 40
0.0
  9
$SKPOLY
 70
     0
  9
$TDCREATE
 40
2449840.5918518519
  9
$TDUPDATE
 40
2456598.724599109
  9
$TDINDWG
 40
0.0081012153
  9
$TDUSRTIMER
 40
2456598.1014541551
  9
$USRTIMER
 70
     1
  9
$ANGBASE
 50
0.0
  9
$ANGDIR
 70
     0
  9
$PDMODE
 70
     1
  9
$PDSIZE
 40
0.0
  9
$PLINEWID
 40
0.0
  9
$COORDS
 70
     1
  9
$SPLFRAME
 70
     0
  9
$SPLINETYPE
 70
     6
  9
$SPLINESEGS
 70
     8
  9
$ATTDIA
 70
     0
  9
$ATTREQ
 70
     1
  9
$HANDLING
 70
     1
  9
$HANDSEED
  5
409
  9
$SURFTAB1
 70
     6
  9
$SURFTAB2
 70
     6
  9
$SURFTYPE
 70
     6
  9
$SURFU
 70
     6
  9
$SURFV
 70
     6
  9
$UCSNAME
  2

  9
$UCSORG
 10
0.0
 20
0.0
 30
0.0
  9
$UCSXDIR
 10
1.0
 20
0.0
 30
0.0
  9
$UCSYDIR
 10
0.0
 20
1.0
 30
0.0
  9
$PUCSNAME
  2

  9
$PUCSORG
 10
0.0
 20
0.0
 30
0.0
  9
$PUCSXDIR
 10
1.0
 20
0.0
 30
0.0
  9
$PUCSYDIR
 10
0.0
 20
1.0
 30
0.0
  9
$USERI1
 70
     3
  9
$USERI2
 70
     1
  9
$USERI3
 70
     1
  9
$USERI4
 70
     0
  9
$USERI5
 70
     0
  9
$USERR1
 40
0.5
  9
$USERR2
 40
3.0
  9
$USERR3
 40
3.0
  9
$USERR4
 40
3.0
  9
$USERR5
 40
10.0
  9
$WORLDVIEW
 70
     1
  9
$SHADEDGE
 70
     3
  9
$SHADEDIF
 70
    70
  9
$TILEMODE
 70
     1
  9
$MAXACTVP
 70
    16
  9
$PLIMCHECK
 70
     0
  9
$PEXTMIN
 10
1.0000000000000000E+020
 20
1.0000000000000000E+020
 30
1.0000000000000000E+020
  9
$PEXTMAX
 10
-1.0000000000000000E+020
 20
-1.0000000000000000E+020
 30
-1.0000000000000000E+020
  9
$PLIMMIN
 10
0.0
 20
0.0
  9
$PLIMMAX
 10
12.0
 20
9.0
  9
$UNITMODE
 70
     0
  9
$VISRETAIN
 70
     0
  9
$PLINEGEN
 70
     0
  9
$PSLTSCALE
 70
     0
  0
ENDSEC
  0
SECTION
  2
TABLES
  0
TABLE
  2
VPORT
 70
     1
  0
VPORT
  2
*ACTIVE
 70
     0
 10
0.0
 20
0.0
 11
1.0
 21
1.0
 12
93.74713919532617
 22
88.76102906355564
 13
0.0
 23
0.0
 14
5.0
 24
5.0
 15
10.0
 25
10.0
 16
0.0
 26
0.0
 36
1.0
 17
0.0
 27
0.0
 37
0.0
 40
182.06542508151449
 41
1.755244755244755
 42
50.0
 43
0.0
 44
0.0
 50
0.0
 51
0.0
 71
     0
 72
   100
 73
     1
 74
     0
 75
     0
 76
     0
 77
     0
 78
     2
  0
ENDTAB
  0
TABLE
  2
LTYPE
 70
     4
  0
LTYPE
  2
CONTINUOUS
 70
     0
  3
Solid Line
 72
    65
 73
     0
 40
0.0
  0
LTYPE
  2
CENTER
 70
     0
  3
____ _ ____ _ ____ _ ____ _ ____ _ ____ _ ____
 72
    65
 73
     4
 40
2.0
 49
1.25
 49
-0.25
 49
0.25
 49
-0.25
  0
LTYPE
  2
HIDDEN
 70
     0
  3
__ __ __ __ __ __ __ __ __ __ __ __ __ __ __ __
 72
    65
 73
     2
 40
0.375
 49
0.25
 49
-0.125
  0
LTYPE
  2
PHANTOM2
 70
     0
  3
___ _ _ ___ _ _ ___ _ _ ___ _ _
 72
    65
 73
     6
 40
1.25
 49
0.625
 49
-0.125
 49
0.125
 49
-0.125
 49
0.125
 49
-0.125
  0
ENDTAB
  0
TABLE
  2
LAYER
 70
     3
  0
LAYER
  2
0
 70
     0
 62
     7
  6
CONTINUOUS
  0
LAYER
  2
1
 70
     0
 62
     1
  6
CENTER
  0
LAYER
  2
2
 70
     0
 62
     2
  6
HIDDEN
  0
ENDTAB
  0
TABLE
  2
STYLE
 70
     2
  0
STYLE
  2
STANDARD
 70
     0
 40
0.0
 41
1.0
 50
0.0
 71
     0
 42
0.06
  3
TXT
  4
BIGFONT
  0
STYLE
  2
STANDARD1
 70
     0
 40
0.0
 41
1.0
 50
0.0
 71
     0
 42
3.0
  3
txt
  4

  0
ENDTAB
  0
TABLE
  2
VIEW
 70
     0
  0
ENDTAB
  0
TABLE
  2
UCS
 70
     0
  0
ENDTAB
  0
TABLE
  2
APPID
 70
     3
  0
APPID
  2
ACAD
 70
     0
  0
APPID
  2
ACAD_MLEADERVER
 70
     0
  0
APPID
  2
ACAD_NAV_VCDISPLAY
 70
     0
  0
ENDTAB
  0
TABLE
  2
DIMSTYLE
 70
     1
  0
DIMSTYLE
  2
STANDARD
 70
     0
  3

  4

  5

  6

  7

 40
1.0
 41
0.18
 42
0.0625
 43
0.38
 44
0.18
 45
0.0
 46
0.0
 47
0.0
 48
0.0
140
0.18
141
0.09
142
0.0
143
25.399999999999999
144
1.0
145
0.0
146
1.0
147
0.09
 71
     0
 72
     0
 73
     1
 74
     1
 75
     0
 76
     0
 77
     0
 78
     0
170
     0
171
     2
172
     0
173
     0
174
     0
175
     0
176
     0
177
     0
178
     0
  0
ENDTAB
  0
ENDSEC
  0
SECTION
  2
BLOCKS
  0
BLOCK
  8
0
  2
$MODEL_SPACE
 70
     0
 10
0.0
 20
0.0
 30
0.0
  3
$MODEL_SPACE
  1

  0
ENDBLK
  5
BD
  8
0
  0
BLOCK
 67
     1
  8
0
  2
$PAPER_SPACE
 70
     0
 10
0.0
 20
0.0
 30
0.0
  3
$PAPER_SPACE
  1

  0
ENDBLK
  5
BB
 67
     1
  8
0
  0
ENDSEC
  0
SECTION
  2
ENTITIES
  0
LINE
  5
19F
  8
0
 10
32.95104720709675
 20
19.636614868285129
 30
0.0
 11
32.95104720709675
 21
27.636614868285189
 31
0.0
  0
LINE
  5
1A1
  8
0
 10
34.230447207096759
 20
19.763614868285011
 30
0.0
 11
34.230447207096759
 21
27.50961486828508
 31
0.0
  0
LINE
  5
1A4
  8
0
 10
34.357447207097003
 20
27.636614868285118
 30
0.0
 11
34.357447207097032
 21
19.636614868285129
 31
0.0
  0
LINE
  5
1A6
  8
0
 10
43.697047207097008
 20
26.8746148682851
 30
0.0
 11
43.697047207097008
 21
20.398614868285161
 31
0.0
  0
LINE
  5
1A7
  8
0
 10
42.935047207097007
 20
19.636614868285129
 30
0.0
 11
42.935047207096979
 21
27.636614868285118
 31
0.0
  0
ARC
  5
1A9
  8
0
 10
32.954169110893289
 20
25.018351109831301
 30
0.0
 40
1.241345178998748
 50
101.95431370279471
 51
134.89295596590989
  0
ARC
  5
1AA
  8
0
 10
32.954169110893289
 20
22.25487862673895
 30
0.0
 40
1.241345178998716
 50
225.10704403408769
 51
258.04568629720518
  0
POLYLINE
  5
1AB
  8
0
 66
     1
 10
0.0
 20
0.0
 30
0.0
 70
   128
  0
VERTEX
  5
3AF
  8
0
 10
32.697047207096958
 20
27.288825162266601
 30
0.0
  0
VERTEX
  5
3B0
  8
0
 10
32.705531731972208
 20
27.38178898434732
 30
0.0
  0
VERTEX
  5
3B1
  8
0
 10
32.740120555703832
 20
27.489630562455361
 30
0.0
  0
VERTEX
  5
3B2
  8
0
 10
32.793058922914852
 20
27.56920718931125
 30
0.0
  0
VERTEX
  5
3B3
  8
0
 10
32.830167221872117
 20
27.6024470987558
 30
0.0
  0
VERTEX
  5
3B4
  8
0
 10
32.852719300038999
 20
27.616780773816039
 30
0.0
  0
VERTEX
  5
3B5
  8
0
 10
32.851414545844257
 20
27.616010923877109
 30
0.0
  0
SEQEND
  5
3B6
  8
0
  0
LINE
  5
1AC
  8
0
 10
32.697047207096993
 20
27.231216606287951
 30
0.0
 11
32.697047207096993
 21
27.28882516226664
 31
0.0
  0
POLYLINE
  5
1AD
  8
0
 66
     1
 10
0.0
 20
0.0
 30
0.0
 70
   128
  0
VERTEX
  5
3B7
  8
0
 10
32.697047207096958
 20
26.383025673853052
 30
0.0
  0
VERTEX
  5
3B8
  8
0
 10
32.705531731972208
 20
26.527127715437171
 30
0.0
  0
VERTEX
  5
3B9
  8
0
 10
32.740120555703832
 20
26.715050630851842
 30
0.0
  0
VERTEX
  5
3BA
  8
0
 10
32.793058922914852
 20
26.886740555810469
 30
0.0
  0
VERTEX
  5
3BB
  8
0
 10
32.830167221872117
 20
26.987090110860361
 30
0.0
  0
VERTEX
  5
3BC
  8
0
 10
32.852719300038999
 20
27.075840298474461
 30
0.0
  0
VERTEX
  5
3BD
  8
0
 10
32.842004924860149
 20
27.133727160667299
 30
0.0
  0
VERTEX
  5
3BE
  8
0
 10
32.812502398022289
 20
27.178297363335481
 30
0.0
  0
VERTEX
  5
3BF
  8
0
 10
32.756253984827609
 20
27.224406253788551
 30
0.0
  0
VERTEX
  5
3C0
  8
0
 10
32.712633855940922
 20
27.235580166713511
 30
0.0
  0
VERTEX
  5
3C1
  8
0
 10
32.711507100066129
 20
27.234166010696899
 30
0.0
  0
SEQEND
  5
3C2
  8
0
  0
LINE
  5
1AE
  8
0
 10
32.697047207096993
 20
26.18411240252545
 30
0.0
 11
32.697047207096993
 21
26.38302567385313
 31
0.0
  0
ARC
  5
1AF
  8
0
 10
29.913007089234739
 20
25.462720015267319
 30
0.0
 40
2.8759844148152802
 50
345.47317758928273
 51
14.52682241071831
  0
LINE
  5
1B0
  8
0
 10
32.697047207096993
 20
24.469607046222759
 30
0.0
 11
32.697047207096993
 21
24.741327628008982
 31
0.0
  0
LINE
  5
1B1
  8
0
 10
32.697047207096993
 20
22.531902108540152
 30
0.0
 11
32.697047207096993
 21
22.803622690320768
 31
0.0
  0
ARC
  5
1B2
  8
0
 10
30.111396540195319
 20
21.81050972128272
 30
0.0
 40
2.6843986938684159
 50
344.41098298006659
 51
15.589017019933729
  0
LINE
  5
1B3
  8
0
 10
32.697047207096993
 20
20.89020406269908
 30
0.0
 11
32.697047207096993
 21
21.0891173340253
 31
0.0
  0
POLYLINE
  5
1B4
  8
0
 66
     1
 10
0.0
 20
0.0
 30
0.0
 70
   128
  0
VERTEX
  5
3C3
  8
0
 10
32.712577312444772
 20
20.040527225012891
 30
0.0
  0
VERTEX
  5
3C4
  8
0
 10
32.740120555703832
 20
20.041431686188311
 30
0.0
  0
VERTEX
  5
3C5
  8
0
 10
32.793058922914852
 20
20.0752908503379
 30
0.0
  0
VERTEX
  5
3C6
  8
0
 10
32.830167221872117
 20
20.118067193390662
 30
0.0
  0
VERTEX
  5
3C7
  8
0
 10
32.852719300038999
 20
20.181990727540931
 30
0.0
  0
VERTEX
  5
3C8
  8
0
 10
32.842004924860149
 20
20.250827356156531
 30
0.0
  0
VERTEX
  5
3C9
  8
0
 10
32.812502398022289
 20
20.333794518940898
 30
0.0
  0
VERTEX
  5
3CA
  8
0
 10
32.756253984827609
 20
20.49881729904488
 30
0.0
  0
VERTEX
  5
3CB
  8
0
 10
32.712633855940922
 20
20.693455502767311
 30
0.0
  0
VERTEX
  5
3CC
  8
0
 10
32.697047207096958
 20
20.890204062698931
 30
0.0
  0
SEQEND
  5
3CD
  8
0
  0
LINE
  5
1B5
  8
0
 10
32.697047207096993
 20
19.98440457429945
 30
0.0
 11
32.697047207096993
 21
20.042013130282289
 31
0.0
  0
ARC
  5
1B6
  8
0
 10
33.05053479679858
 20
19.951173061485811
 30
0.0
 40
0.3550462075801742
 50
174.62938498335001
 51
235.88747099717381
  0
ARC
  5
1B7
  8
0
 10
32.625584909754352
 20
23.380903428295319
 30
0.0
 40
1.2080875857616951
 50
86.608789222441757
 51
127.7431996770014
  0
ARC
  5
1B8
  8
0
 10
32.625584909754352
 20
23.89232630827474
 30
0.0
 40
1.2080875857615321
 50
232.25680032299971
 51
273.39121077756482
  0
ARC
  5
1B9
  8
0
 10
28.962542953444391
 20
23.636614868271771
 30
0.0
 40
3.8262773016442022
 50
347.4258431349129
 51
12.574156865088201
  0
LINE
  5
1BA
  8
0
 10
34.09704720709702
 20
19.636614868285129
 30
0.0
 11
34.097047207096992
 21
27.636614868285118
 31
0.0
  0
LINE
  5
1BC
  8
0
 10
34.103447207096892
 20
26.636614868285172
 30
0.0
 11
34.09704720709702
 21
26.636614868285172
 31
0.0
  0
LINE
  5
1BD
  8
0
 10
34.09704720709702
 20
20.636614868285069
 30
0.0
 11
34.103447207096892
 21
20.636614868285069
 31
0.0
  0
ARC
  5
1BE
  8
0
 10
34.103447207096892
 20
26.76361486828505
 30
0.0
 40
0.1270000000000201
 50
270.0
 51
0.0
  0
ARC
  5
1BF
  8
0
 10
34.103447207096892
 20
20.50961486828502
 30
0.0
 40
0.1270000000000201
 50
0.0
 51
90.0
  0
LINE
  5
1C0
  8
0
 10
34.230447207096759
 20
19.763614868285011
 30
0.0
 11
34.357447207097032
 21
19.636614868285129
 31
0.0
  0
LINE
  5
1C1
  8
0
 10
34.357447207097032
 20
27.636614868285118
 30
0.0
 11
34.230447207096759
 21
27.50961486828507
 31
0.0
  0
LINE
  5
1C2
  8
0
 10
34.357447207097032
 20
19.636614868285129
 30
0.0
 11
42.935047207097007
 21
19.636614868285129
 31
0.0
  0
LINE
  5
1C3
  8
0
 10
42.935047207097007
 20
27.636614868285118
 30
0.0
 11
34.357447207097032
 21
27.636614868285118
 31
0.0
  0
LINE
  5
1C4
  8
0
 10
43.697047207097008
 20
26.874614868285089
 30
0.0
 11
42.935047207097007
 21
27.636614868285118
 31
0.0
  0
LINE
  5
1C5
  8
0
 10
42.935047207097007
 20
19.636614868285129
 30
0.0
 11
43.697047207097008
 21
20.398614868285161
 31
0.0
  0
ARC
  5
1C6
  8
0
 10
33.086109707096838
 20
26.24755236828512
 30
0.0
 40
1.3890625000000161
 50
99.729675773930936
 51
187.23342613305661
  0
ARC
  5
1C7
  8
0
 10
33.086109707096838
 20
21.02567736828512
 30
0.0
 40
1.389062500000013
 50
172.76657386690391
 51
260.27066541939757
  0
ARC
  5
1C8
  8
0
 10
34.078297207096838
 20
23.636614868285118
 30
0.0
 40
2.3812500000000041
 50
161.81594163997829
 51
198.18405835999729
  0
ARC
  5
1C9
  8
0
 10
33.086109707096838
 20
21.375476665591751
 30
0.0
 40
1.389062500000009
 50
159.8793578385505
 51
254.36821398933591
  0
ARC
  5
1CA
  8
0
 10
33.086109707096838
 20
25.89775307097851
 30
0.0
 40
1.389062500000013
 50
105.6578201447399
 51
200.120642161451
  0
ARC
  5
1CB
  8
0
 10
33.086109707096838
 20
24.942083618285221
 30
0.0
 40
1.3890625000000161
 50
136.5283159844669
 51
208.02845532960069
  0
ARC
  5
1CC
  8
0
 10
33.086109707096838
 20
22.331146118285041
 30
0.0
 40
1.3890625000000161
 50
151.97154467040011
 51
223.47168401553219
  0
ARC
  5
1CD
  8
0
 10
32.95104720709675
 20
27.382614868285181
 30
0.0
 40
0.2540000000000063
 50
90.0
 51
113.1257025471357
  0
ARC
  5
1CE
  8
0
 10
32.95104720709675
 20
19.89061486828507
 30
0.0
 40
0.2540000000000128
 50
246.89568336158101
 51
270.00000000000171
  0
ARC
  5
1CF
  8
0
 10
33.086109707096838
 20
23.636614868285118
 30
0.0
 40
1.389062500000023
 50
149.75835321778101
 51
210.24164678221959
  0
LINE
  5
1D0
  8
0
 10
34.09704720709702
 20
27.636614868285118
 30
0.0
 11
32.951047207096892
 21
27.636614868285189
 31
0.0
  0
LINE
  5
1D2
  8
0
 10
32.95104720709675
 20
19.636614868285129
 30
0.0
 11
34.09704720709702
 21
19.636614868285129
 31
0.0
  0
CIRCLE
  5
1D3
  8
0
 10
11.697047207097009
 20
23.636614868285118
 30
0.0
 40
4.0
  0
ARC
  5
1D4
  8
0
 10
11.697047207097009
 20
23.636614868285118
 30
0.0
 40
3.7460000000000462
 50
102.84818108868519
 51
107.1518189110258
  0
ARC
  5
1D5
  8
0
 10
11.697047207097009
 20
23.636614868285118
 30
0.0
 40
3.7460000000000142
 50
72.848181088687753
 51
77.151818911026623
  0
ARC
  5
1D6
  8
0
 10
11.697047207097009
 20
23.636614868285118
 30
0.0
 40
3.7460000000000071
 50
42.84818108868226
 51
47.151818910913569
  0
ARC
  5
1D7
  8
0
 10
11.697047207097009
 20
23.636614868285118
 30
0.0
 40
3.7459999999999858
 50
12.848181088686379
 51
17.151818910975251
  0
ARC
  5
1D8
  8
0
 10
11.697047207097009
 20
23.636614868285118
 30
0.0
 40
3.7459999999999951
 50
342.84818108868808
 51
347.15181891089611
  0
ARC
  5
1D9
  8
0
 10
11.697047207097009
 20
23.636614868285118
 30
0.0
 40
3.7460000000000142
 50
312.84818108868308
 51
317.15181891091362
  0
ARC
  5
1DA
  8
0
 10
11.697047207097009
 20
23.636614868285118
 30
0.0
 40
3.746000000000012
 50
282.84818108868689
 51
287.15181891097558
  0
ARC
  5
1DB
  8
0
 10
11.697047207097009
 20
23.636614868285118
 30
0.0
 40
3.7460000000000191
 50
252.8481810886878
 51
257.15181891089549
  0
ARC
  5
1DC
  8
0
 10
11.697047207097009
 20
23.636614868285118
 30
0.0
 40
3.7460000000000209
 50
222.84818108868311
 51
227.15181891091359
  0
ARC
  5
1DD
  8
0
 10
11.697047207097009
 20
23.636614868285118
 30
0.0
 40
3.7460000000000262
 50
192.848181088687
 51
197.15181891097561
  0
ARC
  5
1DE
  8
0
 10
11.697047207097009
 20
23.636614868285118
 30
0.0
 40
3.7460000000000231
 50
162.84818108868731
 51
167.15181891089509
  0
ARC
  5
1DF
  8
0
 10
11.697047207097009
 20
23.636614868285118
 30
0.0
 40
3.7460000000000071
 50
132.8481810886874
 51
137.1518189109124
  0
ARC
  5
1E0
  8
0
 10
15.79932211060793
 20
26.005064388117031
 30
0.0
 40
3.22604991147286
 50
202.66438344149401
 51
217.33561655850789
  0
ARC
  5
1E1
  8
0
 10
13.95818540979039
 20
24.942083618285221
 30
0.0
 40
1.3334635353191051
 50
344.55102887326899
 51
351.34106602025292
  0
ARC
  5
1E2
  8
0
 10
14.05020752373397
 20
24.995212610532501
 30
0.0
 40
1.2522494409899521
 50
348.30258363971831
 51
71.697416359938714
  0
ARC
  5
1E3
  8
0
 10
13.95818540979039
 20
24.942083618285221
 30
0.0
 40
1.333463535309473
 50
68.658933978878935
 51
75.44897112673263
  0
LINE
  5
1E4
  8
0
 10
13.23430070129729
 20
24.04852070061802
 30
0.0
 11
15.24346834643263
 21
24.58687554859085
 31
0.0
  0
ARC
  5
1E5
  8
0
 10
16.43394624676008
 20
23.636614868285118
 30
0.0
 40
3.2260499114721801
 50
172.66438344149131
 51
187.3356165585094
  0
ARC
  5
1E6
  8
0
 10
14.30798470709682
 20
23.636614868285118
 30
0.0
 40
1.3334635353213671
 50
314.55102887326842
 51
321.3410660200505
  0
ARC
  5
1E7
  8
0
 10
14.414242691598631
 20
23.636614868275199
 30
0.0
 40
1.25224944099663
 50
318.30258363978999
 51
41.6974163597935
  0
ARC
  5
1E8
  8
0
 10
14.30798470709682
 20
23.636614868285118
 30
0.0
 40
1.333463535309465
 50
38.658933978890673
 51
45.448971126733781
  0
ARC
  5
1E9
  8
0
 10
11.697047207097009
 20
28.373513907950731
 30
0.0
 40
3.2260499114746888
 50
262.66438344149873
 51
277.33561655850372
  0
ARC
  5
1EA
  8
0
 10
11.697047207097009
 20
26.24755236828512
 30
0.0
 40
1.333463535317629
 50
44.551028873268152
 51
51.341066020382598
  0
ARC
  5
1EB
  8
0
 10
11.697047207103861
 20
26.353810352797929
 30
0.0
 40
1.2522494409861671
 50
48.302583639683149
 51
131.6974163600259
  0
ARC
  5
1EC
  8
0
 10
11.697047207097009
 20
26.24755236828512
 30
0.0
 40
1.333463535309461
 50
128.65893397888769
 51
135.44897112673291
  0
ARC
  5
1ED
  8
0
 10
14.06549672692981
 20
19.534339964772581
 30
0.0
 40
3.2260499114747589
 50
112.6643834414961
 51
127.3356165585017
  0
ARC
  5
1EE
  8
0
 10
13.00251595709692
 20
21.375476665591751
 30
0.0
 40
1.333463535319094
 50
254.55102887326871
 51
261.34106602025281
  0
ARC
  5
1EF
  8
0
 10
13.055644949344209
 20
21.28345455164817
 30
0.0
 40
1.252249440989937
 50
258.30258363971672
 51
341.69741635994092
  0
ARC
  5
1F0
  8
0
 10
13.00251595709692
 20
21.375476665591751
 30
0.0
 40
1.3334635353094699
 50
338.65893397888158
 51
345.44897112673419
  0
LINE
  5
1F1
  8
0
 10
12.10895303942992
 20
22.09936137408484
 30
0.0
 11
12.64730788740273
 21
20.090193728949309
 31
0.0
  0
ARC
  5
1F2
  8
0
 10
11.697047207097009
 20
18.899715828619328
 30
0.0
 40
3.226049911474858
 50
82.664383441498757
 51
97.335616558502934
  0
ARC
  5
1F3
  8
0
 10
11.697047207097009
 20
21.02567736828512
 30
0.0
 40
1.3334635353213919
 50
224.55102887326791
 51
231.34106602005099
  0
ARC
  5
1F4
  8
0
 10
11.697047207086889
 20
20.919419383783691
 30
0.0
 40
1.2522494409967131
 50
228.302583639793
 51
311.69741635979159
  0
ARC
  5
1F5
  8
0
 10
11.697047207097009
 20
21.02567736828512
 30
0.0
 40
1.333463535309457
 50
308.65893397889062
 51
315.44897112673323
  0
LINE
  5
1F6
  8
0
 10
11.285141374764111
 20
22.09936137408484
 30
0.0
 11
10.746786526791279
 21
20.090193728949309
 31
0.0
  0
ARC
  5
1F7
  8
0
 10
9.3285976872645602
 20
19.53433996477311
 30
0.0
 40
3.226049911474024
 50
52.664383441496199
 51
67.335616558504725
  0
ARC
  5
1F8
  8
0
 10
10.39157845709709
 20
21.37547666559157
 30
0.0
 40
1.3334635353208699
 50
194.55102887326791
 51
201.34106602009541
  0
ARC
  5
1F9
  8
0
 10
10.33844946483717
 20
21.28345455166188
 30
0.0
 40
1.2522494409953411
 50
198.30258363977819
 51
281.69741635982359
  0
ARC
  5
1FA
  8
0
 10
10.39157845709709
 20
21.37547666559157
 30
0.0
 40
1.3334635353094579
 50
278.65893397889403
 51
285.4489711267338
  0
LINE
  5
1FB
  8
0
 10
10.571699545229629
 20
22.511267206417749
 30
0.0
 11
9.1008867480667401
 21
21.040454409255041
 31
0.0
  0
ARC
  5
1FC
  8
0
 10
7.5947723035842776
 20
21.26816534845214
 30
0.0
 40
3.22604991147506
 50
22.664383441498391
 51
37.335616558502707
  0
ARC
  5
1FD
  8
0
 10
9.4359090044036407
 20
22.331146118285041
 30
0.0
 40
1.333463535319084
 50
164.55102887326731
 51
171.3410660202515
  0
ARC
  5
1FE
  8
0
 10
9.3438868904600554
 20
22.278017126037749
 30
0.0
 40
1.2522494409900531
 50
168.3025836397203
 51
251.69741635993611
  0
ARC
  5
1FF
  8
0
 10
9.4359090044036407
 20
22.331146118285041
 30
0.0
 40
1.3334635353094559
 50
248.65893397888161
 51
255.44897112673419
  0
LINE
  5
200
  8
0
 10
10.159793712896731
 20
23.22470903595222
 30
0.0
 11
8.1506260677610243
 21
22.686354187979401
 31
0.0
  0
ARC
  5
201
  8
0
 10
6.9601481674339283
 20
23.636614868285118
 30
0.0
 40
3.2260499114721819
 50
352.66438344149259
 51
7.3356165585090789
  0
ARC
  5
202
  8
0
 10
9.0861097070968384
 20
23.636614868285118
 30
0.0
 40
1.333463535321374
 50
134.55102887326771
 51
141.34106602004951
  0
ARC
  5
203
  8
0
 10
8.9798517225953844
 20
23.636614868295052
 30
0.0
 40
1.2522494409966201
 50
138.30258363978641
 51
221.6974163597931
  0
ARC
  5
204
  8
0
 10
9.0861097070968384
 20
23.636614868285118
 30
0.0
 40
1.333463535309481
 50
218.65893397888951
 51
225.4489711267326
  0
LINE
  5
205
  8
0
 10
10.159793712896731
 20
24.04852070061802
 30
0.0
 11
8.1506260677610243
 21
24.58687554859085
 31
0.0
  0
ARC
  5
206
  8
0
 10
7.5947723035846471
 20
26.005064388117919
 30
0.0
 40
3.226049911474385
 50
322.66438344149623
 51
337.33561655850298
  0
ARC
  5
207
  8
0
 10
9.4359090044036407
 20
24.942083618285039
 30
0.0
 40
1.3334635353208411
 50
104.5510288732665
 51
111.3410660200939
  0
ARC
  5
208
  8
0
 10
9.3438868904737689
 20
24.99521261054478
 30
0.0
 40
1.2522494409953091
 50
108.3025836397747
 51
191.69741635982311
  0
ARC
  5
209
  8
0
 10
9.4359090044036407
 20
24.942083618285039
 30
0.0
 40
1.3334635353094559
 50
188.65893397889349
 51
195.4489711267338
  0
LINE
  5
20A
  8
0
 10
12.64730788740273
 20
27.183036007620931
 30
0.0
 11
12.10895303942992
 21
25.1738683624854
 31
0.0
  0
ARC
  5
20B
  8
0
 10
14.06549672692873
 20
27.73888977179605
 30
0.0
 40
3.226049911472737
 50
232.664383441495
 51
247.33561655851
  0
LINE
  5
20C
  8
0
 10
12.822394868964381
 20
24.761962530152491
 30
0.0
 11
14.29320766612692
 21
26.232775327315199
 31
0.0
  0
ARC
  5
20D
  8
0
 10
13.00251595709692
 20
25.89775307097851
 30
0.0
 40
1.3334635353208579
 50
14.551028873267899
 51
21.341066020095791
  0
ARC
  5
20E
  8
0
 10
13.05564494935647
 20
25.98977518490836
 30
0.0
 40
1.2522494409953699
 50
18.302583639778291
 51
101.6974163598211
  0
ARC
  5
20F
  8
0
 10
13.00251595709692
 20
25.89775307097851
 30
0.0
 40
1.333463535309469
 50
98.658933978893145
 51
105.4489711267321
  0
LINE
  5
210
  8
0
 10
10.571699545229629
 20
24.761962530152491
 30
0.0
 11
9.1008867480667401
 21
26.232775327315199
 31
0.0
  0
ARC
  5
211
  8
0
 10
9.3285976872649314
 20
27.73888977179605
 30
0.0
 40
3.2260499114729488
 50
292.66438344149623
 51
307.335616558509
  0
LINE
  5
212
  8
0
 10
11.285141374764111
 20
25.1738683624854
 30
0.0
 11
10.746786526791279
 21
27.183036007620931
 31
0.0
  0
ARC
  5
213
  8
0
 10
10.39157845709709
 20
25.89775307097851
 30
0.0
 40
1.3334635353176301
 50
74.551028873266176
 51
81.341066020381248
  0
ARC
  5
214
  8
0
 10
10.33844946484656
 20
25.989775184924969
 30
0.0
 40
1.252249440986188
 50
78.302583639680904
 51
161.69741636002959
  0
ARC
  5
215
  8
0
 10
10.39157845709709
 20
25.89775307097851
 30
0.0
 40
1.3334635353094491
 50
158.65893397889241
 51
165.44897112673311
  0
LINE
  5
216
  8
0
 10
13.23430070129729
 20
23.22470903595222
 30
0.0
 11
15.24346834643263
 21
22.686354187979401
 31
0.0
  0
ARC
  5
217
  8
0
 10
15.79932211060938
 20
21.268165348452509
 30
0.0
 40
3.226049911474361
 50
142.66438344149759
 51
157.3356165585042
  0
LINE
  5
218
  8
0
 10
12.822394868964381
 20
22.511267206417749
 30
0.0
 11
14.29320766612727
 21
21.040454409255041
 31
0.0
  0
ARC
  5
219
  8
0
 10
13.95818540979039
 20
22.331146118285041
 30
0.0
 40
1.3334635353208679
 50
284.55102887326819
 51
291.34106602009672
  0
ARC
  5
21A
  8
0
 10
14.050207523720241
 20
22.278017126025471
 30
0.0
 40
1.252249440995379
 50
288.30258363978089
 51
11.69741635982243
  0
ARC
  5
21B
  8
0
 10
13.95818540979039
 20
22.331146118285041
 30
0.0
 40
1.3334635353094579
 50
8.6589339788935291
 51
15.448971126733859
  0
LINE
  5
22F
  8
2
 10
37.697047207097022
 20
21.636614868285172
 30
0.0
 11
37.040599951027971
 21
22.015614868285422
 31
0.0
  0
LINE
  5
230
  8
2
 10
37.697047207097022
 20
25.636614868285111
 30
0.0
 11
37.040599951027971
 21
25.257614868284868
 31
0.0
  0
LINE
  5
231
  8
2
 10
36.704981761798663
 20
25.257614868284861
 30
0.0
 11
35.730986698355103
 21
23.6366148682851
 31
0.0
  0
LINE
  5
232
  8
2
 10
36.70498176179855
 20
22.015614868285461
 30
0.0
 11
35.730986698355103
 21
23.6366148682851
 31
0.0
  0
LINE
  5
233
  8
2
 10
36.70498176179855
 20
22.015614868285379
 30
0.0
 11
36.70498176179855
 21
25.257614868284861
 31
0.0
  0
LINE
  5
234
  8
2
 10
37.697047207097022
 20
21.636614868285118
 30
0.0
 11
37.697047207097022
 21
25.636614868285111
 31
0.0
  0
LINE
  5
235
  8
2
 10
43.697047207097008
 20
25.257614868284868
 30
0.0
 11
36.70498176179855
 21
25.257614868284861
 31
0.0
  0
LINE
  5
236
  8
2
 10
43.697047207097008
 20
25.6366148682851
 30
0.0
 11
37.697047207097022
 21
25.636614868285111
 31
0.0
  0
LINE
  5
237
  8
2
 10
43.697047207097008
 20
22.01561486828539
 30
0.0
 11
36.70498176179855
 21
22.015614868285379
 31
0.0
  0
LINE
  5
238
  8
2
 10
43.697047207097008
 20
21.6366148682851
 30
0.0
 11
37.697047207097022
 21
21.636614868285118
 31
0.0
  0
LINE
  5
23E
  8
1
 10
4.6970472070970137
 20
23.636614868285118
 30
0.0
 11
18.697047207097011
 21
23.636614868285118
 31
0.0
  0
LINE
  5
244
  8
1
 10
11.697047207097009
 20
30.636614868285111
 30
0.0
 11
11.697047207097009
 21
16.636614868285111
 31
0.0
  0
LINE
  5
249
  8
1
 10
28.697047207096819
 20
23.636614868285118
 30
0.0
 11
46.697047207097008
 21
23.636614868285118
 31
0.0
  0
TEXT
  5
2FF
  8
0
 62
     3
 10
0.0
 20
0.0
 30
0.0
 40
5.0
  1
MSRP-082-60UR
  7
STANDARD1
  0
ENDSEC
  0
EOF
