  0
SECTION
  2
HEADER
  9
$ACADVER
  1
AC1009
  9
$INSBASE
 10
0.0
 20
0.0
 30
0.0
  9
$EXTMIN
 10
0.0
 20
-1.4802182810368341
 30
0.0
  9
$EXTMAX
 10
65.571505561317963
 20
37.153964918049269
 30
0.0
  9
$LIMMIN
 10
0.0
 20
0.0
  9
$LIMMAX
 10
187.5
 20
135.0
  9
$ORTHOMODE
 70
     1
  9
$REGENMODE
 70
     1
  9
$FILLMODE
 70
     1
  9
$QTEXTMODE
 70
     0
  9
$MIRRTEXT
 70
     0
  9
$DRAGMODE
 70
     2
  9
$LTSCALE
 40
5.0
  9
$OSMODE
 70
    37
  9
$ATTMODE
 70
     1
  9
$TEXTSIZE
 40
0.06
  9
$TRACEWID
 40
0.05
  9
$TEXTSTYLE
  7
STANDARD
  9
$CLAYER
  8
0
  9
$CELTYPE
  6
BYLAYER
  9
$CECOLOR
 62
   256
  9
$DIMSCALE
 40
0.5
  9
$DIMASZ
 40
3.0
  9
$DIMEXO
 40
2.0
  9
$DIMDLI
 40
10.0
  9
$DIMRND
 40
0.0
  9
$DIMDLE
 40
0.0
  9
$DIMEXE
 40
2.0
  9
$DIMTP
 40
0.0
  9
$DIMTM
 40
0.0
  9
$DIMTXT
 40
3.0
  9
$DIMCEN
 40
0.0
  9
$DIMTSZ
 40
0.0
  9
$DIMTOL
 70
     0
  9
$DIMLIM
 70
     0
  9
$DIMTIH
 70
     0
  9
$DIMTOH
 70
     0
  9
$DIMSE1
 70
     0
  9
$DIMSE2
 70
     0
  9
$DIMTAD
 70
     1
  9
$DIMZIN
 70
     0
  9
$DIMBLK
  1

  9
$DIMASO
 70
     1
  9
$DIMSHO
 70
     0
  9
$DIMPOST
  1

  9
$DIMAPOST
  1

  9
$DIMALT
 70
     0
  9
$DIMALTD
 70
     2
  9
$DIMALTF
 40
25.399999999999999
  9
$DIMLFAC
 40
1.0
  9
$DIMTOFL
 70
     1
  9
$DIMTVP
 40
1.6000000000000001
  9
$DIMTIX
 70
     1
  9
$DIMSOXD
 70
     0
  9
$DIMSAH
 70
     0
  9
$DIMBLK1
  1

  9
$DIMBLK2
  1

  9
$DIMSTYLE
  2
STANDARD
  9
$DIMCLRD
 70
     0
  9
$DIMCLRE
 70
     0
  9
$DIMCLRT
 70
     0
  9
$DIMTFAC
 40
1.0
  9
$DIMGAP
 40
0.09
  9
$LUNITS
 70
     2
  9
$LUPREC
 70
     4
  9
$SKETCHINC
 40
0.1
  9
$FILLETRAD
 40
0.0
  9
$AUNITS
 70
     0
  9
$AUPREC
 70
     4
  9
$MENU
  1
E:\r13\win\SUPPORT\ACAD
  9
$ELEVATION
 40
0.0
  9
$PELEVATION
 40
0.0
  9
$THICKNESS
 40
0.0
  9
$LIMCHECK
 70
     0
  9
$BLIPMODE
 70
     0
  9
$CHAMFERA
 40
0.0
  9
$CHAMFERB
 40
0.0
  9
$SKPOLY
 70
     0
  9
$TDCREATE
 40
2449840.5918518519
  9
$TDUPDATE
 40
2456598.7248266088
  9
$TDINDWG
 40
0.0602451042
  9
$TDUSRTIMER
 40
2456598.1023440752
  9
$USRTIMER
 70
     1
  9
$ANGBASE
 50
0.0
  9
$ANGDIR
 70
     0
  9
$PDMODE
 70
     1
  9
$PDSIZE
 40
0.0
  9
$PLINEWID
 40
0.0
  9
$COORDS
 70
     1
  9
$SPLFRAME
 70
     0
  9
$SPLINETYPE
 70
     6
  9
$SPLINESEGS
 70
     8
  9
$ATTDIA
 70
     0
  9
$ATTREQ
 70
     1
  9
$HANDLING
 70
     1
  9
$HANDSEED
  5
126D
  9
$SURFTAB1
 70
     6
  9
$SURFTAB2
 70
     6
  9
$SURFTYPE
 70
     6
  9
$SURFU
 70
     6
  9
$SURFV
 70
     6
  9
$UCSNAME
  2

  9
$UCSORG
 10
0.0
 20
0.0
 30
0.0
  9
$UCSXDIR
 10
1.0
 20
0.0
 30
0.0
  9
$UCSYDIR
 10
0.0
 20
1.0
 30
0.0
  9
$PUCSNAME
  2

  9
$PUCSORG
 10
0.0
 20
0.0
 30
0.0
  9
$PUCSXDIR
 10
1.0
 20
0.0
 30
0.0
  9
$PUCSYDIR
 10
0.0
 20
1.0
 30
0.0
  9
$USERI1
 70
     3
  9
$USERI2
 70
     1
  9
$USERI3
 70
     1
  9
$USERI4
 70
     0
  9
$USERI5
 70
     0
  9
$USERR1
 40
0.5
  9
$USERR2
 40
3.0
  9
$USERR3
 40
3.0
  9
$USERR4
 40
3.0
  9
$USERR5
 40
10.0
  9
$WORLDVIEW
 70
     1
  9
$SHADEDGE
 70
     3
  9
$SHADEDIF
 70
    70
  9
$TILEMODE
 70
     1
  9
$MAXACTVP
 70
    16
  9
$PLIMCHECK
 70
     0
  9
$PEXTMIN
 10
1.0000000000000000E+020
 20
1.0000000000000000E+020
 30
1.0000000000000000E+020
  9
$PEXTMAX
 10
-1.0000000000000000E+020
 20
-1.0000000000000000E+020
 30
-1.0000000000000000E+020
  9
$PLIMMIN
 10
0.0
 20
0.0
  9
$PLIMMAX
 10
12.0
 20
9.0
  9
$UNITMODE
 70
     0
  9
$VISRETAIN
 70
     0
  9
$PLINEGEN
 70
     0
  9
$PSLTSCALE
 70
     0
  0
ENDSEC
  0
SECTION
  2
TABLES
  0
TABLE
  2
VPORT
 70
     1
  0
VPORT
  2
*ACTIVE
 70
     0
 10
0.0
 20
0.0
 11
1.0
 21
1.0
 12
93.74713919532617
 22
88.76102906355564
 13
0.0
 23
0.0
 14
5.0
 24
5.0
 15
10.0
 25
10.0
 16
0.0
 26
0.0
 36
1.0
 17
0.0
 27
0.0
 37
0.0
 40
182.06542508151449
 41
1.755244755244755
 42
50.0
 43
0.0
 44
0.0
 50
0.0
 51
0.0
 71
     0
 72
   100
 73
     1
 74
     0
 75
     0
 76
     0
 77
     0
 78
     2
  0
ENDTAB
  0
TABLE
  2
LTYPE
 70
     4
  0
LTYPE
  2
CONTINUOUS
 70
     0
  3
Solid Line
 72
    65
 73
     0
 40
0.0
  0
LTYPE
  2
CENTER
 70
     0
  3
____ _ ____ _ ____ _ ____ _ ____ _ ____ _ ____
 72
    65
 73
     4
 40
2.0
 49
1.25
 49
-0.25
 49
0.25
 49
-0.25
  0
LTYPE
  2
HIDDEN
 70
     0
  3
__ __ __ __ __ __ __ __ __ __ __ __ __ __ __ __
 72
    65
 73
     2
 40
0.375
 49
0.25
 49
-0.125
  0
LTYPE
  2
PHANTOM2
 70
     0
  3
___ _ _ ___ _ _ ___ _ _ ___ _ _
 72
    65
 73
     6
 40
1.25
 49
0.625
 49
-0.125
 49
0.125
 49
-0.125
 49
0.125
 49
-0.125
  0
ENDTAB
  0
TABLE
  2
LAYER
 70
     3
  0
LAYER
  2
0
 70
     0
 62
     7
  6
CONTINUOUS
  0
LAYER
  2
1
 70
     0
 62
     1
  6
CENTER
  0
LAYER
  2
2
 70
     0
 62
     2
  6
HIDDEN
  0
ENDTAB
  0
TABLE
  2
STYLE
 70
     2
  0
STYLE
  2
STANDARD
 70
     0
 40
0.0
 41
1.0
 50
0.0
 71
     0
 42
0.06
  3
TXT
  4
BIGFONT
  0
STYLE
  2
STANDARD1
 70
     0
 40
0.0
 41
1.0
 50
0.0
 71
     0
 42
3.0
  3
txt
  4

  0
ENDTAB
  0
TABLE
  2
VIEW
 70
     0
  0
ENDTAB
  0
TABLE
  2
UCS
 70
     0
  0
ENDTAB
  0
TABLE
  2
APPID
 70
     3
  0
APPID
  2
ACAD
 70
     0
  0
APPID
  2
ACAD_MLEADERVER
 70
     0
  0
APPID
  2
ACAD_NAV_VCDISPLAY
 70
     0
  0
ENDTAB
  0
TABLE
  2
DIMSTYLE
 70
     1
  0
DIMSTYLE
  2
STANDARD
 70
     0
  3

  4

  5

  6

  7

 40
1.0
 41
0.18
 42
0.0625
 43
0.38
 44
0.18
 45
0.0
 46
0.0
 47
0.0
 48
0.0
140
0.18
141
0.09
142
0.0
143
25.399999999999999
144
1.0
145
0.0
146
1.0
147
0.09
 71
     0
 72
     0
 73
     1
 74
     1
 75
     0
 76
     0
 77
     0
 78
     0
170
     0
171
     2
172
     0
173
     0
174
     0
175
     0
176
     0
177
     0
178
     0
  0
ENDTAB
  0
ENDSEC
  0
SECTION
  2
BLOCKS
  0
BLOCK
  8
0
  2
$MODEL_SPACE
 70
     0
 10
0.0
 20
0.0
 30
0.0
  3
$MODEL_SPACE
  1

  0
ENDBLK
  5
BD
  8
0
  0
BLOCK
 67
     1
  8
0
  2
$PAPER_SPACE
 70
     0
 10
0.0
 20
0.0
 30
0.0
  3
$PAPER_SPACE
  1

  0
ENDBLK
  5
BB
 67
     1
  8
0
  0
ENDSEC
  0
SECTION
  2
ENTITIES
  0
ARC
  5
75D
  8
0
 10
20.843714056577941
 20
28.052114795154178
 30
0.0
 40
3.7621191053612071
 50
185.69899694967691
 51
210.30100305032539
  0
ARC
  5
75E
  8
0
 10
20.843714056577891
 20
24.255815040944469
 30
0.0
 40
3.76211910536112
 50
149.69899694967671
 51
174.3010030503246
  0
ARC
  5
75F
  8
0
 10
18.612305047772011
 20
21.184544024047231
 30
0.0
 40
3.7621191053612781
 50
113.6989969496766
 51
138.3010030503242
  0
ARC
  5
760
  8
0
 10
15.001809428721121
 20
20.011422884255101
 30
0.0
 40
3.762119105361128
 50
77.698996949675319
 51
102.3010030503247
  0
ARC
  5
761
  8
0
 10
11.39131380967021
 20
21.184544024047199
 30
0.0
 40
3.762119105361255
 50
41.69899694967679
 51
66.30100305032478
  0
ARC
  5
762
  8
0
 10
9.1599048008643802
 20
24.25581504094443
 30
0.0
 40
3.762119105361001
 50
5.6989969496752657
 51
30.301003050325459
  0
ARC
  5
763
  8
0
 10
9.1599048008641546
 20
28.0521147951541
 30
0.0
 40
3.7621191053612302
 50
329.69899694967671
 51
354.30100305032471
  0
ARC
  5
764
  8
0
 10
11.39131380967032
 20
31.123385812051069
 30
0.0
 40
3.7621191053610028
 50
293.69899694967518
 51
318.30100305032551
  0
ARC
  5
765
  8
0
 10
15.001809428721071
 20
32.296506951843561
 30
0.0
 40
3.7621191053612688
 50
257.69899694967722
 51
282.30100305032471
  0
ARC
  5
766
  8
0
 10
18.61230504777178
 20
31.123385812051168
 30
0.0
 40
3.7621191053610699
 50
221.6989969496768
 51
246.3010030503263
  0
LINE
  5
767
  8
0
 10
19.801738781215569
 20
23.70827875717805
 30
0.0
 11
21.609268303295408
 21
22.787296464965891
 31
0.0
  0
LINE
  5
769
  8
0
 10
21.521472124048412
 20
21.520873462835969
 30
0.0
 11
21.422827818227859
 21
21.38510122374754
 31
0.0
  0
LINE
  5
76B
  8
0
 10
18.811054930550519
 20
22.344719416219881
 30
0.0
 11
20.245518481108459
 21
20.91025586566197
 31
0.0
  0
ARC
  5
76C
  8
0
 10
25.388546325469029
 20
21.364927904985048
 30
0.0
 40
6.6500665000971741
 50
163.5998462663498
 51
171.5274481304242
  0
ARC
  5
76D
  8
0
 10
22.76613250397121
 20
17.755484933081132
 30
0.0
 40
6.6500665000975117
 50
116.4725518695757
 51
124.4001537336506
  0
LINE
  5
76E
  8
0
 10
20.322572103784179
 20
25.311238899659759
 30
0.0
 11
22.326234013966001
 21
24.99389002941604
 31
0.0
  0
LINE
  5
770
  8
0
 10
22.63408111531281
 20
23.762319669425739
 30
0.0
 11
22.582220734711171
 21
23.602709829817059
 31
0.0
  0
ARC
  5
772
  8
0
 10
26.469138970178921
 20
22.428003686836249
 30
0.0
 40
6.7892068414158002
 50
154.86963785401099
 51
169.13036214599049
  0
LINE
  5
773
  8
0
 10
20.322572103784161
 20
26.99669093643886
 30
0.0
 11
22.326234013965969
 21
27.314039806682612
 31
0.0
  0
LINE
  5
775
  8
0
 10
22.99959017672991
 20
26.237876776523141
 30
0.0
 11
22.999590176729711
 21
26.070053059556589
 31
0.0
  0
ARC
  5
777
  8
0
 10
26.219781423252609
 20
28.38472335513989
 30
0.0
 40
6.6500665000963242
 50
199.5998462663496
 51
207.52744813042659
  0
ARC
  5
778
  8
0
 10
26.219781423254151
 20
23.923206480958221
 30
0.0
 40
6.6500665000979389
 50
152.4725518695771
 51
160.4001537336519
  0
LINE
  5
779
  8
0
 10
19.80173878121553
 20
28.599651078920569
 30
0.0
 11
21.60926830329533
 21
29.52063337113276
 31
0.0
  0
LINE
  5
77B
  8
0
 10
22.582220734716781
 20
28.705220006264788
 30
0.0
 11
22.634081115312771
 21
28.545610166672901
 31
0.0
  0
ARC
  5
77D
  8
0
 10
26.469138970179468
 20
29.879926149262669
 30
0.0
 40
6.7892068414164459
 50
190.86963785401269
 51
205.1303621459912
  0
LINE
  5
77E
  8
0
 10
18.811054930550441
 20
29.96321041987872
 30
0.0
 11
20.245518481108331
 21
31.39767397043666
 31
0.0
  0
LINE
  5
780
  8
0
 10
21.422827818231351
 20
30.922828612346251
 30
0.0
 11
21.521472124048302
 21
30.787056373262701
 31
0.0
  0
ARC
  5
782
  8
0
 10
22.766132503970741
 20
34.552444903016998
 30
0.0
 40
6.6500665000969157
 50
235.5998462663494
 51
243.52744813042571
  0
ARC
  5
783
  8
0
 10
25.388546325467789
 20
30.943001931113429
 30
0.0
 40
6.6500665000960186
 50
188.47255186957571
 51
196.40015373365321
  0
LINE
  5
784
  8
0
 10
14.159083410331499
 20
31.47472759311237
 30
0.0
 11
13.841734540087771
 21
33.478389503294181
 31
0.0
  0
LINE
  5
786
  8
0
 10
14.91789757022984
 20
34.151745666057913
 30
0.0
 11
15.08572128719487
 21
34.151745666058112
 31
0.0
  0
LINE
  5
788
  8
0
 10
16.16188431735452
 20
33.478389503295027
 30
0.0
 11
15.844535447110591
 21
31.474727593112348
 31
0.0
  0
ARC
  5
789
  8
0
 10
15.001809428721071
 20
38.211428743783188
 30
0.0
 40
6.7892068414153011
 50
262.86963785401042
 51
277.13036214599123
  0
LINE
  5
78A
  8
0
 10
12.556123267849809
 20
30.953894270543739
 30
0.0
 11
11.63514097563764
 21
32.76142379262356
 31
0.0
  0
LINE
  5
78C
  8
0
 10
12.45055434050559
 20
33.734376224044979
 30
0.0
 11
12.61016418009751
 21
33.786236604640983
 31
0.0
  0
ARC
  5
78E
  8
0
 10
9.4136880921138584
 20
36.133548015658107
 30
0.0
 40
6.6500665000954244
 50
307.59984626634889
 51
315.5274481304271
  0
ARC
  5
78F
  8
0
 10
13.656842787863839
 20
37.512232550470458
 30
0.0
 40
6.6500665000954839
 50
260.47255186957568
 51
268.4001537336523
  0
LINE
  5
790
  8
0
 10
11.19256392689163
 20
29.963210419878671
 30
0.0
 11
9.7581003763337151
 21
31.397673970436589
 31
0.0
  0
LINE
  5
792
  8
0
 10
10.232945734423
 20
32.574983307558767
 30
0.0
 11
10.3687179735077
 21
32.673627613376539
 31
0.0
  0
ARC
  5
794
  8
0
 10
7.9146100119045988
 20
35.908658062129227
 30
0.0
 40
6.7892068414154121
 50
298.86963785401122
 51
313.13036214599163
  0
LINE
  5
795
  8
0
 10
10.201880076226569
 20
28.599651078920498
 30
0.0
 11
8.3943505541467687
 21
29.520633371132661
 31
0.0
  0
LINE
  5
797
  8
0
 10
8.4821467333800911
 20
30.78705637324336
 30
0.0
 11
8.5807910392004612
 21
30.922828612332381
 31
0.0
  0
ARC
  5
799
  8
0
 10
4.6150725319749313
 20
30.94300193111318
 30
0.0
 40
6.650066500095364
 50
343.59984626634832
 51
351.5274481304258
  0
ARC
  5
79A
  8
0
 10
7.2374863534728027
 20
34.552444903014361
 30
0.0
 40
6.6500665000939652
 50
296.47255186957432
 51
304.40015373365418
  0
LINE
  5
79B
  8
0
 10
9.6810467536579665
 20
26.996690936438799
 30
0.0
 11
7.6773848434761467
 21
27.314039806682519
 31
0.0
  0
LINE
  5
79D
  8
0
 10
7.3695377421293244
 20
28.545610166672759
 30
0.0
 11
7.4213981227253214
 21
28.70522000626471
 31
0.0
  0
ARC
  5
79F
  8
0
 10
3.5344798872634442
 20
29.87992614926225
 30
0.0
 40
6.7892068414155817
 50
334.8696378540111
 51
349.1303621459906
  0
LINE
  5
7A0
  8
0
 10
9.6810467536579665
 20
25.311238899659681
 30
0.0
 11
7.6773848434761467
 21
24.99389002941594
 31
0.0
  0
LINE
  5
7A2
  8
0
 10
7.0040286807122243
 20
26.070053059575429
 30
0.0
 11
7.0040286807124801
 21
26.237876776546301
 31
0.0
  0
ARC
  5
7A4
  8
0
 10
3.7838374341883991
 20
23.923206480958239
 30
0.0
 40
6.6500665000975188
 50
19.599846266349608
 51
27.527448130424361
  0
ARC
  5
7A5
  8
0
 10
3.7838374341885119
 20
28.384723355140121
 30
0.0
 40
6.6500665000973802
 50
332.4725518695771
 51
340.40015373365202
  0
LINE
  5
7A6
  8
0
 10
10.20188007622659
 20
23.708278757177968
 30
0.0
 11
8.3943505541467829
 21
22.787296464965799
 31
0.0
  0
LINE
  5
7A8
  8
0
 10
7.4213981227253347
 20
23.602709829833739
 30
0.0
 11
7.369537742129352
 21
23.762319669425679
 31
0.0
  0
ARC
  5
7AA
  8
0
 10
3.534479887264268
 20
22.428003686836451
 30
0.0
 40
6.7892068414147433
 50
10.86963785400949
 51
25.130362145991128
  0
LINE
  5
7AB
  8
0
 10
11.19256392689166
 20
22.344719416219821
 30
0.0
 11
9.7581003763337577
 21
20.910255865661892
 31
0.0
  0
LINE
  5
7AD
  8
0
 10
8.5807910392005056
 20
21.385101223766071
 30
0.0
 11
8.4821467333835585
 21
21.520873462850261
 31
0.0
  0
ARC
  5
7AF
  8
0
 10
7.23748635347249
 20
17.755484933083409
 30
0.0
 40
6.6500665000947397
 50
55.5998462663471
 51
63.527448130425718
  0
ARC
  5
7B0
  8
0
 10
4.615072531974163
 20
21.36492790498512
 30
0.0
 40
6.6500665000961776
 50
8.4725518695757813
 51
16.400153733651742
  0
LINE
  5
7B1
  8
0
 10
12.55612326784984
 20
21.354035565554749
 30
0.0
 11
11.635140975637681
 21
19.54650604347492
 31
0.0
  0
LINE
  5
7B3
  8
0
 10
10.368717973507749
 20
19.63430222272191
 30
0.0
 11
10.232945734426259
 21
19.732946528537319
 31
0.0
  0
ARC
  5
7B5
  8
0
 10
7.914610011904414
 20
16.399271773968849
 30
0.0
 40
6.7892068414158544
 50
46.86963785401062
 51
61.13036214599024
  0
LINE
  5
7B6
  8
0
 10
14.15908341033156
 20
20.83320224298615
 30
0.0
 11
13.841734540087829
 21
18.829540332804331
 31
0.0
  0
LINE
  5
7B8
  8
0
 10
12.61016418009755
 20
18.521693231457501
 30
0.0
 11
12.45055434048996
 21
18.57355361205877
 31
0.0
  0
ARC
  5
7BA
  8
0
 10
13.656842787863891
 20
14.79569728562781
 30
0.0
 40
6.6500665000957042
 50
91.599846266347726
 51
99.527448130425924
  0
ARC
  5
7BB
  8
0
 10
9.4136880921139721
 20
16.17438182044037
 30
0.0
 40
6.6500665000953783
 50
44.47255186957522
 51
52.400153733653383
  0
LINE
  5
7BC
  8
0
 10
15.84453544711066
 20
20.833202242986161
 30
0.0
 11
16.161884317354399
 21
18.829540332804338
 31
0.0
  0
LINE
  5
7BE
  8
0
 10
15.08572128719493
 20
18.156184170040401
 30
0.0
 11
14.91789757022795
 21
18.1561841700406
 31
0.0
  0
ARC
  5
7C0
  8
0
 10
15.00180942872116
 20
14.096501092315281
 30
0.0
 40
6.7892068414153499
 50
82.869637854010406
 51
97.130362145991228
  0
LINE
  5
7C1
  8
0
 10
17.447495589592361
 20
21.354035565554781
 30
0.0
 11
18.368477881804552
 21
19.546506043474981
 31
0.0
  0
LINE
  5
7C3
  8
0
 10
17.553064516936601
 20
18.57355361205353
 30
0.0
 11
17.393454677344661
 21
18.52169323145753
 31
0.0
  0
ARC
  5
7C5
  8
0
 10
20.589930765329839
 20
16.174381820438722
 30
0.0
 40
6.6500665000976893
 50
127.59984626634891
 51
135.52744813042469
  0
ARC
  5
7C6
  8
0
 10
16.346776069578361
 20
14.795697285627741
 30
0.0
 40
6.6500665000957824
 50
80.472551869575696
 51
88.40015373365226
  0
LINE
  5
7C8
  8
0
 10
19.770673123004268
 20
19.732946528528711
 30
0.0
 11
19.634900883920981
 21
19.634302222712389
 31
0.0
  0
ARC
  5
7CA
  8
0
 10
22.089008845537609
 20
16.399271773969328
 30
0.0
 40
6.7892068414153917
 50
118.8696378540097
 51
133.1303621459916
  0
LINE
  5
7CB
  8
0
 10
12.40806846776438
 20
26.15396491804924
 30
0.0
 11
10.04858812763714
 21
26.15396491804924
 31
0.0
  0
LINE
  5
7CC
  8
0
 10
12.903428912300701
 20
27.678527603166501
 30
0.0
 11
10.99456921924418
 21
29.065395350167311
 31
0.0
  0
LINE
  5
7CD
  8
0
 10
12.90342891230071
 20
24.629402232932001
 30
0.0
 11
10.9945692192442
 21
23.24253448593117
 31
0.0
  0
LINE
  5
7CE
  8
0
 10
14.200299392779071
 20
23.687170675549741
 30
0.0
 11
13.47117986978617
 21
21.443171523001428
 31
0.0
  0
LINE
  5
7CF
  8
0
 10
15.803319464663099
 20
23.687170675549751
 30
0.0
 11
16.532438987656018
 21
21.443171523001439
 31
0.0
  0
LINE
  5
7D0
  8
0
 10
17.100189945141452
 20
24.629402232932019
 30
0.0
 11
19.009049638197979
 21
23.24253448593123
 31
0.0
  0
LINE
  5
7D1
  8
0
 10
17.447495589592261
 20
30.953894270543771
 30
0.0
 11
18.368477881804409
 21
32.761423792623603
 31
0.0
  0
LINE
  5
7D3
  8
0
 10
19.634900883915289
 20
32.673627613390153
 30
0.0
 11
19.770673123004141
 21
32.574983307569902
 31
0.0
  0
ARC
  5
7D5
  8
0
 10
22.089008845537339
 20
35.908658062129291
 30
0.0
 40
6.789206841415325
 50
226.8696378540107
 51
241.13036214599239
  0
ARC
  5
7D6
  8
0
 10
20.589930765329012
 20
36.133548015659279
 30
0.0
 40
6.650066500096802
 50
224.4725518695775
 51
232.40015373365341
  0
LINE
  5
7D8
  8
0
 10
17.393454677344518
 20
33.78623660464104
 30
0.0
 11
17.553064516936441
 21
33.734376224045043
 31
0.0
  0
ARC
  5
7DA
  8
0
 10
16.346776069577931
 20
37.512232550473072
 30
0.0
 40
6.6500665000980579
 50
271.59984626635099
 51
279.52744813042591
  0
LINE
  5
7DB
  8
0
 10
14.200299392779041
 20
28.620759160548769
 30
0.0
 11
13.471179869786139
 21
30.86475831309707
 31
0.0
  0
LINE
  5
7DC
  8
0
 10
16.532438987655951
 20
30.864758313097099
 30
0.0
 11
15.803319464663071
 21
28.620759160548761
 31
0.0
  0
LINE
  5
7DD
  8
0
 10
17.100189945141409
 20
27.678527603166529
 30
0.0
 11
19.009049638197901
 21
29.065395350167371
 31
0.0
  0
LINE
  5
7DE
  8
0
 10
17.595550389677751
 20
26.153964918049269
 30
0.0
 11
19.955030729804971
 21
26.153964918049301
 31
0.0
  0
CIRCLE
  5
7DF
  8
0
 10
15.00180942872106
 20
26.153964918049262
 30
0.0
 40
8.0
  0
ARC
  5
7E0
  8
0
 10
52.206505561318011
 20
18.78896491804926
 30
0.0
 40
0.6350000000000052
 50
265.70713586006042
 51
270.0
  0
ARC
  5
7E1
  8
0
 10
52.206505561318011
 20
33.518964918049249
 30
0.0
 40
0.6349999999999967
 50
90.0
 51
94.294314824067484
  0
ARC
  5
7E2
  8
0
 10
52.15900556131799
 20
26.153964918049329
 30
0.0
 40
1.587499999999987
 50
140.2250777138124
 51
219.7749222861876
  0
LINE
  5
7E3
  8
0
 10
52.206505561318011
 20
18.15396491804924
 30
0.0
 11
53.171505561318007
 21
18.15396491804924
 31
0.0
  0
LINE
  5
7E4
  8
0
 10
53.171505561318007
 20
34.15396491804924
 30
0.0
 11
52.206505561318011
 21
34.15396491804924
 31
0.0
  0
ARC
  5
7E5
  8
0
 10
52.15900556131799
 20
24.17239344161996
 30
0.0
 40
1.5875000000000039
 50
141.382593057082
 51
225.1693944812676
  0
ARC
  5
7E6
  8
0
 10
52.15900556131799
 20
28.135536394478681
 30
0.0
 40
1.587500000000007
 50
134.83060551873231
 51
218.61740694292251
  0
ARC
  5
7E7
  8
0
 10
52.15900556131799
 20
29.923137848374811
 30
0.0
 40
1.5875000000000099
 50
116.6661254769149
 51
214.2651920998081
  0
ARC
  5
7E8
  8
0
 10
52.15900556131799
 20
22.384791987723808
 30
0.0
 40
1.587500000000003
 50
145.73480790019539
 51
243.33387452308361
  0
ARC
  5
7E9
  8
0
 10
52.15900556131799
 20
31.34178639447865
 30
0.0
 40
1.587500000000001
 50
108.4411832134678
 51
206.53974083384901
  0
ARC
  5
7EA
  8
0
 10
52.55588056131802
 20
24.927553721623731
 30
0.0
 40
1.984375000000014
 50
160.92635361934799
 51
191.59560255964931
  0
ARC
  5
7EB
  8
0
 10
52.55588056131802
 20
27.380376114474871
 30
0.0
 40
1.984375000000006
 50
168.40439744025781
 51
199.0736463806432
  0
ARC
  5
7EC
  8
0
 10
52.15900556131799
 20
20.966143441619931
 30
0.0
 40
1.587500000000001
 50
153.46025916615389
 51
251.5959552507633
  0
ARC
  5
7ED
  8
0
 10
52.55588056131802
 20
22.943178721623699
 30
0.0
 40
1.984375000000004
 50
160.88089878765061
 51
188.5449654897601
  0
ARC
  5
7EE
  8
0
 10
52.55588056131802
 20
29.364751114474849
 30
0.0
 40
1.984374999999994
 50
171.45503451044721
 51
199.1191012123906
  0
ARC
  5
7EF
  8
0
 10
52.15900556131799
 20
32.252614828791948
 30
0.0
 40
1.5875000000000019
 50
99.733758667997904
 51
196.67096482525221
  0
ARC
  5
7F0
  8
0
 10
52.15900556131799
 20
20.0553150073066
 30
0.0
 40
1.5874999999999999
 50
163.32903517474929
 51
260.26980345551971
  0
ARC
  5
7F1
  8
0
 10
54.54025556131802
 20
26.15396491804924
 30
0.0
 40
3.9687500000000142
 50
169.55261488149631
 51
190.44738511850551
  0
ARC
  5
7F2
  8
0
 10
52.55588056131802
 20
22.18521491804924
 30
0.0
 40
1.984375000000004
 50
176.95663574922099
 51
198.95470870406359
  0
ARC
  5
7F3
  8
0
 10
52.55588056131802
 20
30.12271491804924
 30
0.0
 40
1.98437500000001
 50
161.04529129592621
 51
183.04336425083761
  0
ARC
  5
7F4
  8
0
 10
52.15900556131799
 20
19.741464918049239
 30
0.0
 40
1.587499999999999
 50
174.32702349340329
 51
269.9996646889856
  0
ARC
  5
7F5
  8
0
 10
52.15900556131799
 20
32.566464918049249
 30
0.0
 40
1.587500000000005
 50
89.999879759223987
 51
185.6729765065441
  0
LINE
  5
7F6
  8
0
 10
61.809505561318019
 20
18.15396491804924
 30
0.0
 11
62.57150556131802
 21
18.915964918049241
 31
0.0
  0
LINE
  5
7F7
  8
0
 10
62.57150556131802
 20
33.391964918049268
 30
0.0
 11
61.809505561318019
 21
34.15396491804924
 31
0.0
  0
LINE
  5
7F8
  8
0
 10
61.809505561318019
 20
34.15396491804924
 30
0.0
 11
53.435105561317982
 21
34.15396491804924
 31
0.0
  0
LINE
  5
7F9
  8
0
 10
53.435105561317982
 20
18.15396491804924
 30
0.0
 11
61.809505561318019
 21
18.15396491804924
 31
0.0
  0
LINE
  5
7FA
  8
0
 10
53.435105561317982
 20
34.15396491804924
 30
0.0
 11
53.30810556131803
 21
34.026964918049259
 31
0.0
  0
LINE
  5
7FB
  8
0
 10
53.30810556131803
 20
18.28096491804925
 30
0.0
 11
53.435105561317982
 21
18.15396491804924
 31
0.0
  0
ARC
  5
7FC
  8
0
 10
53.18110556131802
 20
19.026964918049242
 30
0.0
 40
0.1270000000000095
 50
0.0
 51
90.0
  0
ARC
  5
7FD
  8
0
 10
53.18110556131802
 20
33.28096491804925
 30
0.0
 40
0.1270000000000095
 50
270.0
 51
0.0
  0
LINE
  5
7FE
  8
0
 10
53.171505561317993
 20
19.15396491804924
 30
0.0
 11
53.18110556131802
 21
19.15396491804924
 31
0.0
  0
LINE
  5
7FF
  8
0
 10
53.18110556131802
 20
33.153964918049269
 30
0.0
 11
53.171505561317993
 21
33.153964918049269
 31
0.0
  0
POLYLINE
  5
802
  8
0
 66
     1
 10
0.0
 20
0.0
 30
0.0
 70
   128
  0
VERTEX
  5
122C
  8
0
 10
52.15900556131799
 20
34.151745666057991
 30
0.0
  0
VERTEX
  5
122D
  8
0
 10
52.15900556131799
 20
34.151745666058112
 30
0.0
  0
SEQEND
  5
122E
  8
0
  0
POLYLINE
  5
803
  8
0
 66
     1
 10
0.0
 20
0.0
 30
0.0
 70
   128
  0
VERTEX
  5
122F
  8
0
 10
52.15900556131799
 20
18.156184170040401
 30
0.0
  0
VERTEX
  5
1230
  8
0
 10
52.15900556131799
 20
18.156184170040522
 30
0.0
  0
SEQEND
  5
1231
  8
0
  0
LINE
  5
806
  8
0
 10
52.15900556131799
 20
18.57355361205353
 30
0.0
 11
52.15900556131799
 21
18.52169323145753
 31
0.0
  0
LINE
  5
809
  8
0
 10
52.15900556131799
 20
19.732946528528711
 30
0.0
 11
52.15900556131799
 21
19.634302222712389
 31
0.0
  0
LINE
  5
80C
  8
0
 10
52.15900556131799
 20
21.520873462835969
 30
0.0
 11
52.15900556131799
 21
21.38510122374754
 31
0.0
  0
LINE
  5
80F
  8
0
 10
52.15900556131799
 20
23.762319669425739
 30
0.0
 11
52.15900556131799
 21
23.602709829817059
 31
0.0
  0
LINE
  5
812
  8
0
 10
52.15900556131799
 20
26.237876776523141
 30
0.0
 11
52.15900556131799
 21
26.070053059556589
 31
0.0
  0
LINE
  5
815
  8
0
 10
52.15900556131799
 20
28.705220006264788
 30
0.0
 11
52.15900556131799
 21
28.545610166672901
 31
0.0
  0
LINE
  5
818
  8
0
 10
52.15900556131799
 20
30.922828612346251
 30
0.0
 11
52.15900556131799
 21
30.787056373262701
 31
0.0
  0
LINE
  5
81B
  8
0
 10
52.15900556131799
 20
32.673627613390153
 30
0.0
 11
52.15900556131799
 21
32.574983307569902
 31
0.0
  0
LINE
  5
81E
  8
0
 10
52.15900556131799
 20
33.78623660464104
 30
0.0
 11
52.15900556131799
 21
33.734376224045043
 31
0.0
  0
ARC
  5
81F
  8
0
 10
51.537997177348551
 20
26.003748679818361
 30
0.0
 40
1.310772961752068
 50
88.446410351360967
 51
117.1967936072999
  0
ARC
  5
820
  8
0
 10
51.537997177348529
 20
26.304181156280318
 30
0.0
 40
1.3107729617520969
 50
242.80320639270141
 51
271.55358964863899
  0
LINE
  5
822
  8
0
 10
53.171505561318007
 20
18.15396491804924
 30
0.0
 11
53.171505561317993
 21
34.153964918049269
 31
0.0
  0
ARC
  5
823
  8
0
 10
51.782144740154699
 20
23.895821846192572
 30
0.0
 40
1.12798344076757
 50
228.8434120049989
 51
259.3423286097472
  0
ARC
  5
824
  8
0
 10
51.782144740154472
 20
28.412107989906559
 30
0.0
 40
1.1279834407670459
 50
100.6576713902479
 51
131.15658799500801
  0
LINE
  5
825
  8
0
 10
51.44655026262388
 20
31.341786394478689
 30
0.0
 11
51.573534764788967
 21
31.39767397043666
 31
0.0
  0
LINE
  5
826
  8
0
 10
51.446550262623809
 20
20.966143441619959
 30
0.0
 11
51.573534764788967
 21
20.91025586566197
 31
0.0
  0
LINE
  5
828
  8
0
 10
61.809505561318019
 20
18.15396491804924
 30
0.0
 11
61.809505561317962
 21
34.153964918049297
 31
0.0
  0
LINE
  5
829
  8
0
 10
62.571505561317942
 20
33.391964918049297
 30
0.0
 11
62.57150556131802
 21
18.915964918049241
 31
0.0
  0
LINE
  5
82B
  8
0
 10
53.435105561318011
 20
34.15396491804924
 30
0.0
 11
53.435105561317982
 21
18.15396491804924
 31
0.0
  0
LINE
  5
82E
  8
0
 10
53.30810556131803
 20
18.28096491804925
 30
0.0
 11
53.308105561317888
 21
34.026964918049153
 31
0.0
  0
LINE
  5
830
  8
0
 10
52.206505561318011
 20
18.15396491804924
 30
0.0
 11
52.206505561317947
 21
34.153964918049269
 31
0.0
  0
POLYLINE
  5
A8D
  8
0
 66
     1
 10
0.0
 20
0.0
 30
0.0
 70
     2
  0
VERTEX
  5
A8E
  8
0
 10
13.84173454008819
 20
33.478389503294643
 30
0.0
 42
-0.132241495894957
  0
VERTEX
  5
A93
  8
0
 10
14.331141427921089
 20
33.971208180883231
 30
0.0
 42
-0.1322414958949454
 70
     1
  0
VERTEX
  5
A8F
  8
0
 10
15.00180942871236
 20
34.151745666057991
 30
0.0
 42
-0.1322414958966612
  0
VERTEX
  5
A92
  8
0
 10
15.672477429513631
 20
33.971208180887913
 30
0.0
 42
-0.1322414958966684
 70
     1
  0
VERTEX
  5
A90
  8
0
 10
16.161884317354431
 20
33.478389503295091
 30
0.0
  0
SEQEND
  5
A91
  8
0
  0
POLYLINE
  5
A94
  8
0
 66
     1
 10
0.0
 20
0.0
 30
0.0
 70
     2
  0
VERTEX
  5
A95
  8
0
 10
18.368477881804239
 20
32.761423792624051
 30
0.0
 42
0.132241495894957
  0
VERTEX
  5
A96
  8
0
 10
18.055313618531301
 20
33.381357252801173
 30
0.0
 42
0.1322414958949454
 70
     1
  0
VERTEX
  5
A97
  8
0
 10
17.473259597148839
 20
33.760306414340171
 30
0.0
 42
0.1322414958966612
  0
VERTEX
  5
A98
  8
0
 10
16.77962727367688
 20
33.795852872464707
 30
0.0
 42
0.1322414958966684
 70
     1
  0
VERTEX
  5
A99
  8
0
 10
16.161884317354591
 20
33.478389503295062
 30
0.0
  0
SEQEND
  5
A9A
  8
0
  0
POLYLINE
  5
A9B
  8
0
 66
     1
 10
0.0
 20
0.0
 30
0.0
 70
     2
  0
VERTEX
  5
A9C
  8
0
 10
18.368477881804878
 20
32.761423792623731
 30
0.0
 42
-0.132241495894957
  0
VERTEX
  5
A9D
  8
0
 10
19.054087921966701
 20
32.872456326899773
 30
0.0
 42
-0.1322414958949454
 70
     1
  0
VERTEX
  5
A9E
  8
0
 10
19.702787003462031
 20
32.624305460478297
 30
0.0
 42
-0.1322414958966612
  0
VERTEX
  5
A9F
  8
0
 10
20.139251542424802
 20
32.084038806798532
 30
0.0
 42
-0.1322414958966684
 70
     1
  0
VERTEX
  5
AA0
  8
0
 10
20.245518481108849
 20
31.39767397043741
 30
0.0
  0
SEQEND
  5
AA1
  8
0
  0
POLYLINE
  5
AA2
  8
0
 66
     1
 10
0.0
 20
0.0
 30
0.0
 70
     2
  0
VERTEX
  5
AA3
  8
0
 10
22.326234013966332
 20
24.993890029416509
 30
0.0
 42
0.132241495894957
  0
VERTEX
  5
AA4
  8
0
 10
22.819052691554919
 20
25.483296917249412
 30
0.0
 42
0.1322414958949454
 70
     1
  0
VERTEX
  5
AA5
  8
0
 10
22.999590176729679
 20
26.153964918040671
 30
0.0
 42
0.1322414958966612
  0
VERTEX
  5
AA6
  8
0
 10
22.819052691559609
 20
26.824632918841939
 30
0.0
 42
0.1322414958966684
 70
     1
  0
VERTEX
  5
AA7
  8
0
 10
22.326234013966779
 20
27.314039806682739
 30
0.0
  0
SEQEND
  5
AA8
  8
0
  0
POLYLINE
  5
AA9
  8
0
 66
     1
 10
0.0
 20
0.0
 30
0.0
 70
     2
  0
VERTEX
  5
AAA
  8
0
 10
21.609268303295728
 20
29.520633371132551
 30
0.0
 42
-0.132241495894957
  0
VERTEX
  5
AAB
  8
0
 10
22.229201763472862
 20
29.207469107859609
 30
0.0
 42
-0.1322414958949454
 70
     1
  0
VERTEX
  5
AAC
  8
0
 10
22.608150925011859
 20
28.625415086477151
 30
0.0
 42
-0.1322414958966612
  0
VERTEX
  5
AAD
  8
0
 10
22.643697383136399
 20
27.931782763005192
 30
0.0
 42
-0.1322414958966684
 70
     1
  0
VERTEX
  5
AAE
  8
0
 10
22.326234013966761
 20
27.314039806682899
 30
0.0
  0
SEQEND
  5
AAF
  8
0
  0
POLYLINE
  5
AB0
  8
0
 66
     1
 10
0.0
 20
0.0
 30
0.0
 70
     2
  0
VERTEX
  5
AB1
  8
0
 10
21.609268303295419
 20
29.52063337113319
 30
0.0
 42
0.132241495894957
  0
VERTEX
  5
AB2
  8
0
 10
21.720300837571461
 20
30.206243411295009
 30
0.0
 42
0.1322414958949454
 70
     1
  0
VERTEX
  5
AB3
  8
0
 10
21.472149971149989
 20
30.85494249279034
 30
0.0
 42
0.1322414958966612
  0
VERTEX
  5
AB4
  8
0
 10
20.93188331747022
 20
31.29140703175311
 30
0.0
 42
0.1322414958966684
 70
     1
  0
VERTEX
  5
AB5
  8
0
 10
20.245518481109102
 20
31.397673970437161
 30
0.0
  0
SEQEND
  5
AB6
  8
0
  0
POLYLINE
  5
AB7
  8
0
 66
     1
 10
0.0
 20
0.0
 30
0.0
 70
     2
  0
VERTEX
  5
AB8
  8
0
 10
7.6773848434757923
 20
24.993890029416509
 30
0.0
 42
-0.132241495894957
  0
VERTEX
  5
AB9
  8
0
 10
7.1845661658872038
 20
25.483296917249412
 30
0.0
 42
-0.1322414958949454
 70
     1
  0
VERTEX
  5
ABA
  8
0
 10
7.0040286807124366
 20
26.153964918040671
 30
0.0
 42
-0.1322414958966612
  0
VERTEX
  5
ABB
  8
0
 10
7.1845661658825151
 20
26.824632918841939
 30
0.0
 42
-0.1322414958966684
 70
     1
  0
VERTEX
  5
ABC
  8
0
 10
7.6773848434753367
 20
27.314039806682739
 30
0.0
  0
SEQEND
  5
ABD
  8
0
  0
POLYLINE
  5
ABE
  8
0
 66
     1
 10
0.0
 20
0.0
 30
0.0
 70
     2
  0
VERTEX
  5
ABF
  8
0
 10
8.3943505541463832
 20
29.520633371132551
 30
0.0
 42
0.132241495894957
  0
VERTEX
  5
AC0
  8
0
 10
7.7744170939692623
 20
29.207469107859609
 30
0.0
 42
0.1322414958949454
 70
     1
  0
VERTEX
  5
AC1
  8
0
 10
7.3954679324302637
 20
28.625415086477151
 30
0.0
 42
0.1322414958966612
  0
VERTEX
  5
AC2
  8
0
 10
7.3599214743057209
 20
27.931782763005192
 30
0.0
 42
0.1322414958966684
 70
     1
  0
VERTEX
  5
AC3
  8
0
 10
7.6773848434753651
 20
27.314039806682899
 30
0.0
  0
SEQEND
  5
AC4
  8
0
  0
POLYLINE
  5
AC5
  8
0
 66
     1
 10
0.0
 20
0.0
 30
0.0
 70
     2
  0
VERTEX
  5
AC6
  8
0
 10
8.3943505541466976
 20
29.52063337113319
 30
0.0
 42
-0.132241495894957
  0
VERTEX
  5
AC7
  8
0
 10
8.2833180198706629
 20
30.206243411295009
 30
0.0
 42
-0.1322414958949454
 70
     1
  0
VERTEX
  5
AC8
  8
0
 10
8.5314688862921315
 20
30.85494249279034
 30
0.0
 42
-0.1322414958966612
  0
VERTEX
  5
AC9
  8
0
 10
9.0717355399718969
 20
31.29140703175311
 30
0.0
 42
-0.1322414958966684
 70
     1
  0
VERTEX
  5
ACA
  8
0
 10
9.7581003763330187
 20
31.397673970437161
 30
0.0
  0
SEQEND
  5
ACB
  8
0
  0
POLYLINE
  5
ACC
  8
0
 66
     1
 10
0.0
 20
0.0
 30
0.0
 70
     2
  0
VERTEX
  5
ACD
  8
0
 10
11.63514097563724
 20
32.761423792623731
 30
0.0
 42
0.132241495894957
  0
VERTEX
  5
ACE
  8
0
 10
10.949530935475419
 20
32.872456326899773
 30
0.0
 42
0.1322414958949454
 70
     1
  0
VERTEX
  5
ACF
  8
0
 10
10.30083185398008
 20
32.624305460478297
 30
0.0
 42
0.1322414958966612
  0
VERTEX
  5
AD0
  8
0
 10
9.8643673150173186
 20
32.084038806798532
 30
0.0
 42
0.1322414958966684
 70
     1
  0
VERTEX
  5
AD1
  8
0
 10
9.7581003763332745
 20
31.39767397043741
 30
0.0
  0
SEQEND
  5
AD2
  8
0
  0
POLYLINE
  5
AD3
  8
0
 66
     1
 10
0.0
 20
0.0
 30
0.0
 70
     2
  0
VERTEX
  5
AD4
  8
0
 10
11.63514097563788
 20
32.761423792624051
 30
0.0
 42
-0.132241495894957
  0
VERTEX
  5
AD5
  8
0
 10
11.94830523891082
 20
33.381357252801173
 30
0.0
 42
-0.1322414958949454
 70
     1
  0
VERTEX
  5
AD6
  8
0
 10
12.530359260293279
 20
33.760306414340171
 30
0.0
 42
-0.1322414958966612
  0
VERTEX
  5
AD7
  8
0
 10
13.22399158376524
 20
33.795852872464707
 30
0.0
 42
-0.1322414958966684
 70
     1
  0
VERTEX
  5
AD8
  8
0
 10
13.841734540087529
 20
33.478389503295062
 30
0.0
  0
SEQEND
  5
AD9
  8
0
  0
POLYLINE
  5
AE1
  8
0
 66
     1
 10
0.0
 20
0.0
 30
0.0
 70
     2
  0
VERTEX
  5
AE2
  8
0
 10
8.3943505541463832
 20
22.787296464965959
 30
0.0
 42
-0.132241495894957
  0
VERTEX
  5
AE3
  8
0
 10
7.7744170939692623
 20
23.1004607282389
 30
0.0
 42
-0.1322414958949454
 70
     1
  0
VERTEX
  5
AE4
  8
0
 10
7.3954679324302637
 20
23.682514749621362
 30
0.0
 42
-0.1322414958966612
  0
VERTEX
  5
AE5
  8
0
 10
7.3599214743057209
 20
24.376147073093321
 30
0.0
 42
-0.1322414958966684
 70
     1
  0
VERTEX
  5
AE6
  8
0
 10
7.6773848434753651
 20
24.99389002941561
 30
0.0
  0
SEQEND
  5
AE7
  8
0
  0
POLYLINE
  5
AE8
  8
0
 66
     1
 10
0.0
 20
0.0
 30
0.0
 70
     2
  0
VERTEX
  5
AE9
  8
0
 10
8.3943505541466976
 20
22.787296464965319
 30
0.0
 42
0.132241495894957
  0
VERTEX
  5
AEA
  8
0
 10
8.2833180198706629
 20
22.101686424803511
 30
0.0
 42
0.1322414958949454
 70
     1
  0
VERTEX
  5
AEB
  8
0
 10
8.5314688862921315
 20
21.452987343308159
 30
0.0
 42
0.1322414958966612
  0
VERTEX
  5
AEC
  8
0
 10
9.0717355399718969
 20
21.016522804345399
 30
0.0
 42
0.1322414958966684
 70
     1
  0
VERTEX
  5
AED
  8
0
 10
9.7581003763330187
 20
20.910255865661359
 30
0.0
  0
SEQEND
  5
AEE
  8
0
  0
POLYLINE
  5
AEF
  8
0
 66
     1
 10
0.0
 20
0.0
 30
0.0
 70
     2
  0
VERTEX
  5
AF0
  8
0
 10
11.63514097563724
 20
19.546506043474778
 30
0.0
 42
-0.132241495894957
  0
VERTEX
  5
AF1
  8
0
 10
10.949530935475419
 20
19.43547350919874
 30
0.0
 42
-0.1322414958949454
 70
     1
  0
VERTEX
  5
AF2
  8
0
 10
10.30083185398008
 20
19.683624375620209
 30
0.0
 42
-0.1322414958966612
  0
VERTEX
  5
AF3
  8
0
 10
9.8643673150173186
 20
20.223891029299981
 30
0.0
 42
-0.1322414958966684
 70
     1
  0
VERTEX
  5
AF4
  8
0
 10
9.7581003763332745
 20
20.9102558656611
 30
0.0
  0
SEQEND
  5
AF5
  8
0
  0
POLYLINE
  5
AF6
  8
0
 66
     1
 10
0.0
 20
0.0
 30
0.0
 70
     2
  0
VERTEX
  5
AF7
  8
0
 10
11.63514097563788
 20
19.546506043474459
 30
0.0
 42
0.132241495894957
  0
VERTEX
  5
AF8
  8
0
 10
11.94830523891082
 20
18.926572583297339
 30
0.0
 42
0.1322414958949454
 70
     1
  0
VERTEX
  5
AF9
  8
0
 10
12.530359260293279
 20
18.547623421758338
 30
0.0
 42
0.1322414958966612
  0
VERTEX
  5
AFA
  8
0
 10
13.22399158376524
 20
18.512076963633799
 30
0.0
 42
0.1322414958966684
 70
     1
  0
VERTEX
  5
AFB
  8
0
 10
13.841734540087529
 20
18.82954033280345
 30
0.0
  0
SEQEND
  5
AFC
  8
0
  0
POLYLINE
  5
AFD
  8
0
 66
     1
 10
0.0
 20
0.0
 30
0.0
 70
     2
  0
VERTEX
  5
AFE
  8
0
 10
13.84173454008819
 20
18.82954033280387
 30
0.0
 42
0.132241495894957
  0
VERTEX
  5
AFF
  8
0
 10
14.331141427921089
 20
18.336721655215278
 30
0.0
 42
0.1322414958949454
 70
     1
  0
VERTEX
  5
B00
  8
0
 10
15.00180942871236
 20
18.156184170040522
 30
0.0
 42
0.1322414958966612
  0
VERTEX
  5
B01
  8
0
 10
15.672477429513631
 20
18.336721655210589
 30
0.0
 42
0.1322414958966684
 70
     1
  0
VERTEX
  5
B02
  8
0
 10
16.161884317354431
 20
18.829540332803418
 30
0.0
  0
SEQEND
  5
B03
  8
0
  0
POLYLINE
  5
B04
  8
0
 66
     1
 10
0.0
 20
0.0
 30
0.0
 70
     2
  0
VERTEX
  5
B05
  8
0
 10
18.368477881804239
 20
19.546506043474459
 30
0.0
 42
-0.132241495894957
  0
VERTEX
  5
B06
  8
0
 10
18.055313618531301
 20
18.926572583297339
 30
0.0
 42
-0.1322414958949454
 70
     1
  0
VERTEX
  5
B07
  8
0
 10
17.473259597148839
 20
18.547623421758338
 30
0.0
 42
-0.1322414958966612
  0
VERTEX
  5
B08
  8
0
 10
16.77962727367688
 20
18.512076963633799
 30
0.0
 42
-0.1322414958966684
 70
     1
  0
VERTEX
  5
B09
  8
0
 10
16.161884317354591
 20
18.82954033280345
 30
0.0
  0
SEQEND
  5
B0A
  8
0
  0
POLYLINE
  5
B0B
  8
0
 66
     1
 10
0.0
 20
0.0
 30
0.0
 70
     2
  0
VERTEX
  5
B0C
  8
0
 10
18.368477881804878
 20
19.546506043474778
 30
0.0
 42
0.132241495894957
  0
VERTEX
  5
B0D
  8
0
 10
19.054087921966701
 20
19.43547350919874
 30
0.0
 42
0.1322414958949454
 70
     1
  0
VERTEX
  5
B0E
  8
0
 10
19.702787003462031
 20
19.683624375620209
 30
0.0
 42
0.1322414958966612
  0
VERTEX
  5
B0F
  8
0
 10
20.139251542424802
 20
20.223891029299981
 30
0.0
 42
0.1322414958966684
 70
     1
  0
VERTEX
  5
B10
  8
0
 10
20.245518481108849
 20
20.9102558656611
 30
0.0
  0
SEQEND
  5
B11
  8
0
  0
POLYLINE
  5
B12
  8
0
 66
     1
 10
0.0
 20
0.0
 30
0.0
 70
     2
  0
VERTEX
  5
B13
  8
0
 10
21.609268303295419
 20
22.787296464965319
 30
0.0
 42
-0.132241495894957
  0
VERTEX
  5
B14
  8
0
 10
21.720300837571461
 20
22.101686424803511
 30
0.0
 42
-0.1322414958949454
 70
     1
  0
VERTEX
  5
B15
  8
0
 10
21.472149971149989
 20
21.452987343308159
 30
0.0
 42
-0.1322414958966612
  0
VERTEX
  5
B16
  8
0
 10
20.93188331747022
 20
21.016522804345399
 30
0.0
 42
-0.1322414958966684
 70
     1
  0
VERTEX
  5
B17
  8
0
 10
20.245518481109102
 20
20.910255865661359
 30
0.0
  0
SEQEND
  5
B18
  8
0
  0
POLYLINE
  5
B19
  8
0
 66
     1
 10
0.0
 20
0.0
 30
0.0
 70
     2
  0
VERTEX
  5
B1A
  8
0
 10
21.609268303295728
 20
22.787296464965959
 30
0.0
 42
0.132241495894957
  0
VERTEX
  5
B1B
  8
0
 10
22.229201763472862
 20
23.1004607282389
 30
0.0
 42
0.1322414958949454
 70
     1
  0
VERTEX
  5
B1C
  8
0
 10
22.608150925011859
 20
23.682514749621362
 30
0.0
 42
0.1322414958966612
  0
VERTEX
  5
B1D
  8
0
 10
22.643697383136399
 20
24.376147073093321
 30
0.0
 42
0.1322414958966684
 70
     1
  0
VERTEX
  5
B1E
  8
0
 10
22.326234013966761
 20
24.99389002941561
 30
0.0
  0
SEQEND
  5
B1F
  8
0
  0
POLYLINE
  5
B20
  8
0
 66
     1
 10
0.0
 20
0.0
 30
0.0
 70
     2
  0
VERTEX
  5
B21
  8
0
 10
51.647130350915567
 20
33.755325718808884
 30
0.0
 42
-0.0259237257781615
  0
VERTEX
  5
B2A
  8
0
 10
51.673218325601397
 20
33.819254391182092
 30
0.0
 42
-0.0464508115307069
 70
     1
  0
VERTEX
  5
B22
  8
0
 10
51.692798257045098
 20
33.852509936431211
 30
0.0
 42
-0.0068574560399494
  0
VERTEX
  5
B2B
  8
0
 10
51.745810664785658
 20
33.923908843002152
 30
0.0
 42
-0.0249771671803112
 70
     1
  0
VERTEX
  5
B23
  8
0
 10
51.761591810550271
 20
33.942556490907293
 30
0.0
 42
-0.0103407170455674
  0
VERTEX
  5
B2C
  8
0
 10
51.792400266283721
 20
33.974141323018472
 30
0.0
 42
-0.0122258483050928
 70
     1
  0
VERTEX
  5
B24
  8
0
 10
51.819638178011729
 20
33.999654271184802
 30
0.0
 42
-0.0183648566362936
  0
VERTEX
  5
B2D
  8
0
 10
51.856200307898149
 20
34.029924700107557
 30
0.0
 42
-0.0163779145803226
 70
     1
  0
VERTEX
  5
B25
  8
0
 10
51.899452594096772
 20
34.060937282665101
 30
0.0
 42
-0.026594217888942
  0
VERTEX
  5
B2E
  8
0
 10
51.949976271141402
 20
34.090957247160418
 30
0.0
 42
-0.0302727321079404
 70
     1
  0
VERTEX
  5
B26
  8
0
 10
51.997076069932142
 20
34.112127776323213
 30
0.0
 42
-0.0151559865094374
  0
VERTEX
  5
B30
  8
0
 10
52.014189131981432
 20
34.11801978211281
 30
0.0
 42
-0.0042849050760049
 70
     1
  0
VERTEX
  5
B27
  8
0
 10
52.075470504056199
 20
34.136487757389013
 30
0.0
 42
-0.0245845103263289
  0
VERTEX
  5
B2F
  8
0
 10
52.106388211913661
 20
34.143889485480088
 30
0.0
 42
-0.0146803715628855
 70
     1
  0
VERTEX
  5
B28
  8
0
 10
52.158956900558252
 20
34.152182198972582
 30
0.0
  0
SEQEND
  5
B29
  8
0
  0
POLYLINE
  5
B31
  8
0
 66
     1
 10
0.0
 20
0.0
 30
0.0
 70
     2
  0
VERTEX
  5
B32
  8
0
 10
51.890606735216231
 20
33.817261217004699
 30
0.0
 42
-0.0233385637244156
  0
VERTEX
  5
B39
  8
0
 10
51.941867652127712
 20
33.824297085896013
 30
0.0
 42
-0.0389196435157315
 70
     1
  0
VERTEX
  5
B33
  8
0
 10
51.972922856361919
 20
33.824667747832883
 30
0.0
 42
-0.0040986518922186
  0
VERTEX
  5
B3A
  8
0
 10
52.032151021230099
 20
33.820273137821943
 30
0.0
 42
-0.0236425273683089
 70
     1
  0
VERTEX
  5
B34
  8
0
 10
52.042366274385813
 20
33.818942446026661
 30
0.0
 42
-0.0078136721837831
  0
VERTEX
  5
B3B
  8
0
 10
52.074451934197327
 20
33.812690546084241
 30
0.0
 42
-0.0124101420574383
 70
     1
  0
VERTEX
  5
B35
  8
0
 10
52.094479878270683
 20
33.807940144553903
 30
0.0
 42
-0.00613448517754
  0
VERTEX
  5
B3D
  8
0
 10
52.102382582343012
 20
33.805753237428121
 30
0.0
 42
-0.001780423589696
 70
     1
  0
VERTEX
  5
B36
  8
0
 10
52.129487890143139
 20
33.797788416971827
 30
0.0
 42
-0.0209195533020848
  0
VERTEX
  5
B3C
  8
0
 10
52.139547804393601
 20
33.794329192759278
 30
0.0
 42
-0.0105568711198853
 70
     1
  0
VERTEX
  5
B37
  8
0
 10
52.15900556131799
 20
33.78623660464104
 30
0.0
  0
SEQEND
  5
B38
  8
0
  0
POLYLINE
  5
DF2
  8
0
 66
     1
 10
0.0
 20
0.0
 30
0.0
 70
     2
  0
VERTEX
  5
DF3
  8
0
 10
51.581456778664752
 20
32.813306678046878
 30
0.0
 42
-0.0312287920287124
  0
VERTEX
  5
DFA
  8
0
 10
51.607467423029682
 20
32.993926746944453
 30
0.0
 42
-0.0521296600894541
 70
     1
  0
VERTEX
  5
DF4
  8
0
 10
51.640835056729848
 20
33.098228052959371
 30
0.0
 42
-0.0083759356039379
  0
VERTEX
  5
DFB
  8
0
 10
51.730106413608212
 20
33.292601103468428
 30
0.0
 42
-0.0304295415204465
 70
     1
  0
VERTEX
  5
DF5
  8
0
 10
51.758776724511563
 20
33.344081917691632
 30
0.0
 42
-0.0130142774397353
  0
VERTEX
  5
DFC
  8
0
 10
51.812856373037391
 20
33.423983905235112
 30
0.0
 42
-0.0179302754802182
 70
     1
  0
VERTEX
  5
DF6
  8
0
 10
51.855626869231692
 20
33.47944880214601
 30
0.0
 42
-0.0243213141310107
  0
VERTEX
  5
DFE
  8
0
 10
51.890458521350318
 20
33.517490590450848
 30
0.0
 42
-0.0075669518822276
 70
     1
  0
VERTEX
  5
DF7
  8
0
 10
52.009912896541259
 20
33.632318627699341
 30
0.0
 42
-0.0375817197702826
  0
VERTEX
  5
DFD
  8
0
 10
52.059778734854369
 20
33.67226458506105
 30
0.0
 42
-0.0204916381770312
 70
     1
  0
VERTEX
  5
DF8
  8
0
 10
52.159005561309243
 20
33.734376224039551
 30
0.0
  0
SEQEND
  5
DF9
  8
0
  0
POLYLINE
  5
E14
  8
0
 66
     1
 10
0.0
 20
0.0
 30
0.0
 70
     2
  0
VERTEX
  5
E15
  8
0
 10
51.647130350915567
 20
18.552604117289661
 30
0.0
 42
0.0259237257781615
  0
VERTEX
  5
E16
  8
0
 10
51.673218325601397
 20
18.488675444916449
 30
0.0
 42
0.0464508115307069
 70
     1
  0
VERTEX
  5
E17
  8
0
 10
51.692798257045098
 20
18.45541989966733
 30
0.0
 42
0.0068574560399494
  0
VERTEX
  5
E18
  8
0
 10
51.745810664785658
 20
18.384020993096382
 30
0.0
 42
0.0249771671803112
 70
     1
  0
VERTEX
  5
E19
  8
0
 10
51.761591810550271
 20
18.365373345191241
 30
0.0
 42
0.0103407170455674
  0
VERTEX
  5
E1A
  8
0
 10
51.792400266283721
 20
18.333788513080059
 30
0.0
 42
0.0122258483050928
 70
     1
  0
VERTEX
  5
E1B
  8
0
 10
51.819638178011729
 20
18.308275564913739
 30
0.0
 42
0.0183648566362936
  0
VERTEX
  5
E1C
  8
0
 10
51.856200307898149
 20
18.278005135990981
 30
0.0
 42
0.0163779145803226
 70
     1
  0
VERTEX
  5
E1D
  8
0
 10
51.899452594096772
 20
18.24699255343344
 30
0.0
 42
0.026594217888942
  0
VERTEX
  5
E1E
  8
0
 10
51.949976271141402
 20
18.21697258893812
 30
0.0
 42
0.0302727321079404
 70
     1
  0
VERTEX
  5
E1F
  8
0
 10
51.997076069932142
 20
18.195802059775328
 30
0.0
 42
0.0151559865094374
  0
VERTEX
  5
E20
  8
0
 10
52.014189131981432
 20
18.18991005398572
 30
0.0
 42
0.0042849050760049
 70
     1
  0
VERTEX
  5
E21
  8
0
 10
52.075470504056199
 20
18.171442078709529
 30
0.0
 42
0.0245845103263289
  0
VERTEX
  5
E22
  8
0
 10
52.106388211913661
 20
18.16404035061845
 30
0.0
 42
0.0146803715628855
 70
     1
  0
VERTEX
  5
E23
  8
0
 10
52.158956900558252
 20
18.155747637125948
 30
0.0
  0
SEQEND
  5
E24
  8
0
  0
POLYLINE
  5
E25
  8
0
 66
     1
 10
0.0
 20
0.0
 30
0.0
 70
     2
  0
VERTEX
  5
E26
  8
0
 10
51.890606735216231
 20
18.490668619093839
 30
0.0
 42
0.0233385637244156
  0
VERTEX
  5
E27
  8
0
 10
51.941867652127712
 20
18.483632750202531
 30
0.0
 42
0.0389196435157315
 70
     1
  0
VERTEX
  5
E28
  8
0
 10
51.972922856361919
 20
18.483262088265661
 30
0.0
 42
0.0040986518922186
  0
VERTEX
  5
E29
  8
0
 10
52.032151021230099
 20
18.487656698276592
 30
0.0
 42
0.0236425273683089
 70
     1
  0
VERTEX
  5
E2A
  8
0
 10
52.042366274385813
 20
18.48898739007188
 30
0.0
 42
0.0078136721837831
  0
VERTEX
  5
E2B
  8
0
 10
52.074451934197327
 20
18.4952392900143
 30
0.0
 42
0.0124101420574383
 70
     1
  0
VERTEX
  5
E2C
  8
0
 10
52.094479878270683
 20
18.499989691544641
 30
0.0
 42
0.00613448517754
  0
VERTEX
  5
E2D
  8
0
 10
52.102382582343012
 20
18.50217659867041
 30
0.0
 42
0.001780423589696
 70
     1
  0
VERTEX
  5
E2E
  8
0
 10
52.129487890143139
 20
18.510141419126711
 30
0.0
 42
0.0209195533020848
  0
VERTEX
  5
E2F
  8
0
 10
52.139547804393601
 20
18.513600643339259
 30
0.0
 42
0.0105568711198853
 70
     1
  0
VERTEX
  5
E30
  8
0
 10
52.15900556131799
 20
18.521693231457501
 30
0.0
  0
SEQEND
  5
E31
  8
0
  0
POLYLINE
  5
E33
  8
0
 66
     1
 10
0.0
 20
0.0
 30
0.0
 70
     2
  0
VERTEX
  5
E34
  8
0
 10
51.581456778664752
 20
19.494623158051649
 30
0.0
 42
0.0312287920287124
  0
VERTEX
  5
E35
  8
0
 10
51.607467423029682
 20
19.314003089154081
 30
0.0
 42
0.0521296600894541
 70
     1
  0
VERTEX
  5
E36
  8
0
 10
51.640835056729848
 20
19.20970178313917
 30
0.0
 42
0.0083759356039379
  0
VERTEX
  5
E37
  8
0
 10
51.730106413608212
 20
19.01532873263011
 30
0.0
 42
0.0304295415204465
 70
     1
  0
VERTEX
  5
E38
  8
0
 10
51.758776724511563
 20
18.963847918406909
 30
0.0
 42
0.0130142774397353
  0
VERTEX
  5
E39
  8
0
 10
51.812856373037391
 20
18.88394593086343
 30
0.0
 42
0.0179302754802182
 70
     1
  0
VERTEX
  5
E3A
  8
0
 10
51.855626869231692
 20
18.828481033952531
 30
0.0
 42
0.0243213141310107
  0
VERTEX
  5
E3B
  8
0
 10
51.890458521350318
 20
18.79043924564769
 30
0.0
 42
0.0075669518822276
 70
     1
  0
VERTEX
  5
E3C
  8
0
 10
52.009912896541259
 20
18.6756112083992
 30
0.0
 42
0.0375817197702826
  0
VERTEX
  5
E3D
  8
0
 10
52.059778734854369
 20
18.635665251037491
 30
0.0
 42
0.0204916381770312
 70
     1
  0
VERTEX
  5
E3E
  8
0
 10
52.159005561309243
 20
18.573553612058991
 30
0.0
  0
SEQEND
  5
E3F
  8
0
  0
POLYLINE
  5
E40
  8
0
 66
     1
 10
0.0
 20
0.0
 30
0.0
 70
     2
  0
VERTEX
  5
E56
  8
0
 10
51.657806377511399
 20
19.4598381511321
 30
0.0
 42
0.0278850623325029
  0
VERTEX
  5
E5E
  8
0
 10
51.700018141058422
 20
19.449100689857371
 30
0.0
 42
0.0616985780949864
 70
     1
  0
VERTEX
  5
E57
  8
0
 10
51.71971465623875
 20
19.44771785699854
 30
0.0
 42
0.0205957453196153
  0
VERTEX
  5
E5F
  8
0
 10
51.795981321083332
 20
19.454933862562271
 30
0.0
 42
0.0344702664981517
 70
     1
  0
VERTEX
  5
E58
  8
0
 10
51.840834709769688
 20
19.464233313171729
 30
0.0
 42
0.0092719785076736
  0
VERTEX
  5
E60
  8
0
 10
51.896874761773581
 20
19.481071807420559
 30
0.0
 42
0.0178304548671251
 70
     1
  0
VERTEX
  5
E59
  8
0
 10
51.925505524372959
 20
19.491396194237272
 30
0.0
 42
0.0121985936455492
  0
VERTEX
  5
E61
  8
0
 10
51.970933121542203
 20
19.51093252780251
 30
0.0
 42
0.0180337650088846
 70
     1
  0
VERTEX
  5
E5A
  8
0
 10
52.000812385049301
 20
19.52598272246966
 30
0.0
 42
0.0140106831397506
  0
VERTEX
  5
E63
  8
0
 10
52.012061120652326
 20
19.532583927578479
 30
0.0
 42
0.0022492690397698
 70
     1
  0
VERTEX
  5
E5B
  8
0
 10
52.080742378648409
 20
19.575950846459691
 30
0.0
 42
0.0182426113803181
  0
VERTEX
  5
E62
  8
0
 10
52.109972604085719
 20
19.596128394229321
 30
0.0
 42
0.0104247026018465
 70
     1
  0
VERTEX
  5
E5C
  8
0
 10
52.15900556131799
 20
19.634302222712389
 30
0.0
  0
SEQEND
  5
E5D
  8
0
  0
POLYLINE
  5
E41
  8
0
 66
     1
 10
0.0
 20
0.0
 30
0.0
 70
     2
  0
VERTEX
  5
E42
  8
0
 10
51.573534764790281
 20
20.910255865666119
 30
0.0
 42
0.0163165757530811
  0
VERTEX
  5
E4D
  8
0
 10
51.584829598210092
 20
20.7892535476077
 30
0.0
 42
0.026833844768071
 70
     1
  0
VERTEX
  5
E43
  8
0
 10
51.598018649158028
 20
20.71650953058257
 30
0.0
 42
0.0018452445070186
  0
VERTEX
  5
E4E
  8
0
 10
51.628197857945111
 20
20.591402318544059
 30
0.0
 42
0.0123243735505035
 70
     1
  0
VERTEX
  5
E44
  8
0
 10
51.633246061137889
 20
20.572803656001149
 30
0.0
 42
0.0104471500670075
  0
VERTEX
  5
E4F
  8
0
 10
51.657094912702739
 20
20.498501490465401
 30
0.0
 42
0.0109354789101207
 70
     1
  0
VERTEX
  5
E45
  8
0
 10
51.682892837909769
 20
20.428555511490199
 30
0.0
 42
0.0126255167828387
  0
VERTEX
  5
E50
  8
0
 10
51.71723369520361
 20
20.347437392399002
 30
0.0
 42
0.0125628822872779
 70
     1
  0
VERTEX
  5
E46
  8
0
 10
51.755806816530509
 20
20.267756162643
 30
0.0
 42
0.0101504119577573
  0
VERTEX
  5
E51
  8
0
 10
51.79431333104673
 20
20.196640553539851
 30
0.0
 42
0.0105800321051643
 70
     1
  0
VERTEX
  5
E47
  8
0
 10
51.834052706517383
 20
20.130001941783039
 30
0.0
 42
0.0106327096204176
  0
VERTEX
  5
E52
  8
0
 10
51.883233898480619
 20
20.05495985860432
 30
0.0
 42
0.0132227761867586
 70
     1
  0
VERTEX
  5
E48
  8
0
 10
51.925616923357978
 20
19.99656805766239
 30
0.0
 42
0.009122511591374
  0
VERTEX
  5
E53
  8
0
 10
51.986309790770861
 20
19.920359695276488
 30
0.0
 42
0.0123405826410238
 70
     1
  0
VERTEX
  5
E49
  8
0
 10
52.033555052632778
 20
19.865997683441488
 30
0.0
 42
0.001633939373887
  0
VERTEX
  5
E55
  8
0
 10
52.044286674905258
 20
19.854324980373232
 30
0.0
 42
0.0003122929023425
 70
     1
  0
VERTEX
  5
E4A
  8
0
 10
52.100672460936799
 20
19.793471716755011
 30
0.0
 42
0.0047555161713824
  0
VERTEX
  5
E54
  8
0
 10
52.119661984062873
 20
19.773389794268841
 30
0.0
 42
0.0023294147936772
 70
     1
  0
VERTEX
  5
E4B
  8
0
 10
52.159005561311353
 20
19.732946528536019
 30
0.0
  0
SEQEND
  5
E4C
  8
0
  0
POLYLINE
  5
E64
  8
0
 66
     1
 10
0.0
 20
0.0
 30
0.0
 70
     2
  0
VERTEX
  5
E65
  8
0
 10
51.573534764790281
 20
31.397673970432422
 30
0.0
 42
-0.0163165757530811
  0
VERTEX
  5
E66
  8
0
 10
51.584829598210092
 20
31.518676288490841
 30
0.0
 42
-0.026833844768071
 70
     1
  0
VERTEX
  5
E67
  8
0
 10
51.598018649158028
 20
31.591420305515971
 30
0.0
 42
-0.0018452445070186
  0
VERTEX
  5
E68
  8
0
 10
51.628197857945111
 20
31.716527517554479
 30
0.0
 42
-0.0123243735505035
 70
     1
  0
VERTEX
  5
E69
  8
0
 10
51.633246061137889
 20
31.735126180097382
 30
0.0
 42
-0.0104471500670075
  0
VERTEX
  5
E6A
  8
0
 10
51.657094912702739
 20
31.80942834563314
 30
0.0
 42
-0.0109354789101207
 70
     1
  0
VERTEX
  5
E6B
  8
0
 10
51.682892837909769
 20
31.879374324608339
 30
0.0
 42
-0.0126255167828387
  0
VERTEX
  5
E6C
  8
0
 10
51.71723369520361
 20
31.96049244369954
 30
0.0
 42
-0.0125628822872779
 70
     1
  0
VERTEX
  5
E6D
  8
0
 10
51.755806816530509
 20
32.040173673455541
 30
0.0
 42
-0.0101504119577573
  0
VERTEX
  5
E6E
  8
0
 10
51.79431333104673
 20
32.111289282558687
 30
0.0
 42
-0.0105800321051643
 70
     1
  0
VERTEX
  5
E6F
  8
0
 10
51.834052706517383
 20
32.177927894315509
 30
0.0
 42
-0.0106327096204176
  0
VERTEX
  5
E70
  8
0
 10
51.883233898480619
 20
32.252969977494217
 30
0.0
 42
-0.0132227761867586
 70
     1
  0
VERTEX
  5
E71
  8
0
 10
51.925616923357978
 20
32.311361778436151
 30
0.0
 42
-0.009122511591374
  0
VERTEX
  5
E72
  8
0
 10
51.986309790770861
 20
32.387570140822049
 30
0.0
 42
-0.0123405826410238
 70
     1
  0
VERTEX
  5
E73
  8
0
 10
52.033555052632778
 20
32.441932152657053
 30
0.0
 42
-0.001633939373887
  0
VERTEX
  5
E74
  8
0
 10
52.044286674905258
 20
32.453604855725303
 30
0.0
 42
-0.0003122929023425
 70
     1
  0
VERTEX
  5
E75
  8
0
 10
52.100672460936799
 20
32.51445811934353
 30
0.0
 42
-0.0047555161713824
  0
VERTEX
  5
E76
  8
0
 10
52.119661984062873
 20
32.5345400418297
 30
0.0
 42
-0.0023294147936772
 70
     1
  0
VERTEX
  5
E77
  8
0
 10
52.159005561311353
 20
32.574983307562519
 30
0.0
  0
SEQEND
  5
E78
  8
0
  0
POLYLINE
  5
E79
  8
0
 66
     1
 10
0.0
 20
0.0
 30
0.0
 70
     2
  0
VERTEX
  5
E7A
  8
0
 10
51.656830113132138
 20
32.847766497016309
 30
0.0
 42
-0.0288906317010241
  0
VERTEX
  5
E7B
  8
0
 10
51.700018141058422
 20
32.858829146241163
 30
0.0
 42
-0.0616985780949864
 70
     1
  0
VERTEX
  5
E7C
  8
0
 10
51.71971465623875
 20
32.860211979100001
 30
0.0
 42
-0.0205957453196153
  0
VERTEX
  5
E7D
  8
0
 10
51.795981321083332
 20
32.852995973536267
 30
0.0
 42
-0.0344702664981517
 70
     1
  0
VERTEX
  5
E7E
  8
0
 10
51.840834709769688
 20
32.843696522926813
 30
0.0
 42
-0.0092719785076736
  0
VERTEX
  5
E7F
  8
0
 10
51.896874761773581
 20
32.826858028677982
 30
0.0
 42
-0.0178304548671251
 70
     1
  0
VERTEX
  5
E80
  8
0
 10
51.925505524372959
 20
32.81653364186127
 30
0.0
 42
-0.0121985936455492
  0
VERTEX
  5
E81
  8
0
 10
51.970933121542203
 20
32.796997308296028
 30
0.0
 42
-0.0180337650088846
 70
     1
  0
VERTEX
  5
E82
  8
0
 10
52.000812385049301
 20
32.781947113628881
 30
0.0
 42
-0.0140106831397506
  0
VERTEX
  5
E83
  8
0
 10
52.012061120652326
 20
32.775345908520052
 30
0.0
 42
-0.0022492690397698
 70
     1
  0
VERTEX
  5
E84
  8
0
 10
52.080742378648409
 20
32.731978989638847
 30
0.0
 42
-0.0182426113803181
  0
VERTEX
  5
E85
  8
0
 10
52.109972604085719
 20
32.711801441869213
 30
0.0
 42
-0.0104247026018465
 70
     1
  0
VERTEX
  5
E86
  8
0
 10
52.15900556131799
 20
32.673627613386152
 30
0.0
  0
SEQEND
  5
E87
  8
0
  0
POLYLINE
  5
E88
  8
0
 66
     1
 10
0.0
 20
0.0
 30
0.0
 70
     2
  0
VERTEX
  5
EC0
  8
0
 10
51.573534764790992
 20
20.910255865654999
 30
0.0
 42
0.0103273679549835
  0
VERTEX
  5
EC9
  8
0
 10
51.626758451626699
 20
20.935897325649591
 30
0.0
 42
0.0234042177598436
 70
     1
  0
VERTEX
  5
EC1
  8
0
 10
51.649437942899169
 20
20.948774837196112
 30
0.0
 42
0.0024354544982878
  0
VERTEX
  5
ECA
  8
0
 10
51.739272548351771
 20
21.006113005821341
 30
0.0
 42
0.0122378234315692
 70
     1
  0
VERTEX
  5
EC2
  8
0
 10
51.756810588366051
 20
21.018045263605998
 30
0.0
 42
0.0051345894824443
  0
VERTEX
  5
ECB
  8
0
 10
51.810207013236599
 20
21.057155075204211
 30
0.0
 42
0.0063555722389543
 70
     1
  0
VERTEX
  5
EC3
  8
0
 10
51.852608518259409
 20
21.089734764873882
 30
0.0
 42
0.0052082262305734
  0
VERTEX
  5
ECC
  8
0
 10
51.904972533572639
 20
21.131930479206591
 30
0.0
 42
0.0064406892169551
 70
     1
  0
VERTEX
  5
EC4
  8
0
 10
51.946510626546107
 20
21.167029464004191
 30
0.0
 42
0.0075612039137148
  0
VERTEX
  5
ECD
  8
0
 10
51.993083398499202
 20
21.20867283742723
 30
0.0
 42
0.0104199177648452
 70
     1
  0
VERTEX
  5
EC5
  8
0
 10
52.025772260078547
 20
21.24008845560893
 30
0.0
 42
0.004900604076396
  0
VERTEX
  5
ECF
  8
0
 10
52.029461817562492
 20
21.24385843613652
 30
0.0
 42
0.0003527468594083
 70
     1
  0
VERTEX
  5
EC6
  8
0
 10
52.080165392880673
 20
21.296768003478981
 30
0.0
 42
0.0086831702963159
  0
VERTEX
  5
ECE
  8
0
 10
52.111095048750151
 20
21.330233486909261
 30
0.0
 42
0.0054319279962607
 70
     1
  0
VERTEX
  5
EC7
  8
0
 10
52.15900556131799
 20
21.38510122374754
 30
0.0
  0
SEQEND
  5
EC8
  8
0
  0
POLYLINE
  5
E89
  8
0
 66
     1
 10
0.0
 20
0.0
 30
0.0
 70
     2
  0
VERTEX
  5
EAC
  8
0
 10
51.573534764790651
 20
22.787296464965511
 30
0.0
 42
0.0111080603197711
  0
VERTEX
  5
EB7
  8
0
 10
51.579661688036218
 20
22.713072298072689
 30
0.0
 42
0.0177562196084212
 70
     1
  0
VERTEX
  5
EAD
  8
0
 10
51.586168321062218
 20
22.666928238199521
 30
0.0
 42
0.0012185898363504
  0
VERTEX
  5
EB8
  8
0
 10
51.598012505892598
 20
22.60110317848364
 30
0.0
 42
0.0043274054435266
 70
     1
  0
VERTEX
  5
EAE
  8
0
 10
51.601553261950777
 20
22.582604771813589
 30
0.0
 42
0.0199621030089892
  0
VERTEX
  5
EB9
  8
0
 10
51.624364264604772
 20
22.48845138716058
 30
0.0
 42
0.0140559835065442
 70
     1
  0
VERTEX
  5
EAF
  8
0
 10
51.66576637107763
 20
22.35727392518686
 30
0.0
 42
0.0179855775133778
  0
VERTEX
  5
EBA
  8
0
 10
51.712724008974988
 20
22.236134995112369
 30
0.0
 42
0.0170474278892039
 70
     1
  0
VERTEX
  5
EB0
  8
0
 10
51.771088933100827
 20
22.112115177194351
 30
0.0
 42
0.0102442498786333
  0
VERTEX
  5
EBB
  8
0
 10
51.847089381089859
 20
21.971139748596549
 30
0.0
 42
0.0158855593393226
 70
     1
  0
VERTEX
  5
EB1
  8
0
 10
51.90078997475544
 20
21.882898838209321
 30
0.0
 42
0.0035986512547431
  0
VERTEX
  5
EBC
  8
0
 10
51.965827231353501
 20
21.784846346938021
 30
0.0
 42
0.009342532747227
 70
     1
  0
VERTEX
  5
EB2
  8
0
 10
51.991849900065802
 20
21.74773569844572
 30
0.0
 42
0.0006379610143104
  0
VERTEX
  5
EBD
  8
0
 10
52.056230133080931
 20
21.659714847290051
 30
0.0
 42
0.0013338367293782
 70
     1
  0
VERTEX
  5
EB3
  8
0
 10
52.087188392518208
 20
21.617737040530471
 30
0.0
 42
0.0000202362519503
  0
VERTEX
  5
EBF
  8
0
 10
52.112735243792031
 20
21.58329249379511
 30
0.0
 42
-0.000003718955518
 70
     1
  0
VERTEX
  5
EB4
  8
0
 10
52.13828209506584
 20
21.548847947059741
 30
0.0
 42
-0.0001404023107595
  0
VERTEX
  5
EBE
  8
0
 10
52.142974205749738
 20
21.542517811761972
 30
0.0
 42
-0.0000410732916236
 70
     1
  0
VERTEX
  5
EB5
  8
0
 10
52.159005561306287
 20
21.520873462853189
 30
0.0
  0
SEQEND
  5
EB6
  8
0
  0
POLYLINE
  5
E8A
  8
0
 66
     1
 10
0.0
 20
0.0
 30
0.0
 70
     2
  0
VERTEX
  5
E9C
  8
0
 10
51.573534764790281
 20
22.78729646497009
 30
0.0
 42
-0.0252366073190125
  0
VERTEX
  5
EA5
  8
0
 10
51.60495676238196
 20
22.869986440232079
 30
0.0
 42
-0.0463200834875629
 70
     1
  0
VERTEX
  5
E9D
  8
0
 10
51.628358968766321
 20
22.91220155513308
 30
0.0
 42
-0.0025773290026174
  0
VERTEX
  5
EA6
  8
0
 10
51.68861386552237
 20
22.999541105735599
 30
0.0
 42
-0.0126077064767621
 70
     1
  0
VERTEX
  5
E9E
  8
0
 10
51.701469875694421
 20
23.017015900038729
 30
0.0
 42
-0.0023454515595416
  0
VERTEX
  5
EA7
  8
0
 10
51.798965012290978
 20
23.141557694244401
 30
0.0
 42
-0.0045702077094584
 70
     1
  0
VERTEX
  5
E9F
  8
0
 10
51.849879962814668
 20
23.204775949733939
 30
0.0
 42
-0.000510838875089
  0
VERTEX
  5
EA8
  8
0
 10
51.881987447344642
 20
23.24382303633325
 30
0.0
 42
0.0010225265574513
 70
     1
  0
VERTEX
  5
EA0
  8
0
 10
51.914094931874608
 20
23.282870122932572
 30
0.0
 42
0.0014658430534131
  0
VERTEX
  5
EA9
  8
0
 10
51.989294642184511
 20
23.375256658142799
 30
0.0
 42
0.003418532228825
 70
     1
  0
VERTEX
  5
EA1
  8
0
 10
52.021151545950261
 20
23.415184846790211
 30
0.0
 42
0.0048011934616889
  0
VERTEX
  5
EAB
  8
0
 10
52.02229437827679
 20
23.416666549332039
 30
0.0
 42
0.0001048898771664
 70
     1
  0
VERTEX
  5
EA2
  8
0
 10
52.073936812951011
 20
23.484997935022349
 30
0.0
 42
0.0052951946280201
  0
VERTEX
  5
EAA
  8
0
 10
52.107502646067701
 20
23.530422705352411
 30
0.0
 42
0.0033695175485778
 70
     1
  0
VERTEX
  5
EA3
  8
0
 10
52.15900556131799
 20
23.602709829817059
 30
0.0
  0
SEQEND
  5
EA4
  8
0
  0
POLYLINE
  5
E8B
  8
0
 66
     1
 10
0.0
 20
0.0
 30
0.0
 70
     2
  0
VERTEX
  5
E8C
  8
0
 10
51.573534764790281
 20
24.99389002941982
 30
0.0
 42
0.0148793897700618
  0
VERTEX
  5
E95
  8
0
 10
51.584824429075688
 20
24.893802687740958
 30
0.0
 42
0.0307901279203653
 70
     1
  0
VERTEX
  5
E8D
  8
0
 10
51.594675250313941
 20
24.846099690995441
 30
0.0
 42
0.0043880749159061
  0
VERTEX
  5
E96
  8
0
 10
51.639295099416699
 20
24.687335722471168
 30
0.0
 42
0.0187467143027807
 70
     1
  0
VERTEX
  5
E8E
  8
0
 10
51.651450901644381
 20
24.650684199727198
 30
0.0
 42
0.0075159123940722
  0
VERTEX
  5
E97
  8
0
 10
51.68538606539289
 20
24.563903630034361
 30
0.0
 42
0.0107250941163416
 70
     1
  0
VERTEX
  5
E8F
  8
0
 10
51.71137084268463
 20
24.503994013741131
 30
0.0
 42
0.0073549301971414
  0
VERTEX
  5
E98
  8
0
 10
51.753193530469503
 20
24.41638855301051
 30
0.0
 42
0.0088311486323409
 70
     1
  0
VERTEX
  5
E90
  8
0
 10
51.790369209442389
 20
24.344591118359059
 30
0.0
 42
0.0071934434541709
  0
VERTEX
  5
E99
  8
0
 10
51.85113937111862
 20
24.235903444640709
 30
0.0
 42
0.0097997358449237
 70
     1
  0
VERTEX
  5
E91
  8
0
 10
51.898434611772302
 20
24.157680180428809
 30
0.0
 42
0.0023305934805828
  0
VERTEX
  5
E9B
  8
0
 10
51.90427963945865
 20
24.148522241495701
 30
0.0
 42
0.0001381343049569
 70
     1
  0
VERTEX
  5
E92
  8
0
 10
52.003657739084268
 20
23.994499691243622
 30
0.0
 42
0.0040979180691262
  0
VERTEX
  5
E9A
  8
0
 10
52.06178559171974
 20
23.906063140289799
 30
0.0
 42
0.0024990885106494
 70
     1
  0
VERTEX
  5
E93
  8
0
 10
52.15900556131799
 20
23.762319669425739
 30
0.0
  0
SEQEND
  5
E94
  8
0
  0
POLYLINE
  5
ED0
  8
0
 66
     1
 10
0.0
 20
0.0
 30
0.0
 70
     2
  0
VERTEX
  5
ED1
  8
0
 10
51.573534764790281
 20
27.314039806678721
 30
0.0
 42
-0.0148793897700618
  0
VERTEX
  5
ED2
  8
0
 10
51.584824429075688
 20
27.414127148357579
 30
0.0
 42
-0.0307901279203653
 70
     1
  0
VERTEX
  5
ED3
  8
0
 10
51.594675250313941
 20
27.4618301451031
 30
0.0
 42
-0.0043880749159061
  0
VERTEX
  5
ED4
  8
0
 10
51.639295099416699
 20
27.620594113627369
 30
0.0
 42
-0.0187467143027807
 70
     1
  0
VERTEX
  5
ED5
  8
0
 10
51.651450901644381
 20
27.657245636371339
 30
0.0
 42
-0.0075159123940722
  0
VERTEX
  5
ED6
  8
0
 10
51.68538606539289
 20
27.744026206064181
 30
0.0
 42
-0.0107250941163416
 70
     1
  0
VERTEX
  5
ED7
  8
0
 10
51.71137084268463
 20
27.80393582235741
 30
0.0
 42
-0.0073549301971414
  0
VERTEX
  5
ED8
  8
0
 10
51.753193530469503
 20
27.891541283088031
 30
0.0
 42
-0.0088311486323409
 70
     1
  0
VERTEX
  5
ED9
  8
0
 10
51.790369209442389
 20
27.963338717739479
 30
0.0
 42
-0.0071934434541709
  0
VERTEX
  5
EDA
  8
0
 10
51.85113937111862
 20
28.072026391457829
 30
0.0
 42
-0.0097997358449237
 70
     1
  0
VERTEX
  5
EDB
  8
0
 10
51.898434611772302
 20
28.150249655669729
 30
0.0
 42
-0.0023305934805828
  0
VERTEX
  5
EDC
  8
0
 10
51.90427963945865
 20
28.15940759460284
 30
0.0
 42
-0.0001381343049569
 70
     1
  0
VERTEX
  5
EDD
  8
0
 10
52.003657739084268
 20
28.313430144854919
 30
0.0
 42
-0.0040979180691262
  0
VERTEX
  5
EDE
  8
0
 10
52.06178559171974
 20
28.401866695808732
 30
0.0
 42
-0.0024990885106494
 70
     1
  0
VERTEX
  5
EDF
  8
0
 10
52.15900556131799
 20
28.545610166672802
 30
0.0
  0
SEQEND
  5
EE0
  8
0
  0
POLYLINE
  5
EE1
  8
0
 66
     1
 10
0.0
 20
0.0
 30
0.0
 70
     2
  0
VERTEX
  5
EE2
  8
0
 10
51.573534764790281
 20
29.520633371128451
 30
0.0
 42
0.0252366073190125
  0
VERTEX
  5
EE3
  8
0
 10
51.60495676238196
 20
29.437943395866451
 30
0.0
 42
0.0463200834875629
 70
     1
  0
VERTEX
  5
EE4
  8
0
 10
51.628358968766321
 20
29.395728280965461
 30
0.0
 42
0.0025773290026174
  0
VERTEX
  5
EE5
  8
0
 10
51.68861386552237
 20
29.308388730362928
 30
0.0
 42
0.0126077064767621
 70
     1
  0
VERTEX
  5
EE6
  8
0
 10
51.701469875694421
 20
29.290913936059809
 30
0.0
 42
0.0023454515595416
  0
VERTEX
  5
EE7
  8
0
 10
51.798965012290978
 20
29.16637214185414
 30
0.0
 42
0.0045702077094584
 70
     1
  0
VERTEX
  5
EE8
  8
0
 10
51.849879962814668
 20
29.103153886364598
 30
0.0
 42
0.000510838875089
  0
VERTEX
  5
EE9
  8
0
 10
51.881987447344642
 20
29.064106799765291
 30
0.0
 42
-0.0010225265574513
 70
     1
  0
VERTEX
  5
EEA
  8
0
 10
51.914094931874608
 20
29.02505971316598
 30
0.0
 42
-0.0014658430534131
  0
VERTEX
  5
EEB
  8
0
 10
51.989294642184511
 20
28.932673177955738
 30
0.0
 42
-0.003418532228825
 70
     1
  0
VERTEX
  5
EEC
  8
0
 10
52.021151545950261
 20
28.89274498930833
 30
0.0
 42
-0.0048011934616889
  0
VERTEX
  5
EED
  8
0
 10
52.02229437827679
 20
28.891263286766499
 30
0.0
 42
-0.0001048898771664
 70
     1
  0
VERTEX
  5
EEE
  8
0
 10
52.073936812951011
 20
28.822931901076188
 30
0.0
 42
-0.0052951946280201
  0
VERTEX
  5
EEF
  8
0
 10
52.107502646067701
 20
28.77750713074613
 30
0.0
 42
-0.0033695175485778
 70
     1
  0
VERTEX
  5
EF0
  8
0
 10
52.15900556131799
 20
28.705220006281479
 30
0.0
  0
SEQEND
  5
EF1
  8
0
  0
POLYLINE
  5
EF2
  8
0
 66
     1
 10
0.0
 20
0.0
 30
0.0
 70
     2
  0
VERTEX
  5
EF3
  8
0
 10
51.573534764790651
 20
29.52063337113303
 30
0.0
 42
-0.0111080603197711
  0
VERTEX
  5
EF4
  8
0
 10
51.579661688036218
 20
29.594857538025849
 30
0.0
 42
-0.0177562196084212
 70
     1
  0
VERTEX
  5
EF5
  8
0
 10
51.586168321062218
 20
29.64100159789902
 30
0.0
 42
-0.0012185898363504
  0
VERTEX
  5
EF6
  8
0
 10
51.598012505892598
 20
29.706826657614901
 30
0.0
 42
-0.0043274054435266
 70
     1
  0
VERTEX
  5
EF7
  8
0
 10
51.601553261950777
 20
29.725325064284949
 30
0.0
 42
-0.0199621030089892
  0
VERTEX
  5
EF8
  8
0
 10
51.624364264604772
 20
29.819478448937961
 30
0.0
 42
-0.0140559835065442
 70
     1
  0
VERTEX
  5
EF9
  8
0
 10
51.66576637107763
 20
29.950655910911681
 30
0.0
 42
-0.0179855775133778
  0
VERTEX
  5
EFA
  8
0
 10
51.712724008974988
 20
30.071794840986168
 30
0.0
 42
-0.0170474278892039
 70
     1
  0
VERTEX
  5
EFB
  8
0
 10
51.771088933100827
 20
30.19581465890418
 30
0.0
 42
-0.0102442498786333
  0
VERTEX
  5
EFC
  8
0
 10
51.847089381089859
 20
30.336790087501981
 30
0.0
 42
-0.0158855593393226
 70
     1
  0
VERTEX
  5
EFD
  8
0
 10
51.90078997475544
 20
30.42503099788922
 30
0.0
 42
-0.0035986512547431
  0
VERTEX
  5
EFE
  8
0
 10
51.965827231353501
 20
30.52308348916052
 30
0.0
 42
-0.009342532747227
 70
     1
  0
VERTEX
  5
EFF
  8
0
 10
51.991849900065802
 20
30.560194137652822
 30
0.0
 42
-0.0006379610143104
  0
VERTEX
  5
F00
  8
0
 10
52.056230133080931
 20
30.64821498880849
 30
0.0
 42
-0.0013338367293782
 70
     1
  0
VERTEX
  5
F01
  8
0
 10
52.087188392518208
 20
30.69019279556807
 30
0.0
 42
-0.0000202362519503
  0
VERTEX
  5
F02
  8
0
 10
52.112735243792031
 20
30.724637342303431
 30
0.0
 42
0.000003718955518
 70
     1
  0
VERTEX
  5
F03
  8
0
 10
52.13828209506584
 20
30.7590818890388
 30
0.0
 42
0.0001404023107595
  0
VERTEX
  5
F04
  8
0
 10
52.142974205749738
 20
30.76541202433657
 30
0.0
 42
0.0000410732916236
 70
     1
  0
VERTEX
  5
F05
  8
0
 10
52.159005561306287
 20
30.787056373245349
 30
0.0
  0
SEQEND
  5
F06
  8
0
  0
POLYLINE
  5
F07
  8
0
 66
     1
 10
0.0
 20
0.0
 30
0.0
 70
     2
  0
VERTEX
  5
F08
  8
0
 10
51.573534764790992
 20
31.397673970443542
 30
0.0
 42
-0.0103273679549835
  0
VERTEX
  5
F09
  8
0
 10
51.626758451626699
 20
31.37203251044895
 30
0.0
 42
-0.0234042177598436
 70
     1
  0
VERTEX
  5
F0A
  8
0
 10
51.649437942899169
 20
31.359154998902429
 30
0.0
 42
-0.0024354544982878
  0
VERTEX
  5
F0B
  8
0
 10
51.739272548351771
 20
31.3018168302772
 30
0.0
 42
-0.0122378234315692
 70
     1
  0
VERTEX
  5
F0C
  8
0
 10
51.756810588366051
 20
31.289884572492539
 30
0.0
 42
-0.0051345894824443
  0
VERTEX
  5
F0D
  8
0
 10
51.810207013236599
 20
31.25077476089433
 30
0.0
 42
-0.0063555722389543
 70
     1
  0
VERTEX
  5
F0E
  8
0
 10
51.852608518259409
 20
31.21819507122466
 30
0.0
 42
-0.0052082262305734
  0
VERTEX
  5
F0F
  8
0
 10
51.904972533572639
 20
31.17599935689195
 30
0.0
 42
-0.0064406892169551
 70
     1
  0
VERTEX
  5
F10
  8
0
 10
51.946510626546107
 20
31.14090037209435
 30
0.0
 42
-0.0075612039137148
  0
VERTEX
  5
F11
  8
0
 10
51.993083398499202
 20
31.099256998671311
 30
0.0
 42
-0.0104199177648452
 70
     1
  0
VERTEX
  5
F12
  8
0
 10
52.025772260078547
 20
31.067841380489611
 30
0.0
 42
-0.004900604076396
  0
VERTEX
  5
F13
  8
0
 10
52.029461817562492
 20
31.064071399962021
 30
0.0
 42
-0.0003527468594083
 70
     1
  0
VERTEX
  5
F14
  8
0
 10
52.080165392880673
 20
31.01116183261956
 30
0.0
 42
-0.0086831702963159
  0
VERTEX
  5
F15
  8
0
 10
52.111095048750151
 20
30.97769634918928
 30
0.0
 42
-0.0054319279962607
 70
     1
  0
VERTEX
  5
F16
  8
0
 10
52.15900556131799
 20
30.922828612351001
 30
0.0
  0
SEQEND
  5
F17
  8
0
  0
POLYLINE
  5
F18
  8
0
 66
     1
 10
0.0
 20
0.0
 30
0.0
 70
     2
  0
VERTEX
  5
F19
  8
0
 10
51.573534764790281
 20
24.99389002941982
 30
0.0
 42
-0.0101299920300425
  0
VERTEX
  5
F24
  8
0
 10
51.58274685650543
 20
25.04881038266797
 30
0.0
 42
-0.0203223103362595
 70
     1
  0
VERTEX
  5
F1A
  8
0
 10
51.588998323073753
 20
25.075864520565421
 30
0.0
 42
-0.0032781704302925
  0
VERTEX
  5
F25
  8
0
 10
51.614233346537731
 20
25.16554960170231
 30
0.0
 42
-0.0172269832696199
 70
     1
  0
VERTEX
  5
F1B
  8
0
 10
51.619732569247901
 20
25.182409636765801
 30
0.0
 42
-0.0132248634104247
  0
VERTEX
  5
F26
  8
0
 10
51.63792973421095
 20
25.22847853167093
 30
0.0
 42
-0.0110828132940371
 70
     1
  0
VERTEX
  5
F1C
  8
0
 10
51.662288409088212
 20
25.282328548393689
 30
0.0
 42
-0.0074107109349599
  0
VERTEX
  5
F27
  8
0
 10
51.69445517959786
 20
25.346962541100201
 30
0.0
 42
-0.0081134757136303
 70
     1
  0
VERTEX
  5
F1D
  8
0
 10
51.725654569711878
 20
25.405058260149278
 30
0.0
 42
-0.0078706128600285
  0
VERTEX
  5
F28
  8
0
 10
51.785466341388648
 20
25.50836808507427
 30
0.0
 42
-0.0095405998075322
 70
     1
  0
VERTEX
  5
F1E
  8
0
 10
51.837747382235328
 20
25.591827488560771
 30
0.0
 42
-0.0018287358207826
  0
VERTEX
  5
F29
  8
0
 10
51.895182273943533
 20
25.679041843570189
 30
0.0
 42
-0.003763613557023
 70
     1
  0
VERTEX
  5
F1F
  8
0
 10
51.923562354681387
 20
25.72110488039786
 30
0.0
 42
-0.0010714660645694
  0
VERTEX
  5
F2A
  8
0
 10
51.958711264250269
 20
25.77212899190339
 30
0.0
 42
0.0021445061329959
 70
     1
  0
VERTEX
  5
F20
  8
0
 10
51.993860173819108
 20
25.82315310340892
 30
0.0
 42
0.0009535952622118
  0
VERTEX
  5
F2C
  8
0
 10
51.996351565498003
 20
25.826818150016951
 30
0.0
 42
0.000027442327252
 70
     1
  0
VERTEX
  5
F21
  8
0
 10
52.082674972848018
 20
25.954344602308641
 30
0.0
 42
0.0029631797629438
  0
VERTEX
  5
F2B
  8
0
 10
52.107333855781121
 20
25.991246992436459
 30
0.0
 42
0.0013955838958937
 70
     1
  0
VERTEX
  5
F22
  8
0
 10
52.15900556131799
 20
26.070053059556589
 30
0.0
  0
SEQEND
  5
F23
  8
0
  0
POLYLINE
  5
F2D
  8
0
 66
     1
 10
0.0
 20
0.0
 30
0.0
 70
     2
  0
VERTEX
  5
F2E
  8
0
 10
51.573534764790281
 20
27.314039806678689
 30
0.0
 42
0.0101299920300425
  0
VERTEX
  5
F2F
  8
0
 10
51.58274685650543
 20
27.259119453430539
 30
0.0
 42
0.0203223103362595
 70
     1
  0
VERTEX
  5
F30
  8
0
 10
51.588998323073753
 20
27.232065315533092
 30
0.0
 42
0.0032781704302925
  0
VERTEX
  5
F31
  8
0
 10
51.614233346537731
 20
27.1423802343962
 30
0.0
 42
0.0172269832696199
 70
     1
  0
VERTEX
  5
F32
  8
0
 10
51.619732569247901
 20
27.125520199332708
 30
0.0
 42
0.0132248634104247
  0
VERTEX
  5
F33
  8
0
 10
51.63792973421095
 20
27.079451304427579
 30
0.0
 42
0.0110828132940371
 70
     1
  0
VERTEX
  5
F34
  8
0
 10
51.662288409088212
 20
27.02560128770482
 30
0.0
 42
0.0074107109349599
  0
VERTEX
  5
F35
  8
0
 10
51.69445517959786
 20
26.960967294998309
 30
0.0
 42
0.0081134757136303
 70
     1
  0
VERTEX
  5
F36
  8
0
 10
51.725654569711878
 20
26.902871575949231
 30
0.0
 42
0.0078706128600285
  0
VERTEX
  5
F37
  8
0
 10
51.785466341388648
 20
26.799561751024239
 30
0.0
 42
0.0095405998075322
 70
     1
  0
VERTEX
  5
F38
  8
0
 10
51.837747382235328
 20
26.716102347537738
 30
0.0
 42
0.0018287358207826
  0
VERTEX
  5
F39
  8
0
 10
51.895182273943533
 20
26.62888799252832
 30
0.0
 42
0.003763613557023
 70
     1
  0
VERTEX
  5
F3A
  8
0
 10
51.923562354681387
 20
26.586824955700649
 30
0.0
 42
0.0010714660645694
  0
VERTEX
  5
F3B
  8
0
 10
51.958711264250269
 20
26.535800844195119
 30
0.0
 42
-0.0021445061329959
 70
     1
  0
VERTEX
  5
F3C
  8
0
 10
51.993860173819108
 20
26.4847767326896
 30
0.0
 42
-0.0009535952622118
  0
VERTEX
  5
F3D
  8
0
 10
51.996351565498003
 20
26.481111686081562
 30
0.0
 42
-0.000027442327252
 70
     1
  0
VERTEX
  5
F3E
  8
0
 10
52.082674972848018
 20
26.353585233789872
 30
0.0
 42
-0.0029631797629438
  0
VERTEX
  5
F3F
  8
0
 10
52.107333855781121
 20
26.316682843662051
 30
0.0
 42
-0.0013955838958937
 70
     1
  0
VERTEX
  5
F40
  8
0
 10
52.15900556131799
 20
26.237876776541921
 30
0.0
  0
SEQEND
  5
F41
  8
0
  0
LINE
  5
F67
  8
1
 10
26.00180942872106
 20
26.153964918049262
 30
0.0
 11
4.0018094287210602
 21
26.153964918049262
 31
0.0
  0
LINE
  5
F68
  8
1
 10
15.00180942872106
 20
37.153964918049269
 30
0.0
 11
15.00180942872106
 21
15.153964918049249
 31
0.0
  0
LINE
  5
F6F
  8
1
 10
47.57150556131802
 20
26.153964918049262
 30
0.0
 11
65.571505561317963
 21
26.153964918049262
 31
0.0
  0
LINE
  5
10BF
  8
2
 10
62.571505561317977
 20
23.15396491804924
 30
0.0
 11
56.571505561317991
 21
23.153964918049301
 31
0.0
  0
LINE
  5
10C0
  8
2
 10
62.571505561317977
 20
23.695464918049169
 30
0.0
 11
54.824630561318052
 21
23.695464918049211
 31
0.0
  0
LINE
  5
10C1
  8
2
 10
62.57150556131797
 20
28.612464918049341
 30
0.0
 11
54.824630561318052
 21
28.61246491804939
 31
0.0
  0
LINE
  5
10C2
  8
2
 10
62.57150556131797
 20
29.15396491804924
 30
0.0
 11
56.571505561317991
 21
29.153964918049301
 31
0.0
  0
LINE
  5
10C3
  8
2
 10
56.571505561317991
 20
23.153964918049301
 30
0.0
 11
56.571505561317991
 21
29.153964918049301
 31
0.0
  0
LINE
  5
10C4
  8
2
 10
54.824630561318052
 20
23.695464918049211
 30
0.0
 11
54.824630561318052
 21
28.61246491804939
 31
0.0
  0
LINE
  5
10C5
  8
2
 10
54.824630561318088
 20
23.69546491804924
 30
0.0
 11
53.347414729438754
 21
26.153964918049311
 31
0.0
  0
LINE
  5
10C6
  8
2
 10
54.824630561318031
 20
28.61246491804939
 30
0.0
 11
53.347414729438754
 21
26.153964918049311
 31
0.0
  0
LINE
  5
10C7
  8
2
 10
56.571505561317991
 20
29.153964918049301
 30
0.0
 11
55.633600049019599
 21
28.612464918049369
 31
0.0
  0
LINE
  5
10C8
  8
2
 10
56.571505561317991
 20
23.153964918049411
 30
0.0
 11
55.633600049019599
 21
23.695464918049339
 31
0.0
  0
TEXT
  5
117C
  8
0
 62
     3
 10
0.0
 20
0.0
 30
0.0
 40
5.0
  1
MSRP-162-80UR
  7
STANDARD1
  0
ENDSEC
  0
EOF
