  0
SECTION
  2
HEADER
  9
$ACADVER
  1
AC1009
  9
$INSBASE
 10
0.0
 20
0.0
 30
0.0
  9
$EXTMIN
 10
0.0
 20
-1.4802182810368341
 30
0.0
  9
$EXTMAX
 10
110.4360246215097
 20
30.948575977933551
 30
0.0
  9
$LIMMIN
 10
0.0
 20
0.0
  9
$LIMMAX
 10
187.5
 20
135.0
  9
$ORTHOMODE
 70
     1
  9
$REGENMODE
 70
     1
  9
$FILLMODE
 70
     1
  9
$QTEXTMODE
 70
     0
  9
$MIRRTEXT
 70
     0
  9
$DRAGMODE
 70
     2
  9
$LTSCALE
 40
5.0
  9
$OSMODE
 70
  3071
  9
$ATTMODE
 70
     1
  9
$TEXTSIZE
 40
0.06
  9
$TRACEWID
 40
0.05
  9
$TEXTSTYLE
  7
STANDARD
  9
$CLAYER
  8
0
  9
$CELTYPE
  6
BYLAYER
  9
$CECOLOR
 62
   256
  9
$DIMSCALE
 40
0.5
  9
$DIMASZ
 40
3.0
  9
$DIMEXO
 40
2.0
  9
$DIMDLI
 40
10.0
  9
$DIMRND
 40
0.0
  9
$DIMDLE
 40
0.0
  9
$DIMEXE
 40
2.0
  9
$DIMTP
 40
0.0
  9
$DIMTM
 40
0.0
  9
$DIMTXT
 40
3.0
  9
$DIMCEN
 40
0.0
  9
$DIMTSZ
 40
0.0
  9
$DIMTOL
 70
     0
  9
$DIMLIM
 70
     0
  9
$DIMTIH
 70
     0
  9
$DIMTOH
 70
     0
  9
$DIMSE1
 70
     0
  9
$DIMSE2
 70
     0
  9
$DIMTAD
 70
     1
  9
$DIMZIN
 70
     0
  9
$DIMBLK
  1

  9
$DIMASO
 70
     0
  9
$DIMSHO
 70
     0
  9
$DIMPOST
  1

  9
$DIMAPOST
  1

  9
$DIMALT
 70
     0
  9
$DIMALTD
 70
     2
  9
$DIMALTF
 40
25.399999999999999
  9
$DIMLFAC
 40
1.0
  9
$DIMTOFL
 70
     1
  9
$DIMTVP
 40
1.6000000000000001
  9
$DIMTIX
 70
     1
  9
$DIMSOXD
 70
     0
  9
$DIMSAH
 70
     0
  9
$DIMBLK1
  1

  9
$DIMBLK2
  1

  9
$DIMSTYLE
  2
STANDARD
  9
$DIMCLRD
 70
     0
  9
$DIMCLRE
 70
     0
  9
$DIMCLRT
 70
     0
  9
$DIMTFAC
 40
1.0
  9
$DIMGAP
 40
0.09
  9
$LUNITS
 70
     2
  9
$LUPREC
 70
     4
  9
$SKETCHINC
 40
0.1
  9
$FILLETRAD
 40
0.4
  9
$AUNITS
 70
     0
  9
$AUPREC
 70
     4
  9
$MENU
  1
E:\r13\win\SUPPORT\ACAD
  9
$ELEVATION
 40
0.0
  9
$PELEVATION
 40
0.0
  9
$THICKNESS
 40
0.0
  9
$LIMCHECK
 70
     0
  9
$BLIPMODE
 70
     0
  9
$CHAMFERA
 40
0.0
  9
$CHAMFERB
 40
0.0
  9
$SKPOLY
 70
     0
  9
$TDCREATE
 40
2449840.591157407
  9
$TDUPDATE
 40
2456597.670148415
  9
$TDINDWG
 40
0.0167074306
  9
$TDUSRTIMER
 40
0.0167074306
  9
$USRTIMER
 70
     1
  9
$ANGBASE
 50
0.0
  9
$ANGDIR
 70
     0
  9
$PDMODE
 70
     0
  9
$PDSIZE
 40
0.0
  9
$PLINEWID
 40
0.0
  9
$COORDS
 70
     1
  9
$SPLFRAME
 70
     0
  9
$SPLINETYPE
 70
     6
  9
$SPLINESEGS
 70
     8
  9
$ATTDIA
 70
     0
  9
$ATTREQ
 70
     1
  9
$HANDLING
 70
     1
  9
$HANDSEED
  5
B45
  9
$SURFTAB1
 70
     6
  9
$SURFTAB2
 70
     6
  9
$SURFTYPE
 70
     6
  9
$SURFU
 70
     6
  9
$SURFV
 70
     6
  9
$UCSNAME
  2

  9
$UCSORG
 10
0.0
 20
0.0
 30
0.0
  9
$UCSXDIR
 10
1.0
 20
0.0
 30
0.0
  9
$UCSYDIR
 10
0.0
 20
1.0
 30
0.0
  9
$PUCSNAME
  2

  9
$PUCSORG
 10
0.0
 20
0.0
 30
0.0
  9
$PUCSXDIR
 10
1.0
 20
0.0
 30
0.0
  9
$PUCSYDIR
 10
0.0
 20
1.0
 30
0.0
  9
$USERI1
 70
     3
  9
$USERI2
 70
     1
  9
$USERI3
 70
     0
  9
$USERI4
 70
     0
  9
$USERI5
 70
     0
  9
$USERR1
 40
0.5
  9
$USERR2
 40
3.0
  9
$USERR3
 40
3.0
  9
$USERR4
 40
3.0
  9
$USERR5
 40
10.0
  9
$WORLDVIEW
 70
     1
  9
$SHADEDGE
 70
     3
  9
$SHADEDIF
 70
    70
  9
$TILEMODE
 70
     1
  9
$MAXACTVP
 70
    16
  9
$PLIMCHECK
 70
     0
  9
$PEXTMIN
 10
1.0000000000000000E+020
 20
1.0000000000000000E+020
 30
1.0000000000000000E+020
  9
$PEXTMAX
 10
-1.0000000000000000E+020
 20
-1.0000000000000000E+020
 30
-1.0000000000000000E+020
  9
$PLIMMIN
 10
0.0
 20
0.0
  9
$PLIMMAX
 10
12.0
 20
9.0
  9
$UNITMODE
 70
     0
  9
$VISRETAIN
 70
     0
  9
$PLINEGEN
 70
     0
  9
$PSLTSCALE
 70
     0
  0
ENDSEC
  0
SECTION
  2
TABLES
  0
TABLE
  2
VPORT
 70
     1
  0
VPORT
  2
*ACTIVE
 70
     0
 10
0.0
 20
0.0
 11
1.0
 21
1.0
 12
93.747139195326156
 22
67.05183146954721
 13
0.0
 23
0.0
 14
5.0
 24
5.0
 15
10.0
 25
10.0
 16
0.0
 26
0.0
 36
1.0
 17
0.0
 27
0.0
 37
0.0
 40
138.6470298934976
 41
2.304913294797688
 42
50.0
 43
0.0
 44
0.0
 50
0.0
 51
0.0
 71
     0
 72
   100
 73
     1
 74
     0
 75
     0
 76
     0
 77
     0
 78
     0
  0
ENDTAB
  0
TABLE
  2
LTYPE
 70
     3
  0
LTYPE
  2
CONTINUOUS
 70
     0
  3
Solid Line
 72
    65
 73
     0
 40
0.0
  0
LTYPE
  2
CENTER
 70
     0
  3
____ _ ____ _ ____ _ ____ _ ____ _ ____ _ ____
 72
    65
 73
     4
 40
2.0
 49
1.25
 49
-0.25
 49
0.25
 49
-0.25
  0
LTYPE
  2
PHANTOM2
 70
     0
  3
___ _ _ ___ _ _ ___ _ _ ___ _ _
 72
    65
 73
     6
 40
1.25
 49
0.625
 49
-0.125
 49
0.125
 49
-0.125
 49
0.125
 49
-0.125
  0
ENDTAB
  0
TABLE
  2
LAYER
 70
     3
  0
LAYER
  2
0
 70
     0
 62
     7
  6
CONTINUOUS
  0
LAYER
  2
1
 70
     0
 62
     1
  6
CENTER
  0
LAYER
  2
3
 70
     0
 62
     3
  6
CONTINUOUS
  0
ENDTAB
  0
TABLE
  2
STYLE
 70
     2
  0
STYLE
  2
STANDARD
 70
     0
 40
0.0
 41
1.0
 50
0.0
 71
     0
 42
0.06
  3
TXT
  4
BIGFONT
  0
STYLE
  2
STANDARD1
 70
     0
 40
0.0
 41
1.0
 50
0.0
 71
     0
 42
3.0
  3
txt
  4

  0
ENDTAB
  0
TABLE
  2
VIEW
 70
     0
  0
ENDTAB
  0
TABLE
  2
UCS
 70
     0
  0
ENDTAB
  0
TABLE
  2
APPID
 70
     3
  0
APPID
  2
ACAD
 70
     0
  0
APPID
  2
ACAD_MLEADERVER
 70
     0
  0
APPID
  2
ACAD_NAV_VCDISPLAY
 70
     0
  0
ENDTAB
  0
TABLE
  2
DIMSTYLE
 70
     1
  0
DIMSTYLE
  2
STANDARD
 70
     0
  3

  4

  5

  6

  7

 40
1.0
 41
0.18
 42
0.0625
 43
0.38
 44
0.18
 45
0.0
 46
0.0
 47
0.0
 48
0.0
140
0.18
141
0.09
142
0.0
143
25.399999999999999
144
1.0
145
0.0
146
1.0
147
0.09
 71
     0
 72
     0
 73
     1
 74
     1
 75
     0
 76
     0
 77
     0
 78
     0
170
     0
171
     2
172
     0
173
     0
174
     0
175
     0
176
     0
177
     0
178
     0
  0
ENDTAB
  0
ENDSEC
  0
SECTION
  2
BLOCKS
  0
BLOCK
  8
0
  2
$MODEL_SPACE
 70
     0
 10
0.0
 20
0.0
 30
0.0
  3
$MODEL_SPACE
  1

  0
ENDBLK
  5
E2
  8
0
  0
BLOCK
 67
     1
  8
0
  2
$PAPER_SPACE
 70
     0
 10
0.0
 20
0.0
 30
0.0
  3
$PAPER_SPACE
  1

  0
ENDBLK
  5
E0
 67
     1
  8
0
  0
ENDSEC
  0
SECTION
  2
ENTITIES
  0
CIRCLE
  5
37C
  8
0
 10
99.436024621509773
 20
19.94857597793354
 30
0.0
 40
6.0947439999999906
  0
CIRCLE
  5
37D
  8
3
 10
99.436024621509773
 20
19.94857597793354
 30
0.0
 40
6.9175000000000182
  0
ARC
  5
37E
  8
0
 10
99.436024621509773
 20
19.94857597793354
 30
0.0
 40
4.1021000000000081
 50
107.1899063004923
 51
132.81009369951019
  0
LINE
  5
37F
  8
0
 10
96.648358253369054
 20
22.95791820339365
 30
0.0
 11
95.436024621509759
 21
22.257977054692031
 31
0.0
  0
LINE
  5
380
  8
0
 10
95.436024621509759
 20
22.257977054692031
 30
0.0
 11
95.436024621509759
 21
20.858094757288871
 31
0.0
  0
ARC
  5
381
  8
0
 10
99.436024621509773
 20
19.94857597793354
 30
0.0
 40
4.1021000000000001
 50
167.1899063004912
 51
192.8100936995103
  0
LINE
  5
382
  8
0
 10
95.436024621509759
 20
19.03905719857822
 30
0.0
 11
95.436024621509759
 21
17.639174901175021
 31
0.0
  0
LINE
  5
383
  8
0
 10
95.436024621509759
 20
17.639174901175021
 30
0.0
 11
96.648358253369054
 21
16.939233752473442
 31
0.0
  0
ARC
  5
384
  8
0
 10
99.436024621509773
 20
19.94857597793354
 30
0.0
 40
4.1021000000000019
 50
227.18990630049211
 51
252.81009369951121
  0
LINE
  5
385
  8
0
 10
98.223690989650493
 20
16.029714973118121
 30
0.0
 11
99.436024621509773
 21
15.329773824416529
 31
0.0
  0
LINE
  5
386
  8
0
 10
99.436024621509773
 20
15.329773824416529
 30
0.0
 11
100.648358253369
 21
16.029714973118121
 31
0.0
  0
ARC
  5
387
  8
0
 10
99.436024621509773
 20
19.94857597793354
 30
0.0
 40
4.1020999999999921
 50
287.1899063004924
 51
312.81009369951028
  0
LINE
  5
388
  8
0
 10
102.22369098965051
 20
16.939233752473442
 30
0.0
 11
103.4360246215098
 21
17.63917490117505
 31
0.0
  0
LINE
  5
389
  8
0
 10
103.4360246215098
 20
17.63917490117505
 30
0.0
 11
103.4360246215098
 21
19.03905719857822
 31
0.0
  0
ARC
  5
38A
  8
0
 10
99.436024621509773
 20
19.94857597793354
 30
0.0
 40
4.102099999999985
 50
347.1899063004912
 51
12.81009369950875
  0
LINE
  5
38B
  8
0
 10
103.4360246215098
 20
20.858094757288871
 30
0.0
 11
103.4360246215098
 21
22.257977054692031
 31
0.0
  0
LINE
  5
38C
  8
0
 10
103.4360246215098
 20
22.257977054692031
 30
0.0
 11
102.22369098965051
 21
22.95791820339365
 31
0.0
  0
ARC
  5
38D
  8
0
 10
99.436024621509773
 20
19.94857597793354
 30
0.0
 40
4.1021000000000027
 50
47.189906300489767
 51
72.810093699507647
  0
LINE
  5
38E
  8
0
 10
100.648358253369
 20
23.86743698274897
 30
0.0
 11
99.436024621509617
 21
24.567378131450639
 31
0.0
  0
LINE
  5
38F
  8
0
 10
99.436024621509617
 20
24.567378131450639
 30
0.0
 11
98.223690989650493
 21
23.86743698274897
 31
0.0
  0
CIRCLE
  5
392
  8
0
 10
99.436024621509773
 20
19.94857597793354
 30
0.0
 40
8.0000000000000142
  0
ARC
  5
393
  8
0
 10
99.436024621509844
 20
19.94857597793354
 30
0.0
 40
4.1020999999999876
 50
312.81009369951028
 51
347.1899063004912
  0
ARC
  5
394
  8
0
 10
99.436024621509844
 20
19.94857597793354
 30
0.0
 40
4.102099999999993
 50
12.81009369950875
 51
47.189906300489767
  0
ARC
  5
395
  8
0
 10
99.436024621509844
 20
19.94857597793354
 30
0.0
 40
4.1020999999999956
 50
252.81009369951121
 51
287.1899063004924
  0
ARC
  5
396
  8
0
 10
99.436024621509844
 20
19.94857597793354
 30
0.0
 40
4.1021000000000027
 50
72.810093699507647
 51
107.1899063004923
  0
ARC
  5
397
  8
0
 10
99.436024621509844
 20
19.94857597793354
 30
0.0
 40
4.1021000000000019
 50
132.81009369951019
 51
167.1899063004912
  0
ARC
  5
398
  8
0
 10
99.436024621509844
 20
19.94857597793354
 30
0.0
 40
4.1020999999999956
 50
192.8100936995103
 51
227.18990630049211
  0
CIRCLE
  5
399
  8
0
 10
99.436024621509844
 20
19.94857597793354
 30
0.0
 40
1.186123411348873
  0
LINE
  5
3AD
  8
1
 10
110.4360246215097
 20
19.94857597793354
 30
0.0
 11
88.436024621509773
 21
19.94857597793354
 31
0.0
  0
LINE
  5
3AE
  8
1
 10
17.107748378415948
 20
8.9485759779335439
 30
0.0
 11
17.107748378415948
 21
30.948575977933551
 31
0.0
  0
LINE
  5
3AF
  8
1
 10
99.436024621509844
 20
8.9485759779335297
 30
0.0
 11
99.436024621509844
 21
30.948575977933551
 31
0.0
  0
LINE
  5
3B2
  8
0
 10
74.096267546886679
 20
26.043319977933539
 30
0.0
 11
74.096267546886679
 21
13.853831977933551
 31
0.0
  0
LINE
  5
3B3
  8
0
 10
72.996267546886656
 20
27.948575977933551
 30
0.0
 11
72.996267546886656
 21
11.94857597793354
 31
0.0
  0
LINE
  5
3B4
  8
0
 10
72.996267546886656
 20
27.948575977933551
 30
0.0
 11
50.196267546886652
 21
27.948575977933551
 31
0.0
  0
LINE
  5
3B5
  8
3
 10
73.621249546886645
 20
26.866075977933569
 30
0.0
 11
49.571285546886649
 21
26.866075977933569
 31
0.0
  0
LINE
  5
3B6
  8
0
 10
72.996267546886656
 20
27.948575977933551
 30
0.0
 11
74.096267546886679
 21
26.043319977933539
 31
0.0
  0
LINE
  5
3B7
  8
0
 10
49.096267546886679
 20
26.043319977933539
 30
0.0
 11
49.096267546886679
 21
13.853831977933551
 31
0.0
  0
LINE
  5
3B8
  8
0
 10
50.196267546886652
 20
27.948575977933551
 30
0.0
 11
50.196267546886652
 21
11.94857597793354
 31
0.0
  0
LINE
  5
3B9
  8
0
 10
50.196267546886652
 20
27.948575977933551
 30
0.0
 11
49.096267546886679
 21
26.043319977933539
 31
0.0
  0
LINE
  5
3BA
  8
0
 10
50.196267546886652
 20
11.94857597793354
 30
0.0
 11
49.096267546886679
 21
13.853831977933551
 31
0.0
  0
LINE
  5
3BB
  8
0
 10
72.996267546886656
 20
11.94857597793354
 30
0.0
 11
74.096267546886679
 21
13.853831977933551
 31
0.0
  0
LINE
  5
3BC
  8
3
 10
73.621249546886645
 20
13.03107597793354
 30
0.0
 11
49.571285546886649
 21
13.03107597793354
 31
0.0
  0
LINE
  5
3BD
  8
0
 10
72.996267546886656
 20
11.94857597793354
 30
0.0
 11
50.196267546886652
 21
11.94857597793354
 31
0.0
  0
LINE
  5
3C4
  8
1
 10
77.096267546886679
 20
19.94857597793354
 30
0.0
 11
41.096267546886679
 21
19.94857597793354
 31
0.0
  0
LINE
  5
3C5
  8
1
 10
28.107748378415948
 20
19.94857597793354
 30
0.0
 11
6.1077483784159483
 21
19.94857597793354
 31
0.0
  0
ARC
  5
6D2
  8
0
 10
16.482944248511298
 20
24.821180625270941
 30
0.0
 40
1.474788120375258
 50
137.09323584882071
 51
149.08683610081749
  0
ARC
  5
6D3
  8
0
 10
16.46075050753447
 20
24.994260988046729
 30
0.0
 40
1.345339853461468
 50
52.759743891732207
 51
141.8543486369783
  0
ARC
  5
6D4
  8
0
 10
16.482944248511298
 20
24.821180625270941
 30
0.0
 40
1.47478812038582
 50
45.527256428085558
 51
57.520856679394633
  0
LINE
  5
6D5
  8
0
 10
17.391257189718878
 20
24.06178868484135
 30
0.0
 11
17.516136387218008
 21
25.873565537988039
 31
0.0
  0
LINE
  5
6D6
  8
0
 10
17.391257189718878
 20
24.06178868484135
 30
0.0
 11
16.65624126117509
 21
23.46970455643627
 31
0.0
  0
LINE
  5
6D7
  8
0
 10
16.65624126117509
 20
23.46970455643627
 30
0.0
 11
15.795618009738149
 21
23.857183135726221
 31
0.0
  0
LINE
  5
6D8
  8
0
 10
15.795618009738149
 20
23.857183135726221
 30
0.0
 11
15.21765435950223
 21
25.578835887756071
 31
0.0
  0
LINE
  5
6D9
  8
0
 10
14.93719822748184
 20
17.13949833828957
 30
0.0
 11
15.76556876450527
 21
18.211557028981868
 31
0.0
  0
LINE
  5
6DA
  8
0
 10
13.99879677790025
 20
17.240566383414841
 30
0.0
 11
14.93719822748184
 21
17.13949833828957
 31
0.0
  0
LINE
  5
6DB
  8
0
 10
13.199141220623231
 20
18.636445609255802
 30
0.0
 11
13.99879677790025
 21
17.240566383414841
 31
0.0
  0
LINE
  5
6DC
  8
0
 10
13.586619799913191
 20
19.49706886069275
 30
0.0
 11
13.199141220623231
 21
18.636445609255802
 31
0.0
  0
LINE
  5
6DD
  8
0
 10
14.93042619399611
 20
19.66938240664685
 30
0.0
 11
13.586619799913191
 21
19.49706886069275
 31
0.0
  0
ARC
  5
6DE
  8
0
 10
12.9498566961843
 20
17.566649856603789
 30
0.0
 40
2.8886224593520442
 50
12.90044508877687
 51
46.713647440123893
  0
LINE
  5
6DF
  8
0
 10
16.65624126117509
 20
23.46970455643627
 30
0.0
 11
16.828554807129219
 21
22.125898162353351
 31
0.0
  0
LINE
  5
6E0
  8
0
 10
18.943734723192531
 20
23.64019488569588
 30
0.0
 11
17.391257189718878
 21
24.06178868484135
 31
0.0
  0
LINE
  5
6E1
  8
0
 10
19.278298529349971
 20
22.757653617577532
 30
0.0
 11
18.943734723192531
 21
23.64019488569588
 31
0.0
  0
LINE
  5
6E2
  8
0
 10
19.278298529349971
 20
22.757653617577532
 30
0.0
 11
18.449927992326561
 21
21.685594926885219
 31
0.0
  0
ARC
  5
6E3
  8
0
 10
18.363545669683418
 20
24.572925494556589
 30
0.0
 40
2.8886224593523262
 50
237.90044508877989
 51
271.71364744012391
  0
LINE
  5
6E4
  8
0
 10
14.29867073877193
 20
22.119126128867581
 30
0.0
 11
15.37072942946426
 21
21.29075559184416
 31
0.0
  0
LINE
  5
6E5
  8
0
 10
14.39973878389719
 20
23.0575275784492
 30
0.0
 11
14.29867073877193
 21
22.119126128867581
 31
0.0
  0
LINE
  5
6E6
  8
0
 10
15.795618009738149
 20
23.857183135726221
 30
0.0
 11
14.39973878389719
 21
23.0575275784492
 31
0.0
  0
ARC
  5
6E7
  8
0
 10
14.72582225708609
 20
24.106467660165151
 30
0.0
 40
2.888622459352101
 50
282.90044508877941
 51
316.71364744012538
  0
LINE
  5
6E8
  8
0
 10
12.994535671508091
 20
20.232084789236549
 30
0.0
 11
13.586619799913191
 21
19.49706886069275
 31
0.0
  0
LINE
  5
6E9
  8
0
 10
13.41612947065363
 20
21.784562322710158
 30
0.0
 11
12.994535671508091
 21
20.232084789236549
 31
0.0
  0
LINE
  5
6EA
  8
0
 10
14.29867073877193
 20
22.119126128867581
 30
0.0
 11
13.41612947065363
 21
21.784562322710158
 31
0.0
  0
ARC
  5
6EB
  8
0
 10
12.483398861793351
 20
21.204373269200978
 30
0.0
 40
2.8886224593518768
 50
327.90044508877651
 51
1.7136474401242181
  0
ARC
  5
6EC
  8
0
 10
20.111396929420351
 20
23.835831003275821
 30
0.0
 40
1.4747881203752571
 50
92.093235848821223
 51
104.08683610081739
  0
ARC
  5
6ED
  8
0
 10
20.218089882884751
 20
23.97391064622947
 30
0.0
 40
1.345339853461438
 50
7.7597438917312092
 51
96.854348636978926
  0
ARC
  5
6EE
  8
0
 10
20.111396929420351
 20
23.835831003275821
 30
0.0
 40
1.4747881203857951
 50
0.5272564280854264
 51
12.520856679395219
  0
LINE
  5
6EF
  8
0
 10
20.21669997893159
 20
22.656585572452261
 30
0.0
 11
21.586122605169209
 21
23.84940234392835
 31
0.0
  0
LINE
  5
6F0
  8
0
 10
20.21669997893159
 20
22.656585572452261
 30
0.0
 11
19.278298529349971
 21
22.757653617577532
 31
0.0
  0
LINE
  5
6F1
  8
0
 10
18.943734723192531
 20
23.64019488569588
 30
0.0
 11
19.752445042640201
 21
25.266269237865821
 31
0.0
  0
ARC
  5
6F2
  8
0
 10
14.66583955996734
 20
24.211173492640139
 30
0.0
 40
1.47478812037525
 50
159.59323584882131
 51
171.58683610081761
  0
ARC
  5
6F3
  8
0
 10
14.579100229626929
 20
24.362585720314289
 30
0.0
 40
1.345339853461464
 50
75.259743891731631
 51
164.35434863697839
  0
ARC
  5
6F4
  8
0
 10
14.66583955996734
 20
24.211173492640139
 30
0.0
 40
1.4747881203858151
 50
68.027256428084982
 51
80.020856679394413
  0
LINE
  5
6F5
  8
0
 10
14.39973878389719
 20
23.0575275784492
 30
0.0
 11
13.206922012421099
 21
24.426950204686811
 31
0.0
  0
LINE
  5
6F6
  8
0
 10
21.016355536208611
 20
21.260706346611329
 30
0.0
 11
20.21669997893159
 21
22.656585572452261
 31
0.0
  0
LINE
  5
6F7
  8
0
 10
20.628876956918639
 20
20.400083095174349
 30
0.0
 11
21.016355536208611
 21
21.260706346611329
 31
0.0
  0
LINE
  5
6F8
  8
0
 10
20.628876956918639
 20
20.400083095174349
 30
0.0
 11
19.285070562835731
 21
20.227769549220241
 31
0.0
  0
ARC
  5
6F9
  8
0
 10
21.265640060647598
 20
22.330502099263342
 30
0.0
 40
2.8886224593521161
 50
192.9004450887785
 51
226.71364744012479
  0
ARC
  5
6FA
  8
0
 10
21.370345893122561
 20
22.390484796382111
 30
0.0
 40
1.47478812037525
 50
69.593235848821294
 51
81.586836100817635
  0
ARC
  5
6FB
  8
0
 10
21.521758120796761
 20
22.47722412672255
 30
0.0
 40
1.3453398534614169
 50
345.25974389173018
 51
74.354348636980475
  0
ARC
  5
6FC
  8
0
 10
21.370345893122561
 20
22.390484796382111
 30
0.0
 40
1.474788120385794
 50
338.02725642808548
 51
350.02085667939468
  0
LINE
  5
6FD
  8
0
 10
21.016355536208611
 20
21.260706346611329
 30
0.0
 11
22.73800828823849
 21
21.838669996847219
 31
0.0
  0
LINE
  5
6FE
  8
0
 10
19.916826018059901
 20
17.778025826999489
 30
0.0
 11
18.84476732736757
 21
18.606396364022899
 31
0.0
  0
LINE
  5
6FF
  8
0
 10
19.815757972934652
 20
16.839624377417881
 30
0.0
 11
19.916826018059901
 21
17.778025826999489
 31
0.0
  0
LINE
  5
700
  8
0
 10
18.419878747093691
 20
16.03996882014086
 30
0.0
 11
19.815757972934652
 21
16.839624377417881
 31
0.0
  0
LINE
  5
701
  8
0
 10
17.559255495656679
 20
16.427447399430822
 30
0.0
 11
18.419878747093691
 21
16.03996882014086
 31
0.0
  0
LINE
  5
702
  8
0
 10
17.559255495656679
 20
16.427447399430822
 30
0.0
 11
17.386941949702621
 21
17.771253793513718
 31
0.0
  0
ARC
  5
703
  8
0
 10
19.489674499745661
 20
15.79068429570192
 30
0.0
 40
2.8886224593520442
 50
102.90044508877661
 51
136.71364744012391
  0
LINE
  5
704
  8
0
 10
16.824239567112919
 20
15.83536327102574
 30
0.0
 11
17.559255495656679
 21
16.427447399430822
 31
0.0
  0
LINE
  5
705
  8
0
 10
15.271762033639281
 20
16.256957070171211
 30
0.0
 11
16.824239567112919
 21
15.83536327102574
 31
0.0
  0
LINE
  5
706
  8
0
 10
14.93719822748184
 20
17.13949833828957
 30
0.0
 11
15.271762033639281
 21
16.256957070171211
 31
0.0
  0
ARC
  5
707
  8
0
 10
15.85195108714845
 20
15.324226461310939
 30
0.0
 40
2.8886224593518972
 50
57.900445088775477
 51
91.713647440124234
  0
ARC
  5
708
  8
0
 10
18.395169701969671
 20
24.689377870615729
 30
0.0
 40
1.4747881203752611
 50
114.59323584882119
 51
126.58683610081739
  0
ARC
  5
709
  8
0
 10
18.44090034623332
 20
24.857776452237889
 30
0.0
 40
1.34533985346152
 50
30.2597438917335
 51
119.3543486369765
  0
ARC
  5
70A
  8
0
 10
18.395169701969671
 20
24.689377870615729
 30
0.0
 40
1.4747881203858271
 50
23.027256428085199
 51
35.020856679394392
  0
ARC
  5
70B
  8
0
 10
21.732097895038489
 20
18.692778686666092
 30
0.0
 40
2.8886224593518821
 50
147.9004450887756
 51
181.7136474401253
  0
LINE
  5
70C
  8
0
 10
21.220961085323719
 20
19.665067166630561
 30
0.0
 11
20.628876956918639
 21
20.400083095174349
 31
0.0
  0
LINE
  5
70D
  8
0
 10
20.799367286178239
 20
18.112589633156912
 30
0.0
 11
21.220961085323719
 21
19.665067166630561
 31
0.0
  0
LINE
  5
70E
  8
0
 10
19.916826018059901
 20
17.778025826999489
 30
0.0
 11
20.799367286178239
 21
18.112589633156912
 31
0.0
  0
ARC
  5
70F
  8
0
 10
13.08241371011999
 20
23.05891748240234
 30
0.0
 40
1.3453398534614469
 50
97.759743891730125
 51
186.85434863697981
  0
ARC
  5
710
  8
0
 10
13.22049335307363
 20
22.952224528937961
 30
0.0
 40
1.4747881203858151
 50
90.527256428085863
 51
102.5208566793946
  0
LINE
  5
711
  8
0
 10
11.79005511848365
 20
22.59327264215786
 30
0.0
 11
13.41612947065363
 21
21.784562322710158
 31
0.0
  0
ARC
  5
712
  8
0
 10
13.22049335307363
 20
22.952224528937961
 30
0.0
 40
1.4747881203752571
 50
182.09323584882199
 51
194.08683610081641
  0
LINE
  5
713
  8
0
 10
12.994535671508091
 20
20.232084789236549
 30
0.0
 11
11.1827588183614
 21
20.356963986735689
 31
0.0
  0
ARC
  5
714
  8
0
 10
12.366946485733729
 20
21.235997301487341
 30
0.0
 40
1.4747881203752551
 50
204.59323584882341
 51
216.58683610081789
  0
ARC
  5
715
  8
0
 10
12.19854790408251
 20
21.281727945749982
 30
0.0
 40
1.345339853435743
 50
120.2597438913523
 51
209.3543486375479
  0
ARC
  5
716
  8
0
 10
12.366946485733729
 20
21.235997301487341
 30
0.0
 40
1.474788120375246
 50
113.0272564280863
 51
125.0208566800784
  0
ARC
  5
717
  8
0
 10
20.995003403758201
 20
16.94492742692908
 30
0.0
 40
1.474788120375246
 50
2.0932358488212222
 51
14.08683610081753
  0
ARC
  5
718
  8
0
 10
21.133083046711789
 20
16.838234473464752
 30
0.0
 40
1.3453398534614971
 50
277.75974389173263
 51
6.85434863697723
  0
ARC
  5
719
  8
0
 10
20.995003403758201
 20
16.94492742692908
 30
0.0
 40
1.4747881203858211
 50
270.52725642808582
 51
282.52085667939451
  0
LINE
  5
71A
  8
0
 10
19.815757972934652
 20
16.839624377417881
 30
0.0
 11
21.008574744410708
 21
15.47020175118025
 31
0.0
  0
LINE
  5
71B
  8
0
 10
20.799367286178239
 20
18.112589633156912
 30
0.0
 11
22.42544163834819
 21
17.303879313709238
 31
0.0
  0
ARC
  5
71C
  8
0
 10
19.549657196864501
 20
15.68597846322691
 30
0.0
 40
1.47478812037525
 50
339.59323584882128
 51
351.5868361008184
  0
ARC
  5
71D
  8
0
 10
19.63639652720482
 20
15.5345662355528
 30
0.0
 40
1.34533985346151
 50
255.2597438917345
 51
344.35434863697799
  0
ARC
  5
71E
  8
0
 10
19.549657196864501
 20
15.68597846322691
 30
0.0
 40
1.4747881203858151
 50
248.02725642808579
 51
260.02085667939519
  0
LINE
  5
71F
  8
0
 10
18.419878747093691
 20
16.03996882014086
 30
0.0
 11
18.997842397329581
 21
14.31831606811099
 31
0.0
  0
ARC
  5
720
  8
0
 10
12.84515086370928
 20
17.506667159485001
 30
0.0
 40
1.474788120375254
 50
249.59323584882111
 51
261.58683610081761
  0
ARC
  5
721
  8
0
 10
12.69373863603508
 20
17.419927829144569
 30
0.0
 40
1.345339853461395
 50
165.2597438917291
 51
254.354348636981
  0
ARC
  5
722
  8
0
 10
12.84515086370928
 20
17.506667159485001
 30
0.0
 40
1.474788120385792
 50
158.0272564280844
 51
170.0208566793942
  0
LINE
  5
723
  8
0
 10
13.199141220623231
 20
18.636445609255802
 30
0.0
 11
11.47748846859338
 21
18.058481959019911
 31
0.0
  0
LINE
  5
724
  8
0
 10
13.99879677790025
 20
17.240566383414841
 30
0.0
 11
12.629374151662629
 21
16.047749611938769
 31
0.0
  0
ARC
  5
725
  8
0
 10
21.848550271098109
 20
18.661154654379779
 30
0.0
 40
1.4747881203752371
 50
24.593235848820271
 51
36.586836100817578
  0
ARC
  5
726
  8
0
 10
22.016948852720251
 20
18.61542401011614
 30
0.0
 40
1.3453398534615431
 50
300.25974389173467
 51
29.354348636974681
  0
ARC
  5
727
  8
0
 10
21.848550271098109
 20
18.661154654379779
 30
0.0
 40
1.474788120385814
 50
293.02725642808502
 51
305.02085667939451
  0
LINE
  5
728
  8
0
 10
21.220961085323719
 20
19.665067166630561
 30
0.0
 11
23.03273793847044
 21
19.540187969131441
 31
0.0
  0
ARC
  5
729
  8
0
 10
21.98035302575332
 20
20.573380107838162
 30
0.0
 40
1.47478812037526
 50
47.093235848820328
 51
59.086836100816569
  0
ARC
  5
72A
  8
0
 10
22.15343338852912
 20
20.595573848815022
 30
0.0
 40
1.345339853461466
 50
322.759743891732
 51
51.854348636977633
  0
ARC
  5
72B
  8
0
 10
21.98035302575332
 20
20.573380107838162
 30
0.0
 40
1.4747881203858051
 50
315.52725642808582
 51
327.52085667939559
  0
ARC
  5
72C
  8
0
 10
14.10409982741149
 20
16.06132095259127
 30
0.0
 40
1.4747881203752631
 50
272.09323584882031
 51
284.08683610081732
  0
ARC
  5
72D
  8
0
 10
13.99740687394708
 20
15.923241309637641
 30
0.0
 40
1.3453398534614469
 50
187.75974389173089
 51
276.85434863697878
  0
ARC
  5
72E
  8
0
 10
14.10409982741149
 20
16.06132095259127
 30
0.0
 40
1.474788120385832
 50
180.52725642808531
 51
192.52085667939431
  0
LINE
  5
72F
  8
0
 10
15.271762033639281
 20
16.256957070171211
 30
0.0
 11
14.463051714191611
 21
14.630882718001271
 31
0.0
  0
ARC
  5
730
  8
0
 10
15.82032705486213
 20
15.20777408525136
 30
0.0
 40
1.4747881203752391
 50
294.59323584882111
 51
306.58683610081778
  0
ARC
  5
731
  8
0
 10
15.774596410598461
 20
15.039375503629159
 30
0.0
 40
1.3453398534614951
 50
210.2597438917328
 51
299.35434863697782
  0
ARC
  5
732
  8
0
 10
15.82032705486213
 20
15.20777408525136
 30
0.0
 40
1.474788120385814
 50
203.02725642808591
 51
215.02085667939451
  0
LINE
  5
733
  8
0
 10
16.824239567112919
 20
15.83536327102574
 30
0.0
 11
16.699360369613771
 21
14.02358641787904
 31
0.0
  0
ARC
  5
734
  8
0
 10
17.732552508320541
 20
15.07597133059614
 30
0.0
 40
1.474788120375264
 50
317.09323584882151
 51
329.086836100818
  0
ARC
  5
735
  8
0
 10
17.754746249297369
 20
14.902890967820341
 30
0.0
 40
1.345339853461468
 50
232.75974389173271
 51
321.85434863697913
  0
ARC
  5
736
  8
0
 10
17.732552508320541
 20
15.07597133059614
 30
0.0
 40
1.4747881203858111
 50
225.52725642808511
 51
237.52085667939519
  0
ARC
  5
737
  8
0
 10
12.235143731078519
 20
19.323771848028951
 30
0.0
 40
1.47478812037525
 50
227.09323584882051
 51
239.08683610081721
  0
ARC
  5
738
  8
0
 10
12.06206336830277
 20
19.301578107052109
 30
0.0
 40
1.345339853461512
 50
142.7597438917322
 51
231.85434863697691
  0
ARC
  5
739
  8
0
 10
12.235143731078519
 20
19.323771848028951
 30
0.0
 40
1.4747881203858479
 50
135.52725642808491
 51
147.5208566793938
  0
ARC
  5
73A
  8
0
 10
17.107748378415948
 20
19.94857597793354
 30
0.0
 40
6.1189999999999696
 50
151.17937423948749
 51
155.93471828941409
  0
ARC
  5
73B
  8
0
 10
17.107748378415948
 20
19.94857597793354
 30
0.0
 40
6.1189999999999909
 50
173.6793742394874
 51
178.43471828922159
  0
ARC
  5
73C
  8
0
 10
17.107748378415948
 20
19.94857597793354
 30
0.0
 40
6.1189999999999793
 50
196.1793742394876
 51
200.93471828922279
  0
ARC
  5
73D
  8
0
 10
17.107748378415948
 20
19.94857597793354
 30
0.0
 40
6.1189999999999811
 50
218.67937423948749
 51
223.4347182892225
  0
ARC
  5
73E
  8
0
 10
17.107748378415948
 20
19.94857597793354
 30
0.0
 40
6.1189999999999882
 50
241.1793742394876
 51
245.9347182892225
  0
ARC
  5
73F
  8
0
 10
17.107748378415948
 20
19.94857597793354
 30
0.0
 40
6.1189999999999891
 50
263.67937423948757
 51
268.4347182892227
  0
ARC
  5
740
  8
0
 10
17.107748378415948
 20
19.94857597793354
 30
0.0
 40
6.118999999999982
 50
286.17937423948769
 51
290.93471828922281
  0
ARC
  5
741
  8
0
 10
17.107748378415948
 20
19.94857597793354
 30
0.0
 40
6.1189999999999758
 50
308.6793742394878
 51
313.4347182892227
  0
ARC
  5
742
  8
0
 10
17.107748378415948
 20
19.94857597793354
 30
0.0
 40
6.118999999999966
 50
331.17937423948791
 51
335.93471828922287
  0
ARC
  5
743
  8
0
 10
17.107748378415948
 20
19.94857597793354
 30
0.0
 40
6.1189999999999847
 50
353.67937423948803
 51
358.4347182892231
  0
ARC
  5
744
  8
0
 10
17.107748378415948
 20
19.94857597793354
 30
0.0
 40
6.1189999999999909
 50
16.179374239487171
 51
20.934718289222211
  0
ARC
  5
745
  8
0
 10
17.107748378415948
 20
19.94857597793354
 30
0.0
 40
6.1189999999999642
 50
38.679374239487288
 51
43.434718289222481
  0
ARC
  5
746
  8
0
 10
17.107748378415948
 20
19.94857597793354
 30
0.0
 40
6.1189999999999793
 50
61.179374239487359
 51
65.934718289222232
  0
ARC
  5
747
  8
0
 10
17.107748378415948
 20
19.94857597793354
 30
0.0
 40
6.1189999999999776
 50
83.679374239487444
 51
88.43471828922236
  0
ARC
  5
748
  8
0
 10
17.107748378415948
 20
19.94857597793354
 30
0.0
 40
6.1189999999999776
 50
106.1793742394873
 51
110.9347182892224
  0
ARC
  5
749
  8
0
 10
17.107748378415948
 20
19.94857597793354
 30
0.0
 40
6.1189999999999714
 50
128.67937423948749
 51
133.43471828922239
  0
CIRCLE
  5
74A
  8
0
 10
17.107748378415948
 20
19.94857597793354
 30
0.0
 40
6.4999999999999769
  0
CIRCLE
  5
74B
  8
3
 10
17.107748378415948
 20
19.94857597793354
 30
0.0
 40
6.9175000000000182
  0
CIRCLE
  5
74C
  8
0
 10
17.107748378415948
 20
19.94857597793354
 30
0.0
 40
7.9999999999999769
  0
LINE
  5
74D
  8
0
 10
45.477267546886679
 20
13.448575977933571
 30
0.0
 11
46.696267546886681
 21
13.448575977933571
 31
0.0
  0
LINE
  5
74E
  8
0
 10
46.696267546886681
 20
26.44857597793353
 30
0.0
 11
45.477267546886679
 21
26.44857597793353
 31
0.0
  0
ARC
  5
74F
  8
0
 10
45.477267546886679
 20
13.829575977933571
 30
0.0
 40
0.3810000000000016
 50
224.59392821780949
 51
270.0000000000008
  0
ARC
  5
750
  8
0
 10
45.477267546886679
 20
26.067575977933519
 30
0.0
 40
0.381000000000013
 50
90.0
 51
164.462036472742
  0
ARC
  5
751
  8
0
 10
45.683767546886692
 20
20.573380107838162
 30
0.0
 40
1.5875000000000079
 50
140.44531293463021
 51
217.23870464350389
  0
ARC
  5
752
  8
0
 10
45.683767546886692
 20
18.661154654379779
 30
0.0
 40
1.587500000000007
 50
142.76129535649719
 51
222.3955857648061
  0
ARC
  5
753
  8
0
 10
45.683767546886692
 20
22.390484796382111
 30
0.0
 40
1.5875000000000019
 50
126.8116175770639
 51
214.9119164516506
  0
ARC
  5
754
  8
0
 10
45.683767546886692
 20
16.94492742692908
 30
0.0
 40
1.587499999999993
 50
147.27932044698611
 51
246.8016162594167
  0
ARC
  5
755
  8
0
 10
45.683767546886692
 20
23.835831003275821
 30
0.0
 40
1.587499999999991
 50
111.58474053380409
 51
207.07955052498909
  0
ARC
  5
756
  8
0
 10
45.683767546886692
 20
19.116502145407662
 30
0.0
 40
1.5875000000000159
 50
152.6864817176598
 51
188.2455948363629
  0
ARC
  5
757
  8
0
 10
45.683767546886692
 20
15.68597846322691
 30
0.0
 40
1.587500000000003
 50
156.63923368756221
 51
249.12127218049019
  0
ARC
  5
758
  8
0
 10
45.683767546886692
 20
21.526807122681429
 30
0.0
 40
1.587499999999987
 50
164.21523015447289
 51
197.47514054783221
  0
ARC
  5
759
  8
0
 10
45.683767546886692
 20
17.193614734331799
 30
0.0
 40
1.587499999999991
 50
152.4697215259167
 51
184.4923914984106
  0
ARC
  5
75A
  8
0
 10
45.683767546886692
 20
24.689377870615729
 30
0.0
 40
1.587499999999997
 50
107.59841531567911
 51
195.59487455683151
  0
ARC
  5
75B
  8
0
 10
47.271267546886669
 20
19.94857597793354
 30
0.0
 40
3.1749999999999909
 50
173.37582754570559
 51
188.84186705643509
  0
ARC
  5
75C
  8
0
 10
45.683767546886692
 20
23.012605699921512
 30
0.0
 40
1.5875000000000099
 50
164.9724446072091
 51
191.29985085699491
  0
ARC
  5
75D
  8
0
 10
45.683767546886692
 20
15.07597133059614
 30
0.0
 40
1.5874999999999959
 50
168.9229885657673
 51
254.5581198520853
  0
ARC
  5
75E
  8
0
 10
45.683767546886692
 20
24.821180625270941
 30
0.0
 40
1.5874999999999899
 50
107.5166448327646
 51
182.37918495840131
  0
ARC
  5
75F
  8
0
 10
45.683767546886692
 20
16.88454625594559
 30
0.0
 40
1.587500000000005
 50
178.91030080632251
 51
202.1790157681971
  0
POLYLINE
  5
760
  8
0
 66
     1
 10
0.0
 20
0.0
 30
0.0
 70
   128
  0
VERTEX
  5
AC7
  8
0
 10
44.103806971771917
 20
22.858071460728599
 30
0.0
  0
VERTEX
  5
AC8
  8
0
 10
44.098588755764467
 20
22.789353596291249
 30
0.0
  0
VERTEX
  5
AC9
  8
0
 10
44.104003072423559
 20
22.54701100895652
 30
0.0
  0
SEQEND
  5
ACA
  8
0
  0
ARC
  5
761
  8
0
 10
45.683767546886692
 20
15.20777408525136
 30
0.0
 40
1.5874999999999919
 50
171.33739962102209
 51
182.37918495830669
  0
ARC
  5
762
  8
0
 10
45.683767546886692
 20
24.211173492640139
 30
0.0
 40
1.5874999999999979
 50
171.33739962101711
 51
186.7892756031502
  0
ARC
  5
763
  8
0
 10
45.683767546886692
 20
18.370344833185669
 30
0.0
 40
1.587499999999991
 50
174.74470507438369
 51
201.754084726
  0
POLYLINE
  5
764
  8
0
 66
     1
 10
0.0
 20
0.0
 30
0.0
 70
   128
  0
VERTEX
  5
ACB
  8
0
 10
44.140728802604968
 20
21.153728466570382
 30
0.0
  0
VERTEX
  5
ACC
  8
0
 10
44.10259716925907
 20
20.922270737277941
 30
0.0
  0
VERTEX
  5
ACD
  8
0
 10
44.099653893265533
 20
20.677014959125639
 30
0.0
  0
SEQEND
  5
ACE
  8
0
  0
ARC
  5
765
  8
0
 10
45.683767546886692
 20
16.06132095259127
 30
0.0
 40
1.5875000000000119
 50
164.97244460722769
 51
186.7892756031388
  0
LINE
  5
766
  8
0
 10
44.096554650457833
 20
22.98241511372764
 30
0.0
 11
44.101144753613923
 21
22.827880875245722
 31
0.0
  0
ARC
  5
767
  8
0
 10
45.683767546886692
 20
17.506667159485001
 30
0.0
 40
1.5874999999999999
 50
164.21523015448119
 51
185.65851126221949
  0
ARC
  5
768
  8
0
 10
45.683767546886692
 20
19.323771848028951
 30
0.0
 40
1.5875000000000159
 50
170.62677321508221
 51
183.74303323537131
  0
POLYLINE
  5
769
  8
0
 66
     1
 10
0.0
 20
0.0
 30
0.0
 70
   128
  0
VERTEX
  5
ACF
  8
0
 10
44.102940655043092
 20
21.38140221207901
 30
0.0
  0
VERTEX
  5
AD0
  8
0
 10
44.09709114790639
 20
21.184867516440701
 30
0.0
  0
VERTEX
  5
AD1
  8
0
 10
44.112678461059893
 20
21.00832355597441
 30
0.0
  0
SEQEND
  5
AD2
  8
0
  0
LINE
  5
76A
  8
0
 10
46.73126754688667
 20
14.44857597793356
 30
0.0
 11
48.156872669308036
 21
15.87418110035493
 31
0.0
  0
LINE
  5
76B
  8
0
 10
48.156872669308036
 20
24.022970855512138
 30
0.0
 11
46.73126754688667
 21
25.44857597793353
 31
0.0
  0
LINE
  5
76C
  8
0
 10
46.73126754688667
 20
25.44857597793353
 30
0.0
 11
46.696267546886681
 21
25.447610677299419
 31
0.0
  0
LINE
  5
76D
  8
0
 10
46.696267546886681
 20
14.44954127856766
 30
0.0
 11
46.73126754688667
 21
14.44857597793356
 31
0.0
  0
ARC
  5
76E
  8
0
 10
48.336477791729422
 20
15.694575977933569
 30
0.0
 40
0.2539999999999842
 50
90.0
 51
135.00000000000179
  0
ARC
  5
76F
  8
0
 10
48.336477791729422
 20
24.20257597793352
 30
0.0
 40
0.2539999999999936
 50
225.0000000000008
 51
270.0000000000008
  0
LINE
  5
770
  8
0
 10
48.336477791729422
 20
15.94857597793356
 30
0.0
 11
49.096267546886679
 21
15.94857597793356
 31
0.0
  0
LINE
  5
771
  8
0
 10
49.096267546886679
 20
23.94857597793353
 30
0.0
 11
48.336477791729422
 21
23.94857597793353
 31
0.0
  0
LINE
  5
7D5
  8
0
 10
46.696267546886681
 20
13.448575977933571
 30
0.0
 11
46.696267546886681
 21
26.44857597793353
 31
0.0
  0
POLYLINE
  5
7D6
  8
0
 66
     1
 10
0.0
 20
0.0
 30
0.0
 70
   128
  0
VERTEX
  5
AD3
  8
0
 10
45.261324335352732
 20
13.546816256084011
 30
0.0
  0
VERTEX
  5
AD4
  8
0
 10
45.267626530707112
 20
13.54416449789548
 30
0.0
  0
VERTEX
  5
AD5
  8
0
 10
45.288615555712489
 20
13.549852531722591
 30
0.0
  0
VERTEX
  5
AD6
  8
0
 10
45.277414664686027
 20
13.574271201996719
 30
0.0
  0
VERTEX
  5
AD7
  8
0
 10
45.246817633400298
 20
13.615642205766459
 30
0.0
  0
VERTEX
  5
AD8
  8
0
 10
45.179581466103713
 20
13.72291550311232
 30
0.0
  0
VERTEX
  5
AD9
  8
0
 10
45.123405935691331
 20
13.86804831391005
 30
0.0
  0
VERTEX
  5
ADA
  8
0
 10
45.096267546886679
 20
14.071924744718171
 30
0.0
  0
SEQEND
  5
ADB
  8
0
  0
LINE
  5
7D7
  8
0
 10
45.096267546886679
 20
14.071924744718171
 30
0.0
 11
45.096267546886679
 21
14.21119034285166
 31
0.0
  0
POLYLINE
  5
7D8
  8
0
 66
     1
 10
0.0
 20
0.0
 30
0.0
 70
   128
  0
VERTEX
  5
ADC
  8
0
 10
45.119185904068651
 20
14.205543096117511
 30
0.0
  0
VERTEX
  5
ADD
  8
0
 10
45.158278425672997
 20
14.202321705119971
 30
0.0
  0
VERTEX
  5
ADE
  8
0
 10
45.227290436125408
 20
14.23646890253589
 30
0.0
  0
VERTEX
  5
ADF
  8
0
 10
45.267626530707112
 20
14.27975417457661
 30
0.0
  0
VERTEX
  5
AE0
  8
0
 10
45.288615555712489
 20
14.347593990907059
 30
0.0
  0
VERTEX
  5
AE1
  8
0
 10
45.277414664685978
 20
14.41956140161694
 30
0.0
  0
VERTEX
  5
AE2
  8
0
 10
45.246817633400298
 20
14.50652072063593
 30
0.0
  0
VERTEX
  5
AE3
  8
0
 10
45.179581466103713
 20
14.68837079793785
 30
0.0
  0
VERTEX
  5
AE4
  8
0
 10
45.123405935691331
 20
14.900769376985551
 30
0.0
  0
VERTEX
  5
AE5
  8
0
 10
45.096267546886679
 20
15.171745363439401
 30
0.0
  0
SEQEND
  5
AE6
  8
0
  0
LINE
  5
7D9
  8
0
 10
45.096267546886679
 20
15.171745363439401
 30
0.0
 11
45.096267546886679
 21
15.505213964435409
 31
0.0
  0
POLYLINE
  5
7DA
  8
0
 66
     1
 10
0.0
 20
0.0
 30
0.0
 70
   128
  0
VERTEX
  5
AE7
  8
0
 10
45.096267546886679
 20
15.505213964435409
 30
0.0
  0
VERTEX
  5
AE8
  8
0
 10
45.110588052998111
 20
15.560596417029609
 30
0.0
  0
VERTEX
  5
AE9
  8
0
 10
45.158278425672997
 20
15.65335903236698
 30
0.0
  0
VERTEX
  5
AEA
  8
0
 10
45.227290436125408
 20
15.78141771643887
 30
0.0
  0
VERTEX
  5
AEB
  8
0
 10
45.267626530707112
 20
15.87837058282123
 30
0.0
  0
VERTEX
  5
AEC
  8
0
 10
45.288615555712489
 20
15.99803418458818
 30
0.0
  0
VERTEX
  5
AED
  8
0
 10
45.277414664685978
 20
16.106593949839429
 30
0.0
  0
VERTEX
  5
AEE
  8
0
 10
45.246817633400298
 20
16.225902816075219
 30
0.0
  0
VERTEX
  5
AEF
  8
0
 10
45.179581466103713
 20
16.454644647539041
 30
0.0
  0
VERTEX
  5
AF0
  8
0
 10
45.123405935691331
 20
16.70197323657456
 30
0.0
  0
VERTEX
  5
AF1
  8
0
 10
45.096267546886679
 20
16.998795141140029
 30
0.0
  0
SEQEND
  5
AF2
  8
0
  0
LINE
  5
7DB
  8
0
 10
45.096267546886679
 20
16.998795141140029
 30
0.0
 11
45.096267546886679
 21
17.453386954653151
 31
0.0
  0
ARC
  5
7DC
  8
0
 10
41.845037772473532
 20
18.36415463303285
 30
0.0
 40
3.3763875384812971
 50
344.35083569034498
 51
15.649164309656561
  0
LINE
  5
7DD
  8
0
 10
45.096267546886679
 20
19.274922311412588
 30
0.0
 11
45.096267546886679
 21
19.781429854720539
 31
0.0
  0
ARC
  5
7DE
  8
0
 10
41.547570900797218
 20
20.71751850022391
 30
0.0
 40
3.6700830832839269
 50
345.2229038706389
 51
14.777096129361899
  0
LINE
  5
7DF
  8
0
 10
45.096267546886679
 20
21.653607145727278
 30
0.0
 11
45.096267546886679
 21
22.134919236863691
 31
0.0
  0
ARC
  5
7E0
  8
0
 10
42.437832677277498
 20
22.95381783887753
 30
0.0
 40
2.7817028734813189
 50
342.87918614603831
 51
17.120813853962751
  0
LINE
  5
7E1
  8
0
 10
45.096267546886679
 20
23.77271644089139
 30
0.0
 11
45.096267546886679
 21
24.155557677085771
 31
0.0
  0
POLYLINE
  5
7E2
  8
0
 66
     1
 10
0.0
 20
0.0
 30
0.0
 70
   128
  0
VERTEX
  5
AF3
  8
0
 10
45.096267546886679
 20
24.155557677085771
 30
0.0
  0
VERTEX
  5
AF4
  8
0
 10
45.110588052998111
 20
24.360472950528301
 30
0.0
  0
VERTEX
  5
AF5
  8
0
 10
45.158278425672997
 20
24.59469101385373
 30
0.0
  0
VERTEX
  5
AF6
  8
0
 10
45.227290436125408
 20
24.814621098723819
 30
0.0
  0
VERTEX
  5
AF7
  8
0
 10
45.267626530707112
 20
24.935576156909018
 30
0.0
  0
VERTEX
  5
AF8
  8
0
 10
45.288615555712489
 20
25.047195664094431
 30
0.0
  0
VERTEX
  5
AF9
  8
0
 10
45.277414664685978
 20
25.121222214668862
 30
0.0
  0
VERTEX
  5
AFA
  8
0
 10
45.246817633400298
 20
25.18202364628452
 30
0.0
  0
VERTEX
  5
AFB
  8
0
 10
45.179581466103713
 20
25.259058125761339
 30
0.0
  0
VERTEX
  5
AFC
  8
0
 10
45.123405935691331
 20
25.301137925421401
 30
0.0
  0
VERTEX
  5
AFD
  8
0
 10
45.101272742351341
 20
25.308067878441008
 30
0.0
  0
SEQEND
  5
AFE
  8
0
  0
LINE
  5
7E3
  8
0
 10
45.096267546886679
 20
25.309635016489779
 30
0.0
 11
45.096267546886679
 21
25.535721289995951
 31
0.0
  0
POLYLINE
  5
7E4
  8
0
 66
     1
 10
0.0
 20
0.0
 30
0.0
 70
   128
  0
VERTEX
  5
AFF
  8
0
 10
45.096267546886679
 20
25.535721289995951
 30
0.0
  0
VERTEX
  5
B00
  8
0
 10
45.110588052998089
 20
25.70384436997692
 30
0.0
  0
VERTEX
  5
B01
  8
0
 10
45.158278425672997
 20
25.884734928795218
 30
0.0
  0
VERTEX
  5
B02
  8
0
 10
45.227290436125408
 20
26.038917896025399
 30
0.0
  0
VERTEX
  5
B03
  8
0
 10
45.267626530707112
 20
26.113563542951599
 30
0.0
  0
VERTEX
  5
B04
  8
0
 10
45.288615555712489
 20
26.170893243215861
 30
0.0
  0
VERTEX
  5
B05
  8
0
 10
45.277414664685978
 20
26.19774083457088
 30
0.0
  0
VERTEX
  5
B06
  8
0
 10
45.246817633400298
 20
26.208256506345279
 30
0.0
  0
VERTEX
  5
B07
  8
0
 10
45.205273513955348
 20
26.198144762095001
 30
0.0
  0
SEQEND
  5
B08
  8
0
  0
ARC
  5
7E5
  8
0
 10
44.994293515741617
 20
21.77878242441632
 30
0.0
 40
2.2409158480987652
 50
255.14879277308819
 51
272.60817466583131
  0
ARC
  5
7E6
  8
0
 10
45.172885895751222
 20
20.723372622181831
 30
0.0
 40
1.117926028553867
 50
93.929912991944903
 51
129.6342744166929
  0
ARC
  5
7E7
  8
0
 10
45.287820789576017
 20
18.433977140247361
 30
0.0
 40
1.1462171444935589
 50
227.3601441394315
 51
260.3797183377452
  0
POLYLINE
  5
7E8
  8
0
 66
     1
 10
0.0
 20
0.0
 30
0.0
 70
   128
  0
VERTEX
  5
B09
  8
0
 10
44.732559856859929
 20
23.661453002292038
 30
0.0
  0
VERTEX
  5
B0A
  8
0
 10
44.89959921635122
 20
23.765599418918459
 30
0.0
  0
VERTEX
  5
B0B
  8
0
 10
45.096267546886679
 20
23.84940234392835
 30
0.0
  0
SEQEND
  5
B0C
  8
0
  0
LINE
  5
7E9
  8
0
 10
45.058425926253904
 20
15.485782434988829
 30
0.0
 11
45.096267546886679
 21
15.47020175118025
 31
0.0
  0
LINE
  5
821
  8
0
 10
45.477267546886679
 20
13.448575977933571
 30
0.0
 11
45.477267546886679
 21
26.44857597793353
 31
0.0
  0
LINE
  5
823
  8
0
 10
48.156872669308036
 20
15.87418110035493
 30
0.0
 11
48.156872669308036
 21
24.022970855512138
 31
0.0
  0
LINE
  5
824
  8
0
 10
48.336477791729422
 20
23.94857597793353
 30
0.0
 11
48.336477791729422
 21
15.94857597793356
 31
0.0
  0
TEXT
  5
A70
  8
0
 62
     3
 10
0.0
 20
0.0
 30
0.0
 40
5.0
  1
MTBU-16025-35UR
  7
STANDARD1
  0
ENDSEC
  0
EOF
