  0
SECTION
  2
HEADER
  9
$ACADVER
  1
AC1009
  9
$INSBASE
 10
0.0
 20
0.0
 30
0.0
  9
$EXTMIN
 10
0.0
 20
-1.4802182810368341
 30
0.0
  9
$EXTMAX
 10
140.16435955765451
 20
39.280176035357258
 30
0.0
  9
$LIMMIN
 10
0.0
 20
0.0
  9
$LIMMAX
 10
187.5
 20
135.0
  9
$ORTHOMODE
 70
     1
  9
$REGENMODE
 70
     1
  9
$FILLMODE
 70
     1
  9
$QTEXTMODE
 70
     0
  9
$MIRRTEXT
 70
     0
  9
$DRAGMODE
 70
     2
  9
$LTSCALE
 40
5.0
  9
$OSMODE
 70
  3071
  9
$ATTMODE
 70
     1
  9
$TEXTSIZE
 40
0.06
  9
$TRACEWID
 40
0.05
  9
$TEXTSTYLE
  7
STANDARD
  9
$CLAYER
  8
0
  9
$CELTYPE
  6
BYLAYER
  9
$CECOLOR
 62
   256
  9
$DIMSCALE
 40
0.5
  9
$DIMASZ
 40
3.0
  9
$DIMEXO
 40
2.0
  9
$DIMDLI
 40
10.0
  9
$DIMRND
 40
0.0
  9
$DIMDLE
 40
0.0
  9
$DIMEXE
 40
2.0
  9
$DIMTP
 40
0.0
  9
$DIMTM
 40
0.0
  9
$DIMTXT
 40
3.0
  9
$DIMCEN
 40
0.0
  9
$DIMTSZ
 40
0.0
  9
$DIMTOL
 70
     0
  9
$DIMLIM
 70
     0
  9
$DIMTIH
 70
     0
  9
$DIMTOH
 70
     0
  9
$DIMSE1
 70
     0
  9
$DIMSE2
 70
     0
  9
$DIMTAD
 70
     1
  9
$DIMZIN
 70
     0
  9
$DIMBLK
  1

  9
$DIMASO
 70
     0
  9
$DIMSHO
 70
     0
  9
$DIMPOST
  1

  9
$DIMAPOST
  1

  9
$DIMALT
 70
     0
  9
$DIMALTD
 70
     2
  9
$DIMALTF
 40
25.399999999999999
  9
$DIMLFAC
 40
1.0
  9
$DIMTOFL
 70
     1
  9
$DIMTVP
 40
1.6000000000000001
  9
$DIMTIX
 70
     1
  9
$DIMSOXD
 70
     0
  9
$DIMSAH
 70
     0
  9
$DIMBLK1
  1

  9
$DIMBLK2
  1

  9
$DIMSTYLE
  2
STANDARD
  9
$DIMCLRD
 70
     0
  9
$DIMCLRE
 70
     0
  9
$DIMCLRT
 70
     0
  9
$DIMTFAC
 40
1.0
  9
$DIMGAP
 40
0.09
  9
$LUNITS
 70
     2
  9
$LUPREC
 70
     4
  9
$SKETCHINC
 40
0.1
  9
$FILLETRAD
 40
0.4
  9
$AUNITS
 70
     0
  9
$AUPREC
 70
     4
  9
$MENU
  1
E:\r13\win\SUPPORT\ACAD
  9
$ELEVATION
 40
0.0
  9
$PELEVATION
 40
0.0
  9
$THICKNESS
 40
0.0
  9
$LIMCHECK
 70
     0
  9
$BLIPMODE
 70
     0
  9
$CHAMFERA
 40
0.0
  9
$CHAMFERB
 40
0.0
  9
$SKPOLY
 70
     0
  9
$TDCREATE
 40
2449840.5913310191
  9
$TDUPDATE
 40
2456597.6702589579
  9
$TDINDWG
 40
0.0716186574
  9
$TDUSRTIMER
 40
0.0716186574
  9
$USRTIMER
 70
     1
  9
$ANGBASE
 50
0.0
  9
$ANGDIR
 70
     0
  9
$PDMODE
 70
     0
  9
$PDSIZE
 40
0.0
  9
$PLINEWID
 40
0.0
  9
$COORDS
 70
     1
  9
$SPLFRAME
 70
     0
  9
$SPLINETYPE
 70
     6
  9
$SPLINESEGS
 70
     8
  9
$ATTDIA
 70
     0
  9
$ATTREQ
 70
     1
  9
$HANDLING
 70
     1
  9
$HANDSEED
  5
A7F
  9
$SURFTAB1
 70
     6
  9
$SURFTAB2
 70
     6
  9
$SURFTYPE
 70
     6
  9
$SURFU
 70
     6
  9
$SURFV
 70
     6
  9
$UCSNAME
  2

  9
$UCSORG
 10
0.0
 20
0.0
 30
0.0
  9
$UCSXDIR
 10
1.0
 20
0.0
 30
0.0
  9
$UCSYDIR
 10
0.0
 20
1.0
 30
0.0
  9
$PUCSNAME
  2

  9
$PUCSORG
 10
0.0
 20
0.0
 30
0.0
  9
$PUCSXDIR
 10
1.0
 20
0.0
 30
0.0
  9
$PUCSYDIR
 10
0.0
 20
1.0
 30
0.0
  9
$USERI1
 70
     3
  9
$USERI2
 70
     1
  9
$USERI3
 70
     0
  9
$USERI4
 70
     0
  9
$USERI5
 70
     0
  9
$USERR1
 40
0.5
  9
$USERR2
 40
3.0
  9
$USERR3
 40
3.0
  9
$USERR4
 40
3.0
  9
$USERR5
 40
10.0
  9
$WORLDVIEW
 70
     1
  9
$SHADEDGE
 70
     3
  9
$SHADEDIF
 70
    70
  9
$TILEMODE
 70
     1
  9
$MAXACTVP
 70
    16
  9
$PLIMCHECK
 70
     0
  9
$PEXTMIN
 10
1.0000000000000000E+020
 20
1.0000000000000000E+020
 30
1.0000000000000000E+020
  9
$PEXTMAX
 10
-1.0000000000000000E+020
 20
-1.0000000000000000E+020
 30
-1.0000000000000000E+020
  9
$PLIMMIN
 10
0.0
 20
0.0
  9
$PLIMMAX
 10
12.0
 20
9.0
  9
$UNITMODE
 70
     0
  9
$VISRETAIN
 70
     0
  9
$PLINEGEN
 70
     0
  9
$PSLTSCALE
 70
     0
  0
ENDSEC
  0
SECTION
  2
TABLES
  0
TABLE
  2
VPORT
 70
     1
  0
VPORT
  2
*ACTIVE
 70
     0
 10
0.0
 20
0.0
 11
1.0
 21
1.0
 12
93.747139195326156
 22
67.05183146954721
 13
0.0
 23
0.0
 14
5.0
 24
5.0
 15
10.0
 25
10.0
 16
0.0
 26
0.0
 36
1.0
 17
0.0
 27
0.0
 37
0.0
 40
138.6470298934976
 41
2.304913294797688
 42
50.0
 43
0.0
 44
0.0
 50
0.0
 51
0.0
 71
     0
 72
   100
 73
     1
 74
     0
 75
     0
 76
     0
 77
     0
 78
     2
  0
ENDTAB
  0
TABLE
  2
LTYPE
 70
     3
  0
LTYPE
  2
CONTINUOUS
 70
     0
  3
Solid Line
 72
    65
 73
     0
 40
0.0
  0
LTYPE
  2
CENTER
 70
     0
  3
____ _ ____ _ ____ _ ____ _ ____ _ ____ _ ____
 72
    65
 73
     4
 40
2.0
 49
1.25
 49
-0.25
 49
0.25
 49
-0.25
  0
LTYPE
  2
PHANTOM2
 70
     0
  3
___ _ _ ___ _ _ ___ _ _ ___ _ _
 72
    65
 73
     6
 40
1.25
 49
0.625
 49
-0.125
 49
0.125
 49
-0.125
 49
0.125
 49
-0.125
  0
ENDTAB
  0
TABLE
  2
LAYER
 70
     3
  0
LAYER
  2
0
 70
     0
 62
     7
  6
CONTINUOUS
  0
LAYER
  2
1
 70
     0
 62
     1
  6
CENTER
  0
LAYER
  2
3
 70
     0
 62
     3
  6
CONTINUOUS
  0
ENDTAB
  0
TABLE
  2
STYLE
 70
     2
  0
STYLE
  2
STANDARD
 70
     0
 40
0.0
 41
1.0
 50
0.0
 71
     0
 42
0.06
  3
TXT
  4
BIGFONT
  0
STYLE
  2
STANDARD1
 70
     0
 40
0.0
 41
1.0
 50
0.0
 71
     0
 42
3.0
  3
txt
  4

  0
ENDTAB
  0
TABLE
  2
VIEW
 70
     0
  0
ENDTAB
  0
TABLE
  2
UCS
 70
     0
  0
ENDTAB
  0
TABLE
  2
APPID
 70
     3
  0
APPID
  2
ACAD
 70
     0
  0
APPID
  2
ACAD_MLEADERVER
 70
     0
  0
APPID
  2
ACAD_NAV_VCDISPLAY
 70
     0
  0
ENDTAB
  0
TABLE
  2
DIMSTYLE
 70
     1
  0
DIMSTYLE
  2
STANDARD
 70
     0
  3

  4

  5

  6

  7

 40
1.0
 41
0.18
 42
0.0625
 43
0.38
 44
0.18
 45
0.0
 46
0.0
 47
0.0
 48
0.0
140
0.18
141
0.09
142
0.0
143
25.399999999999999
144
1.0
145
0.0
146
1.0
147
0.09
 71
     0
 72
     0
 73
     1
 74
     1
 75
     0
 76
     0
 77
     0
 78
     0
170
     0
171
     2
172
     0
173
     0
174
     0
175
     0
176
     0
177
     0
178
     0
  0
ENDTAB
  0
ENDSEC
  0
SECTION
  2
BLOCKS
  0
BLOCK
  8
0
  2
$MODEL_SPACE
 70
     0
 10
0.0
 20
0.0
 30
0.0
  3
$MODEL_SPACE
  1

  0
ENDBLK
  5
CB
  8
0
  0
BLOCK
 67
     1
  8
0
  2
$PAPER_SPACE
 70
     0
 10
0.0
 20
0.0
 30
0.0
  3
$PAPER_SPACE
  1

  0
ENDBLK
  5
C9
 67
     1
  8
0
  0
ENDSEC
  0
SECTION
  2
ENTITIES
  0
CIRCLE
  5
283
  8
3
 10
25.877768397433559
 20
26.280176035357261
 30
0.0
 40
8.6469999999999914
  0
CIRCLE
  5
285
  8
0
 10
25.877768397433559
 20
26.280176035357261
 30
0.0
 40
10.0
  0
CIRCLE
  5
37C
  8
0
 10
127.16435955765439
 20
26.280176035357261
 30
0.0
 40
9.9999999999999858
  0
CIRCLE
  5
37D
  8
0
 10
127.16435955765439
 20
26.280176035357261
 30
0.0
 40
10.000000000000011
  0
CIRCLE
  5
37E
  8
0
 10
127.16435955765439
 20
26.280176035357261
 30
0.0
 40
10.0
  0
CIRCLE
  5
37F
  8
0
 10
127.16435955765439
 20
26.280176035357261
 30
0.0
 40
10.0
  0
CIRCLE
  5
380
  8
0
 10
127.16435955765439
 20
26.280176035357261
 30
0.0
 40
10.000000000000011
  0
CIRCLE
  5
381
  8
0
 10
127.16435955765439
 20
26.280176035357261
 30
0.0
 40
10.000000000000011
  0
CIRCLE
  5
382
  8
0
 10
127.16435955765439
 20
26.280176035357261
 30
0.0
 40
10.0
  0
CIRCLE
  5
383
  8
0
 10
127.16435955765451
 20
26.280176035357261
 30
0.0
 40
9.9999999999999858
  0
CIRCLE
  5
384
  8
0
 10
127.16435955765451
 20
26.280176035357261
 30
0.0
 40
10.0
  0
CIRCLE
  5
385
  8
0
 10
127.16435955765451
 20
26.280176035357261
 30
0.0
 40
10.0
  0
CIRCLE
  5
386
  8
0
 10
127.16435955765451
 20
26.280176035357261
 30
0.0
 40
10.000000000000011
  0
CIRCLE
  5
387
  8
0
 10
127.16435955765451
 20
26.280176035357261
 30
0.0
 40
10.000000000000011
  0
CIRCLE
  5
388
  8
0
 10
127.16435955765451
 20
26.280176035357261
 30
0.0
 40
10.0
  0
CIRCLE
  5
389
  8
0
 10
127.16435955765451
 20
26.280176035357261
 30
0.0
 40
10.0
  0
CIRCLE
  5
38A
  8
0
 10
127.16435955765451
 20
26.280176035357261
 30
0.0
 40
10.0
  0
CIRCLE
  5
38B
  8
0
 10
127.16435955765451
 20
26.280176035357261
 30
0.0
 40
9.9999999999999858
  0
CIRCLE
  5
38C
  8
0
 10
127.16435955765451
 20
26.280176035357261
 30
0.0
 40
10.0
  0
CIRCLE
  5
38D
  8
0
 10
127.16435955765451
 20
26.280176035357261
 30
0.0
 40
10.0
  0
CIRCLE
  5
38E
  8
0
 10
127.16435955765451
 20
26.280176035357261
 30
0.0
 40
9.9999999999999858
  0
CIRCLE
  5
38F
  8
0
 10
127.16435955765451
 20
26.280176035357261
 30
0.0
 40
9.9999999999999858
  0
LINE
  5
392
  8
0
 10
132.16435955765451
 20
27.431309667912561
 30
0.0
 11
132.16435955765451
 21
29.166927381305388
 31
0.0
  0
LINE
  5
394
  8
0
 10
132.16435955765451
 20
29.166927381305388
 30
0.0
 11
130.661270526598
 21
30.034736238001798
 31
0.0
  0
LINE
  5
395
  8
0
 10
128.6674485887109
 20
31.185869870557109
 30
0.0
 11
127.16435955765451
 21
32.053678727253512
 31
0.0
  0
LINE
  5
397
  8
0
 10
127.16435955765451
 20
32.053678727253512
 30
0.0
 11
125.661270526598
 21
31.185869870557109
 31
0.0
  0
LINE
  5
398
  8
0
 10
123.6674485887109
 20
30.034736238001798
 30
0.0
 11
122.16435955765451
 21
29.166927381305388
 31
0.0
  0
LINE
  5
39A
  8
0
 10
122.16435955765451
 20
29.166927381305388
 30
0.0
 11
122.16435955765451
 21
27.431309667912579
 31
0.0
  0
LINE
  5
39B
  8
0
 10
122.16435955765451
 20
25.12904240280195
 30
0.0
 11
122.16435955765451
 21
23.39342468940912
 31
0.0
  0
LINE
  5
39D
  8
0
 10
122.16435955765451
 20
23.39342468940912
 30
0.0
 11
123.6674485887109
 21
22.52561583271272
 31
0.0
  0
LINE
  5
39E
  8
0
 10
125.661270526598
 20
21.374482200157399
 30
0.0
 11
127.16435955765451
 21
20.506673343460999
 31
0.0
  0
LINE
  5
3A0
  8
0
 10
127.16435955765451
 20
20.506673343460999
 30
0.0
 11
128.6674485887109
 21
21.374482200157399
 31
0.0
  0
POLYLINE
  5
3A2
  8
0
 66
     1
 10
0.0
 20
0.0
 30
0.0
 70
   128
  0
VERTEX
  5
A1A
  8
0
 10
122.16435955765451
 20
23.39342468940912
 30
0.0
  0
VERTEX
  5
A1B
  8
0
 10
122.16435955765439
 20
23.39342468940912
 30
0.0
  0
SEQEND
  5
A1C
  8
0
  0
LINE
  5
3A3
  8
0
 10
122.16435955765439
 20
25.129042402801911
 30
0.0
 11
122.16435955765439
 21
23.39342468940912
 31
0.0
  0
POLYLINE
  5
3A7
  8
0
 66
     1
 10
0.0
 20
0.0
 30
0.0
 70
   128
  0
VERTEX
  5
A1D
  8
0
 10
122.16435955765451
 20
29.166927381305388
 30
0.0
  0
VERTEX
  5
A1E
  8
0
 10
122.16435955765439
 20
29.166927381305388
 30
0.0
  0
SEQEND
  5
A1F
  8
0
  0
LINE
  5
3A9
  8
0
 10
123.6674485887113
 20
30.034736238002061
 30
0.0
 11
122.16435955765439
 21
29.166927381305388
 31
0.0
  0
POLYLINE
  5
3AA
  8
0
 66
     1
 10
0.0
 20
0.0
 30
0.0
 70
   128
  0
VERTEX
  5
A20
  8
0
 10
127.16435955765451
 20
32.053678727253512
 30
0.0
  0
VERTEX
  5
A21
  8
0
 10
127.16435955765439
 20
32.053678727253512
 30
0.0
  0
SEQEND
  5
A22
  8
0
  0
LINE
  5
3AC
  8
0
 10
128.66744858871081
 20
31.185869870557109
 30
0.0
 11
127.16435955765439
 21
32.053678727253512
 31
0.0
  0
POLYLINE
  5
3AD
  8
0
 66
     1
 10
0.0
 20
0.0
 30
0.0
 70
   128
  0
VERTEX
  5
A23
  8
0
 10
132.16435955765451
 20
29.166927381305388
 30
0.0
  0
VERTEX
  5
A24
  8
0
 10
132.16435955765439
 20
29.166927381305388
 30
0.0
  0
SEQEND
  5
A25
  8
0
  0
LINE
  5
3AF
  8
0
 10
132.16435955765439
 20
27.431309667912579
 30
0.0
 11
132.16435955765439
 21
29.166927381305388
 31
0.0
  0
POLYLINE
  5
3B0
  8
0
 66
     1
 10
0.0
 20
0.0
 30
0.0
 70
   128
  0
VERTEX
  5
A26
  8
0
 10
132.16435955765451
 20
23.39342468940913
 30
0.0
  0
VERTEX
  5
A27
  8
0
 10
132.16435955765439
 20
23.39342468940913
 30
0.0
  0
SEQEND
  5
A28
  8
0
  0
LINE
  5
3B1
  8
0
 10
130.661270526598
 20
22.52561583271272
 30
0.0
 11
132.16435955765451
 21
23.39342468940913
 31
0.0
  0
LINE
  5
3B3
  8
0
 10
130.66127052659749
 20
22.525615832712461
 30
0.0
 11
132.16435955765439
 21
23.39342468940913
 31
0.0
  0
POLYLINE
  5
3B4
  8
0
 66
     1
 10
0.0
 20
0.0
 30
0.0
 70
   128
  0
VERTEX
  5
A29
  8
0
 10
127.16435955765451
 20
20.506673343460999
 30
0.0
  0
VERTEX
  5
A2A
  8
0
 10
127.16435955765439
 20
20.506673343460999
 30
0.0
  0
SEQEND
  5
A2B
  8
0
  0
LINE
  5
3B5
  8
0
 10
125.66127052659751
 20
21.374482200157662
 30
0.0
 11
127.16435955765439
 21
20.506673343460999
 31
0.0
  0
CIRCLE
  5
3B6
  8
0
 10
127.16435955765451
 20
26.280176035357261
 30
0.0
 40
1.1906249999999969
  0
CIRCLE
  5
3B7
  8
0
 10
127.16435955765451
 20
26.280176035357261
 30
0.0
 40
1.1906249999999969
  0
CIRCLE
  5
3B8
  8
0
 10
127.16435955765461
 20
26.280176035357261
 30
0.0
 40
7.9215389999999948
  0
LINE
  5
3BC
  8
0
 10
132.16435955765451
 20
23.39342468940913
 30
0.0
 11
132.16435955765451
 21
25.12904240280195
 31
0.0
  0
LINE
  5
3BF
  8
0
 10
122.16435955765439
 20
29.166927381305388
 30
0.0
 11
122.16435955765439
 21
27.431309667912579
 31
0.0
  0
LINE
  5
3C1
  8
0
 10
127.16435955765439
 20
32.053678727253512
 30
0.0
 11
125.6612705265979
 21
31.185869870557109
 31
0.0
  0
LINE
  5
3C3
  8
0
 10
132.16435955765439
 20
29.166927381305388
 30
0.0
 11
130.66127052659789
 21
30.034736238001798
 31
0.0
  0
LINE
  5
3C5
  8
0
 10
132.16435955765439
 20
23.39342468940913
 30
0.0
 11
132.16435955765439
 21
25.12904240280195
 31
0.0
  0
LINE
  5
3C7
  8
0
 10
127.16435955765439
 20
20.506673343460999
 30
0.0
 11
128.66744858871081
 21
21.374482200157399
 31
0.0
  0
LINE
  5
3C9
  8
0
 10
122.16435955765439
 20
23.39342468940912
 30
0.0
 11
123.6674485887108
 21
22.52561583271272
 31
0.0
  0
CIRCLE
  5
3CA
  8
0
 10
127.16435955765451
 20
26.280176035357261
 30
0.0
 40
5.1308000000000069
  0
CIRCLE
  5
3F0
  8
3
 10
127.16435955765439
 20
26.280176035357261
 30
0.0
 40
8.6469999999999914
  0
LINE
  5
40F
  8
0
 10
104.12252347750641
 20
18.358637035357258
 30
0.0
 11
104.12252347750641
 21
34.201715035357253
 31
0.0
  0
LINE
  5
410
  8
0
 10
102.9225234775064
 20
36.280176035357258
 30
0.0
 11
55.322523477506422
 21
36.280176035357258
 31
0.0
  0
LINE
  5
411
  8
3
 10
103.7036784775064
 20
34.927176035357249
 30
0.0
 11
54.54136847750641
 21
34.927176035357249
 31
0.0
  0
LINE
  5
412
  8
0
 10
102.9225234775064
 20
16.280176035357261
 30
0.0
 11
102.9225234775064
 21
36.280176035357258
 31
0.0
  0
LINE
  5
413
  8
0
 10
54.122523477506427
 20
18.358637035357258
 30
0.0
 11
54.122523477506427
 21
34.201715035357253
 31
0.0
  0
LINE
  5
414
  8
0
 10
102.9225234775064
 20
36.280176035357258
 30
0.0
 11
104.12252347750641
 21
34.201715035357253
 31
0.0
  0
LINE
  5
415
  8
0
 10
55.322523477506422
 20
16.280176035357261
 30
0.0
 11
55.322523477506422
 21
36.280176035357258
 31
0.0
  0
LINE
  5
416
  8
0
 10
55.322523477506422
 20
36.280176035357258
 30
0.0
 11
54.122523477506427
 21
34.201715035357253
 31
0.0
  0
LINE
  5
417
  8
0
 10
55.322523477506422
 20
16.280176035357261
 30
0.0
 11
54.122523477506427
 21
18.358637035357258
 31
0.0
  0
LINE
  5
418
  8
0
 10
102.9225234775064
 20
16.280176035357261
 30
0.0
 11
104.12252347750641
 21
18.358637035357258
 31
0.0
  0
LINE
  5
419
  8
3
 10
103.7036784775064
 20
17.633176035357248
 30
0.0
 11
54.54136847750641
 21
17.633176035357248
 31
0.0
  0
LINE
  5
41A
  8
0
 10
102.9225234775064
 20
16.280176035357261
 30
0.0
 11
55.322523477506422
 21
16.280176035357261
 31
0.0
  0
LINE
  5
41B
  8
1
 10
140.16435955765451
 20
26.280176035357261
 30
0.0
 11
114.16435955765451
 21
26.280176035357261
 31
0.0
  0
LINE
  5
41C
  8
1
 10
25.877768397433559
 20
13.280176035357259
 30
0.0
 11
25.877768397433559
 21
39.280176035357258
 31
0.0
  0
LINE
  5
41D
  8
1
 10
127.16435955765451
 20
13.28017603535727
 30
0.0
 11
127.16435955765451
 21
39.28017603535725
 31
0.0
  0
LINE
  5
42B
  8
1
 10
107.12252347750641
 20
26.280176035357261
 30
0.0
 11
46.122523477506427
 21
26.280176035357261
 31
0.0
  0
LINE
  5
42C
  8
1
 10
38.877768397433563
 20
26.280176035357261
 30
0.0
 11
12.877768397433551
 21
26.280176035357261
 31
0.0
  0
LINE
  5
7F4
  8
0
 10
53.873577564705073
 20
20.819176496131831
 30
0.0
 11
53.873577564705073
 21
31.741176035351451
 31
0.0
  0
LINE
  5
7F5
  8
0
 10
52.792712515763462
 20
31.74117557457128
 30
0.0
 11
52.792712515763462
 21
20.819176035351649
 31
0.0
  0
LINE
  5
7F6
  8
0
 10
52.57274206320222
 20
20.692176035351409
 30
0.0
 11
52.57274206320222
 21
31.86817556385548
 31
0.0
  0
LINE
  5
7F7
  8
0
 10
50.757523483106411
 20
18.280176035351751
 30
0.0
 11
50.757523483106411
 21
34.280176035351722
 31
0.0
  0
LINE
  5
80A
  8
0
 10
49.99640965187308
 20
21.095068427514029
 30
0.0
 11
50.124552686577431
 21
21.03862151853308
 31
0.0
  0
LINE
  5
80B
  8
0
 10
49.998730513835113
 20
31.470711462517691
 30
0.0
 11
50.124552686577431
 21
31.52603873841587
 31
0.0
  0
ARC
  5
80C
  8
0
 10
50.32465024756354
 20
28.559143416763181
 30
0.0
 40
1.108622628034809
 50
100.39842111390951
 51
131.43118979658101
  0
ARC
  5
80D
  8
0
 10
50.324050824259302
 20
24.006573866777721
 30
0.0
 40
1.108452210694143
 50
228.56967583330319
 51
259.63146247571689
  0
LINE
  5
80E
  8
0
 10
51.722523483106443
 20
18.280176035351751
 30
0.0
 11
51.722523483106443
 21
34.280176035351722
 31
0.0
  0
ARC
  5
80F
  8
0
 10
50.105620462740738
 20
26.50925123002289
 30
0.0
 40
1.386270427539219
 50
243.62943301161849
 51
270.78250983600299
  0
ARC
  5
810
  8
0
 10
50.105999748583223
 20
26.061217298351458
 30
0.0
 40
1.3821668942669381
 50
89.230891020820707
 51
116.46739881508729
  0
LINE
  5
811
  8
0
 10
50.71002348310639
 20
34.277957457458392
 30
0.0
 11
50.71002348310639
 21
34.277990579165461
 31
0.0
  0
ARC
  5
812
  8
0
 10
50.78089665673388
 20
33.655704575317223
 30
0.0
 40
0.6263089312201453
 50
96.497513082885405
 51
160.96372532849881
  0
ARC
  5
813
  8
0
 10
50.55573411962299
 20
33.56646776736897
 30
0.0
 40
0.3797205421547184
 50
66.025911595850999
 51
106.77873991577169
  0
LINE
  5
814
  8
0
 10
50.71002348310639
 20
33.913429555538883
 30
0.0
 11
50.71002348310639
 21
33.861634746349253
 31
0.0
  0
ARC
  5
815
  8
0
 10
51.303220990285411
 20
32.847320441591457
 30
0.0
 40
1.175039059507889
 50
120.3202114438606
 51
175.79366530265131
  0
ARC
  5
816
  8
0
 10
50.281669638789339
 20
32.364945743516429
 30
0.0
 40
0.6117822257153844
 50
45.55905577367983
 51
96.633575428864532
  0
LINE
  5
817
  8
0
 10
50.71002348310639
 20
32.801741434612737
 30
0.0
 11
50.71002348310639
 21
32.703152911772449
 31
0.0
  0
ARC
  5
818
  8
0
 10
51.950906276891573
 20
31.35180774150739
 30
0.0
 40
1.834645436353155
 50
132.55993633788441
 51
174.55057251600209
  0
ARC
  5
819
  8
0
 10
49.453603908361821
 20
30.099451245270071
 30
0.0
 40
1.576491084209549
 50
37.158065811761666
 51
64.811586672825158
  0
LINE
  5
81A
  8
0
 10
50.71002348310639
 20
31.05167705398895
 30
0.0
 11
50.71002348310639
 21
30.915945349017381
 31
0.0
  0
ARC
  5
81B
  8
0
 10
52.54698119392021
 20
29.298160897742399
 30
0.0
 40
2.4477827032119128
 50
138.63005264556051
 51
171.7462425299438
  0
ARC
  5
81C
  8
0
 10
41.573898525397787
 20
22.889340229548871
 30
0.0
 40
10.90019439823835
 50
33.053499140501479
 51
38.330189696248191
  0
LINE
  5
81D
  8
0
 10
50.71002348310639
 20
28.834544908658518
 30
0.0
 11
50.71002348310639
 21
28.67495638655512
 31
0.0
  0
ARC
  5
81E
  8
0
 10
53.957938462157813
 20
26.376106550019831
 30
0.0
 40
3.9791534629973011
 50
144.7094265626049
 51
164.4436502260221
  0
ARC
  5
81F
  8
0
 10
53.977787305791821
 20
28.842852340310419
 30
0.0
 40
4.0995459112535118
 50
199.96230706891501
 51
217.14557652709641
  0
LINE
  5
820
  8
0
 10
50.71002348310639
 20
26.367373340673961
 30
0.0
 11
50.71002348310639
 21
26.19954963786375
 31
0.0
  0
ARC
  5
821
  8
0
 10
53.48683736951034
 20
23.991815338490898
 30
0.0
 40
3.5475042066829161
 50
141.51318595450039
 51
161.4036594210591
  0
ARC
  5
822
  8
0
 10
53.961627541233838
 20
26.192489251771342
 30
0.0
 40
3.983304562655841
 50
195.57296530402019
 51
215.283083119607
  0
LINE
  5
823
  8
0
 10
50.71002348310639
 20
23.89166629290542
 30
0.0
 11
50.71002348310639
 21
23.732035162759441
 31
0.0
  0
ARC
  5
824
  8
0
 10
63.107882498198961
 20
14.216682977080771
 30
0.0
 40
15.6284623484066
 50
142.4937746763253
 51
146.17575772262401
  0
ARC
  5
825
  8
0
 10
52.604632686649722
 20
23.294179344600622
 30
0.0
 40
2.5087144962101542
 50
188.6650433016359
 51
220.95617546056519
  0
LINE
  5
826
  8
0
 10
50.71002348310639
 20
21.649763220472629
 30
0.0
 11
50.71002348310639
 21
21.513950470183079
 31
0.0
  0
ARC
  5
827
  8
0
 10
49.349234703875993
 20
22.59182560438671
 30
0.0
 40
1.735961090179283
 50
296.52714473143362
 51
321.61740164452198
  0
ARC
  5
828
  8
0
 10
51.966246543418549
 20
21.22003210977044
 30
0.0
 40
1.850606945013699
 50
185.6256032487172
 51
227.2487483500548
  0
LINE
  5
829
  8
0
 10
50.71002348310639
 20
19.861117216317709
 30
0.0
 11
50.71002348310639
 21
19.762417144171408
 31
0.0
  0
POLYLINE
  5
82A
  8
0
 66
     1
 10
0.0
 20
0.0
 30
0.0
 70
   128
  0
VERTEX
  5
A2C
  8
0
 10
50.710023483099349
 20
19.762417144165049
 30
0.0
  0
VERTEX
  5
A2D
  8
0
 10
50.581043348501169
 20
19.670622461773061
 30
0.0
  0
VERTEX
  5
A2E
  8
0
 10
50.450004356890247
 20
19.60960075329762
 30
0.0
  0
VERTEX
  5
A2F
  8
0
 10
50.327966893026769
 20
19.57964685701403
 30
0.0
  0
VERTEX
  5
A30
  8
0
 10
50.22508079082661
 20
19.58314486240009
 30
0.0
  0
VERTEX
  5
A31
  8
0
 10
50.209473223842622
 20
19.590631968548902
 30
0.0
  0
SEQEND
  5
A32
  8
0
  0
ARC
  5
82B
  8
0
 10
51.312957747836769
 20
19.72212354679208
 30
0.0
 40
1.1860034214896411
 50
184.61053645188531
 51
239.44436279766171
  0
LINE
  5
82C
  8
0
 10
50.71002348310639
 20
18.700813413580981
 30
0.0
 11
50.71002348310639
 21
18.648887470325111
 31
0.0
  0
ARC
  5
82D
  8
0
 10
50.555043954759547
 20
18.99643540905241
 30
0.0
 40
0.3805367576467353
 50
253.28576253988609
 51
294.0331789950356
  0
ARC
  5
82E
  8
0
 10
50.75910024611315
 20
18.876154768753501
 30
0.0
 40
0.5957492054315694
 50
197.2478826263081
 51
265.27472055604301
  0
LINE
  5
82F
  8
0
 10
50.71002348310639
 20
18.282430432798652
 30
0.0
 11
50.71002348310639
 21
18.282394614096219
 31
0.0
  0
LINE
  5
834
  8
0
 10
53.873577564705073
 20
31.741176035351451
 30
0.0
 11
52.792712515763462
 21
31.741176035351451
 31
0.0
  0
LINE
  5
835
  8
0
 10
52.792712515763462
 20
20.819176035351649
 30
0.0
 11
53.873577564705073
 21
20.819176035351649
 31
0.0
  0
ARC
  5
836
  8
0
 10
53.873577564705073
 20
20.56517603535152
 30
0.0
 40
0.2539999999999943
 50
57.796996966526429
 51
90.0
  0
ARC
  5
837
  8
0
 10
53.873577564705073
 20
31.99517603535158
 30
0.0
 40
0.2539999999999857
 50
270.0
 51
302.20300303347369
  0
ARC
  5
838
  8
0
 10
52.792712515763462
 20
31.99517603535158
 30
0.0
 40
0.2540000000000035
 50
209.99999999999611
 51
270.0
  0
ARC
  5
839
  8
0
 10
52.792712515763462
 20
20.56517603535152
 30
0.0
 40
0.2540000000000035
 50
90.0
 51
150.00000000000401
  0
LINE
  5
83A
  8
0
 10
54.122523477506427
 20
31.850168839655669
 30
0.0
 11
54.008939403889478
 21
31.78025006555599
 31
0.0
  0
LINE
  5
83B
  8
0
 10
54.008939403889478
 20
20.780102005147111
 30
0.0
 11
54.122523477506427
 21
20.710183231047459
 31
0.0
  0
LINE
  5
83C
  8
0
 10
51.722523483106443
 20
19.281141335985708
 30
0.0
 11
51.757523483106468
 21
19.28017603535152
 31
0.0
  0
LINE
  5
83D
  8
0
 10
51.757523483106468
 20
33.280176035351573
 30
0.0
 11
51.722523483106443
 21
33.27921073471741
 31
0.0
  0
LINE
  5
83E
  8
0
 10
52.57274206320222
 20
31.86817603535172
 30
0.0
 11
51.757523483106468
 21
33.280176035351573
 31
0.0
  0
LINE
  5
83F
  8
0
 10
51.757523483106468
 20
19.28017603535152
 30
0.0
 11
52.57274206320222
 21
20.692176035351409
 31
0.0
  0
ARC
  5
840
  8
0
 10
50.71002348310639
 20
28.259242045432629
 30
0.0
 40
1.5874999999999979
 50
179.90958107288569
 51
192.95317713788171
  0
ARC
  5
841
  8
0
 10
50.71002348310639
 20
24.296099426970379
 30
0.0
 40
1.5875000000000039
 50
179.90957719289409
 51
201.37281147141061
  0
POLYLINE
  5
842
  8
0
 66
     1
 10
0.0
 20
0.0
 30
0.0
 70
   128
  0
VERTEX
  5
A33
  8
0
 10
49.122524913616587
 20
30.049348678697921
 30
0.0
  0
VERTEX
  5
A34
  8
0
 10
49.1304362053312
 20
29.888913116591301
 30
0.0
  0
VERTEX
  5
A35
  8
0
 10
49.144457903253631
 20
29.784233359042659
 30
0.0
  0
SEQEND
  5
A36
  8
0
  0
LINE
  5
843
  8
0
 10
49.122524913557548
 20
22.511003410144891
 30
0.0
 11
49.125262672084197
 21
22.41565521987075
 31
0.0
  0
ARC
  5
844
  8
0
 10
50.71002348310639
 20
31.46644871402378
 30
0.0
 40
1.587499999999991
 50
179.9441309127098
 51
201.18837338832139
  0
ARC
  5
845
  8
0
 10
50.710023483106461
 20
21.09080663662586
 30
0.0
 40
1.587500000000011
 50
179.94412077078019
 51
196.6571306191282
  0
ARC
  5
846
  8
0
 10
51.106898483106448
 20
27.505036577653058
 30
0.0
 40
1.9843750000000231
 50
179.95523465421229
 51
194.77641073511569
  0
POLYLINE
  5
847
  8
0
 66
     1
 10
0.0
 20
0.0
 30
0.0
 70
   128
  0
VERTEX
  5
A37
  8
0
 10
49.12252408939991
 20
25.053765593480641
 30
0.0
  0
VERTEX
  5
A38
  8
0
 10
49.132786681995299
 20
24.850653638294482
 30
0.0
  0
VERTEX
  5
A39
  8
0
 10
49.16312689367043
 20
24.652844702469562
 30
0.0
  0
SEQEND
  5
A3A
  8
0
  0
POLYLINE
  5
848
  8
0
 66
     1
 10
0.0
 20
0.0
 30
0.0
 70
   128
  0
VERTEX
  5
A3B
  8
0
 10
49.122523692799057
 20
32.378827360264253
 30
0.0
  0
VERTEX
  5
A3C
  8
0
 10
49.142999120522632
 20
32.123864018062463
 30
0.0
  0
VERTEX
  5
A3D
  8
0
 10
49.189359281972322
 20
31.92223006224798
 30
0.0
  0
SEQEND
  5
A3E
  8
0
  0
POLYLINE
  5
849
  8
0
 66
     1
 10
0.0
 20
0.0
 30
0.0
 70
   128
  0
VERTEX
  5
A3F
  8
0
 10
49.122523691462618
 20
20.18152596355025
 30
0.0
  0
VERTEX
  5
A40
  8
0
 10
49.122658212783449
 20
20.160030534782202
 30
0.0
  0
VERTEX
  5
A41
  8
0
 10
49.130258197013802
 20
20.02419459728457
 30
0.0
  0
SEQEND
  5
A42
  8
0
  0
ARC
  5
84A
  8
0
 10
51.106898483106448
 20
29.49000366786295
 30
0.0
 40
1.9843750000000191
 50
179.9722957663943
 51
199.1441877282422
  0
POLYLINE
  5
84B
  8
0
 66
     1
 10
0.0
 20
0.0
 30
0.0
 70
   128
  0
VERTEX
  5
A43
  8
0
 10
49.122523715311779
 20
23.06939179855021
 30
0.0
  0
VERTEX
  5
A44
  8
0
 10
49.123010142457758
 20
23.024486481900329
 30
0.0
  0
VERTEX
  5
A45
  8
0
 10
49.144644132839687
 20
22.77296268903978
 30
0.0
  0
SEQEND
  5
A46
  8
0
  0
ARC
  5
84C
  8
0
 10
50.71002348310639
 20
32.692675494287059
 30
0.0
 40
1.5875000000000039
 50
90.007270724470786
 51
185.68773826978151
  0
ARC
  5
84D
  8
0
 10
50.71002348310639
 20
19.867676576416429
 30
0.0
 40
1.5874999999999979
 50
174.34178583930921
 51
270.0
  0
ARC
  5
84E
  8
0
 10
51.106898483106448
 20
30.248925700481941
 30
0.0
 40
1.984375000000016
 50
161.0703717200926
 51
183.07589565956599
  0
ARC
  5
84F
  8
0
 10
51.106898483106448
 20
22.311426370221191
 30
0.0
 40
1.9843750000000071
 50
176.9891666030627
 51
198.97978992986009
  0
ARC
  5
850
  8
0
 10
53.09127348310642
 20
26.280176035351751
 30
0.0
 40
3.968749999999988
 50
169.5660198473137
 51
190.46078905934741
  0
ARC
  5
851
  8
0
 10
50.71002348310639
 20
20.182340660230601
 30
0.0
 40
1.5874999999999959
 50
163.37353328095591
 51
260.28893891336742
  0
ARC
  5
852
  8
0
 10
50.710023483106461
 20
32.379639452550002
 30
0.0
 40
1.587500000000001
 50
99.703456035731435
 51
196.7154703868359
  0
ARC
  5
853
  8
0
 10
51.106898483106448
 20
29.491920253861071
 30
0.0
 40
1.98437500000002
 50
171.5026948081221
 51
199.175275298928
  0
ARC
  5
854
  8
0
 10
51.106898483106448
 20
23.070348402840182
 30
0.0
 40
1.9843749999999969
 50
160.93705531013981
 51
188.59263082752801
  0
ARC
  5
855
  8
0
 10
51.106898483106448
 20
27.508137678940411
 30
0.0
 40
1.984375
 50
168.46761195836751
 51
199.14149949471761
  0
ARC
  5
856
  8
0
 10
51.106898483106448
 20
25.055315493050038
 30
0.0
 40
1.9843750000000271
 50
160.99417963606189
 51
191.6588307129723
  0
ARC
  5
857
  8
0
 10
50.71002348310639
 20
21.093903356679331
 30
0.0
 40
1.5875000000000019
 50
153.5344585075257
 51
251.57703370243021
  0
ARC
  5
858
  8
0
 10
50.71002348310639
 20
31.469545434077268
 30
0.0
 40
1.5874999999999959
 50
108.3705480912318
 51
206.6139833659833
  0
ARC
  5
859
  8
0
 10
50.71002348310639
 20
22.513134557803141
 30
0.0
 40
1.587500000000005
 50
145.83599020623149
 51
243.2870745951337
  0
ARC
  5
85A
  8
0
 10
50.71002348310639
 20
30.051479782394459
 30
0.0
 40
1.5875000000000019
 50
116.6191914548326
 51
214.36648968893331
  0
ARC
  5
85B
  8
0
 10
50.71002348310639
 20
28.26425264373275
 30
0.0
 40
1.5874999999999939
 50
134.81853309677621
 51
218.73620600121271
  0
ARC
  5
85C
  8
0
 10
50.71002348310639
 20
24.3011100252705
 30
0.0
 40
1.5875000000000019
 50
141.50120339180711
 51
225.15733939075989
  0
LINE
  5
85D
  8
0
 10
51.722523483106443
 20
34.280176035351722
 30
0.0
 11
50.757523483106411
 21
34.280176035351722
 31
0.0
  0
LINE
  5
85E
  8
0
 10
50.757523483106411
 20
18.280176035351751
 30
0.0
 11
51.722523483106443
 21
18.280176035351751
 31
0.0
  0
ARC
  5
85F
  8
0
 10
50.71002348310639
 20
26.2828102627684
 30
0.0
 40
1.587499999999991
 50
140.22197023404311
 51
219.77182339874139
  0
ARC
  5
860
  8
0
 10
50.757523483106411
 20
33.645176035351582
 30
0.0
 40
0.6350000000000085
 50
90.0
 51
94.275915609736145
  0
ARC
  5
861
  8
0
 10
50.757523483106411
 20
18.915176035351539
 30
0.0
 40
0.6350000000000085
 50
265.73155319692398
 51
270.0
  0
CIRCLE
  5
868
  8
0
 10
25.877768397433559
 20
26.280176035357261
 30
0.0
 40
8.0000000000000089
  0
ARC
  5
869
  8
0
 10
27.794589296464181
 20
32.503642641851897
 30
0.0
 40
1.497567182107856
 50
14.911920650694389
 51
65.066649693152783
  0
LINE
  5
86A
  8
0
 10
28.266278139879631
 20
33.913429555544411
 30
0.0
 11
28.4259092700411
 21
33.861634746354767
 31
0.0
  0
ARC
  5
86B
  8
0
 10
27.981325510546728
 20
32.43828727056799
 30
0.0
 40
1.50241231420983
 50
79.066858672185134
 51
129.04871842527351
  0
ARC
  5
86C
  8
0
 10
22.131606445461131
 20
20.953637798259528
 30
0.0
 40
1.4975671820621561
 50
176.91192064987479
 51
227.0666496939358
  0
LINE
  5
86D
  8
0
 10
21.247355582554551
 20
19.758610636082171
 30
0.0
 11
21.111542832265151
 21
19.857199158927489
 31
0.0
  0
ARC
  5
86E
  8
0
 10
21.97466064233495
 20
21.080101167576139
 30
0.0
 40
1.508413031900018
 50
241.17305543351461
 51
290.94252166471358
  0
ARC
  5
86F
  8
0
 10
32.968974402239702
 20
16.52839510538
 30
0.0
 40
6.7892068414144529
 50
118.893174714437
 51
133.1538990064191
  0
ARC
  5
870
  8
0
 10
29.785979590279929
 20
21.071373463385601
 30
0.0
 40
1.497567182062014
 50
248.91192064987391
 51
299.06664969397258
  0
LINE
  5
871
  8
0
 10
30.64926941608573
 20
19.86111721632323
 30
0.0
 11
30.513537711113571
 21
19.762417144176929
 31
0.0
  0
ARC
  5
872
  8
0
 10
29.617206858457681
 20
20.961188464902008
 30
0.0
 40
1.508413031899462
 50
313.17305543335982
 51
2.942521664709
  0
LINE
  5
873
  8
0
 10
26.680291714210799
 20
23.813711257872392
 30
0.0
 11
27.410333000882449
 21
21.570011813828639
 31
0.0
  0
ARC
  5
874
  8
0
 10
36.266471733584837
 20
21.495406253215108
 30
0.0
 40
6.6500665000926142
 50
163.62338312677531
 51
171.5509849908556
  0
LINE
  5
875
  8
0
 10
29.688578399518661
 20
22.472495676605419
 30
0.0
 11
31.1236311004977
 21
21.038621518538601
 31
0.0
  0
ARC
  5
876
  8
0
 10
31.204306634530301
 20
22.534014083387738
 30
0.0
 40
1.4975671820654111
 50
266.91192064990742
 51
317.0666496935624
  0
LINE
  5
877
  8
0
 10
32.399333796708419
 20
21.649763220478139
 30
0.0
 11
32.3007452738631
 21
21.51395047018859
 31
0.0
  0
ARC
  5
878
  8
0
 10
31.077843265212859
 20
22.37706828025874
 30
0.0
 40
1.508413031901487
 50
331.1730554335474
 51
20.942521664686272
  0
LINE
  5
879
  8
0
 10
30.678702022281271
 20
23.836461871175501
 30
0.0
 11
32.486609727412088
 21
22.916222182025411
 31
0.0
  0
ARC
  5
87A
  8
0
 10
32.101235003958813
 20
24.36335513629
 30
0.0
 40
1.4975671820649501
 50
284.9119206499193
 51
335.06664969381683
  0
LINE
  5
87B
  8
0
 10
33.51102191762098
 20
23.89166629291093
 30
0.0
 11
33.459227108436302
 21
23.732035162764952
 31
0.0
  0
ARC
  5
87C
  8
0
 10
32.03587963264377
 20
24.176618922243559
 30
0.0
 40
1.5024123142105521
 50
349.06685867220011
 51
39.048718425260184
  0
ARC
  5
87D
  8
0
 10
27.227400852292849
 20
14.922461867816191
 30
0.0
 40
6.6500665000972763
 50
80.496088730002725
 51
88.423690594079687
  0
ARC
  5
87E
  8
0
 10
31.469988832345081
 20
16.302889355997561
 30
0.0
 40
6.6500665000974291
 50
127.6233831267779
 51
135.55098499085409
  0
ARC
  5
87F
  8
0
 10
27.986384251367951
 20
20.123795142822889
 30
0.0
 40
1.502412314204695
 50
230.998355295642
 51
280.98021504875192
  0
LINE
  5
880
  8
0
 10
28.432137270740299
 20
18.700813413586491
 30
0.0
 11
28.272548748636979
 21
18.648887470330632
 31
0.0
  0
ARC
  5
881
  8
0
 10
27.790528160933121
 20
20.06596821250869
 30
0.0
 40
1.5084130319021869
 50
295.17305543365188
 51
344.94252166468289
  0
LINE
  5
882
  8
0
 10
28.32542614227734
 20
21.481251765219088
 30
0.0
 11
29.247150882132789
 21
19.67410073121626
 31
0.0
  0
ARC
  5
883
  8
0
 10
27.21806899732044
 20
37.638995215924119
 30
0.0
 40
6.650066500102132
 50
271.62338312678179
 51
279.55098499085261
  0
LINE
  5
884
  8
0
 10
27.975522453006651
 20
27.80560059752716
 30
0.0
 11
29.883812265695301
 21
29.19325237885953
 31
0.0
  0
LINE
  5
885
  8
0
 10
27.976775020592921
 20
24.75647548456703
 30
0.0
 11
29.88620427189133
 21
23.370392005936559
 31
0.0
  0
ARC
  5
886
  8
0
 10
33.645540877007107
 20
17.884886309547301
 30
0.0
 40
6.6500665000946553
 50
116.4960887300027
 51
124.4236905940807
  0
ARC
  5
887
  8
0
 10
37.346627580162561
 20
22.558925848177399
 30
0.0
 40
6.7892068414140887
 50
154.8931747144369
 51
169.15389900641989
  0
LINE
  5
888
  8
0
 10
28.471509139539311
 20
26.281241532987021
 30
0.0
 11
30.83098928058169
 21
26.282210797361401
 31
0.0
  0
ARC
  5
889
  8
0
 10
37.09665583140233
 20
24.054026081131259
 30
0.0
 40
6.650066500097104
 50
152.49608873000369
 51
160.42369059408031
  0
ARC
  5
88A
  8
0
 10
37.094823059458612
 20
28.515542578864039
 30
0.0
 40
6.6500665000937831
 50
199.6233831267761
 51
207.55098499085571
  0
LINE
  5
88B
  8
0
 10
31.198876811772411
 20
25.43963583449365
 30
0.0
 11
33.202668918442932
 21
25.123110086720711
 31
0.0
  0
ARC
  5
88C
  8
0
 10
32.388967100496501
 20
26.380327974072049
 30
0.0
 40
1.4975671820683141
 50
302.91192064997182
 51
353.06664969365789
  0
LINE
  5
88D
  8
0
 10
33.875513999986651
 20
26.367373340679471
 30
0.0
 11
33.875582941247472
 21
26.199549637869261
 31
0.0
  0
ARC
  5
88E
  8
0
 10
32.378906514045042
 20
26.179022848704179
 30
0.0
 40
1.5084130319003759
 50
7.1730554333437668
 51
56.942521664689437
  0
ARC
  5
88F
  8
0
 10
37.343566362472899
 20
30.010847681836012
 30
0.0
 40
6.7892068414178404
 50
190.89317471444281
 51
205.1538990064173
  0
LINE
  5
890
  8
0
 10
31.198184435325661
 20
27.125087729059981
 30
0.0
 11
33.201715810894541
 21
27.443259668220819
 31
0.0
  0
ARC
  5
891
  8
0
 10
32.034149289965796
 20
28.388791889291909
 30
0.0
 40
1.5024123142064409
 50
320.99835529567281
 51
10.98021504871824
  0
LINE
  5
892
  8
0
 10
33.45713101920424
 20
28.834544908664029
 30
0.0
 11
33.509056962459987
 21
28.674956386560631
 31
0.0
  0
ARC
  5
893
  8
0
 10
32.09197622028185
 20
28.192935798856539
 30
0.0
 40
1.508413031902351
 50
25.173055433638709
 51
74.942521664677045
  0
LINE
  5
894
  8
0
 10
23.28402765532778
 20
26.279110537727139
 30
0.0
 11
20.924547514285369
 21
26.278141273352752
 31
0.0
  0
LINE
  5
895
  8
0
 10
26.678265017282971
 20
28.747299326592032
 30
0.0
 11
27.406462653555909
 21
30.991597808963341
 31
0.0
  0
ARC
  5
896
  8
0
 10
31.461789692722281
 20
36.262053867127968
 30
0.0
 40
6.6500665000915227
 50
224.49608873000139
 51
232.42369059408509
  0
ARC
  5
897
  8
0
 10
36.262537101979412
 20
31.07347947117772
 30
0.0
 40
6.6500665000971999
 50
188.4960887300067
 51
196.4236905940819
  0
ARC
  5
898
  8
0
 10
33.638640758101673
 20
34.68184486220575
 30
0.0
 40
6.6500665000909791
 50
235.62338312677301
 51
243.55098499085611
  0
LINE
  5
899
  8
0
 10
30.676692667571729
 20
28.727833780201038
 30
0.0
 11
32.483843701574358
 21
29.649558520056491
 31
0.0
  0
ARC
  5
89A
  8
0
 10
31.086570969404821
 20
30.188387228203531
 30
0.0
 40
1.497567182062326
 50
338.91192064987882
 51
29.066649693935801
  0
LINE
  5
89B
  8
0
 10
32.296827216478313
 20
31.05167705399445
 30
0.0
 11
32.395527288623782
 21
30.915945349022891
 31
0.0
  0
ARC
  5
89C
  8
0
 10
31.196755967888439
 20
30.01961449638047
 30
0.0
 40
1.5084130319001809
 50
43.173055433483377
 51
92.942521664707343
  0
ARC
  5
89D
  8
0
 10
25.882721551708048
 20
14.22271322698974
 30
0.0
 40
6.7892068414160232
 50
82.893174714438643
 51
97.153899006418655
  0
ARC
  5
89E
  8
0
 10
25.977920336146639
 20
19.76897733229179
 30
0.0
 40
1.4975671820654179
 50
212.91192064996619
 51
263.06664969397292
  0
LINE
  5
89F
  8
0
 10
25.964965702773469
 20
18.282430432804169
 30
0.0
 11
25.797141999968769
 21
18.282361491542812
 31
0.0
  0
ARC
  5
8A0
  8
0
 10
25.77661521078133
 20
19.779037918744041
 30
0.0
 40
1.50841303189885
 50
277.17305543331167
 51
326.94252166471779
  0
LINE
  5
8A1
  8
0
 10
26.722680091136478
 20
20.959759997464989
 30
0.0
 11
27.040852030297341
 21
18.956228621896049
 31
0.0
  0
LINE
  5
8A2
  8
0
 10
23.7800143418605
 20
24.754751473187351
 30
0.0
 11
21.871724529171811
 21
23.367099691854602
 31
0.0
  0
ARC
  5
8A3
  8
0
 10
18.79457676459484
 20
16.522572323309841
 30
0.0
 40
6.7892068414148863
 50
46.893174714439702
 51
61.153899006420012
  0
LINE
  5
8A4
  8
0
 10
24.349074141311089
 20
21.568754261750819
 30
0.0
 11
25.077271777584119
 21
23.813052744122128
 31
0.0
  0
ARC
  5
8A5
  8
0
 10
15.492999692894781
 20
21.48687259953785
 30
0.0
 40
6.650066500089963
 50
8.4960887300007126
 51
16.423690594084999
  0
ARC
  5
8A6
  8
0
 10
18.116896036764128
 20
17.87850720850621
 30
0.0
 40
6.6500665000934998
 50
55.623383126776027
 51
63.550984990855618
  0
ARC
  5
8A7
  8
0
 10
20.668965825504561
 20
22.371964842512789
 30
0.0
 40
1.4975671821009591
 50
158.91192065054281
 51
209.06664969293121
  0
LINE
  5
8A8
  8
0
 10
19.458709578399041
 20
21.508675016705968
 30
0.0
 11
19.36000950625359
 21
21.644406721677161
 31
0.0
  0
ARC
  5
8A9
  8
0
 10
20.558780826978559
 20
22.540737574332571
 30
0.0
 40
1.508413031899061
 50
223.17305543330841
 51
272.94252166471381
  0
LINE
  5
8AA
  8
0
 10
22.07008803868192
 20
22.46936603327196
 30
0.0
 11
20.636213880615259
 21
21.034313332292751
 31
0.0
  0
ARC
  5
8AB
  8
0
 10
25.8728152431589
 20
38.337638843722232
 30
0.0
 40
6.7892068414137272
 50
262.8931747144386
 51
277.15389900642191
  0
LINE
  5
8AC
  8
0
 10
26.71830859829706
 20
31.601284449695861
 30
0.0
 11
27.034834346070031
 21
33.605076556366612
 31
0.0
  0
ARC
  5
8AD
  8
0
 10
25.777616458719478
 20
32.791374738421261
 30
0.0
 40
1.497567182066704
 50
32.911920649949977
 51
83.066649693805545
  0
LINE
  5
8AE
  8
0
 10
25.79057109211098
 20
34.27792163791036
 30
0.0
 11
25.958394794917609
 21
34.277990579170982
 31
0.0
  0
ARC
  5
8AF
  8
0
 10
25.9789215840878
 20
32.781314151967557
 30
0.0
 40
1.5084130319019819
 50
97.173055433636634
 51
146.94252166468451
  0
ARC
  5
8B0
  8
0
 10
21.969557204589758
 20
31.488978607289589
 30
0.0
 40
1.497567182097437
 50
68.911920650508904
 51
119.0666496933389
  0
LINE
  5
8B1
  8
0
 10
21.10626737879619
 20
32.699234854401759
 30
0.0
 11
21.241999083767009
 21
32.79793492654661
 31
0.0
  0
ARC
  5
8B2
  8
0
 10
22.13832993640963
 20
31.599163605811778
 30
0.0
 40
1.5084130318997251
 50
133.17305543326739
 51
182.94252166469519
  0
ARC
  5
8B3
  8
0
 10
20.285547962519079
 20
36.257462714719843
 30
0.0
 40
6.6500665001017456
 50
307.62338312678202
 51
315.55098499085119
  0
LINE
  5
8B4
  8
0
 10
25.03285670373057
 20
31.600592073249171
 30
0.0
 11
24.714684764569679
 21
33.604123448818108
 31
0.0
  0
ARC
  5
8B5
  8
0
 10
23.769152543498709
 20
32.436556927890187
 30
0.0
 40
1.502412314205837
 50
50.998355295661852
 51
100.9802150487286
  0
LINE
  5
8B6
  8
0
 10
23.3233995241267
 20
33.859538657127672
 30
0.0
 11
23.482988046230052
 21
33.911464600383503
 31
0.0
  0
ARC
  5
8B7
  8
0
 10
23.965008633933081
 20
32.494383858206163
 30
0.0
 40
1.508413031901205
 50
115.1730554336086
 51
164.9425216646971
  0
LINE
  5
8B8
  8
0
 10
23.430110652589661
 20
31.079100305495441
 30
0.0
 11
22.508385912734209
 21
32.886251339497868
 31
0.0
  0
ARC
  5
8B9
  8
0
 10
14.408909214703471
 20
30.001426222537098
 30
0.0
 40
6.7892068414151892
 50
334.89317471443991
 51
349.15389900641998
  0
ARC
  5
8BA
  8
0
 10
19.654301790938909
 20
28.196996934387691
 30
0.0
 40
1.497567182108001
 50
104.9119206506944
 51
155.06664969311441
  0
LINE
  5
8BB
  8
0
 10
18.244514877246129
 20
28.66868577780323
 30
0.0
 11
18.296309686436391
 21
28.828316907965782
 31
0.0
  0
ARC
  5
8BC
  8
0
 10
19.719657162220919
 20
28.383733148469862
 30
0.0
 40
1.5024123142082619
 50
169.0668586721558
 51
219.0487184252986
  0
ARC
  5
8BD
  8
0
 10
18.109995917860768
 20
34.675465761165377
 30
0.0
 40
6.6500665000928842
 50
296.49608873000278
 51
304.42369059408429
  0
LINE
  5
8BE
  8
0
 10
22.066958395348369
 20
30.087856394108741
 30
0.0
 11
20.631905694369351
 21
31.521730552175171
 31
0.0
  0
ARC
  5
8BF
  8
0
 10
20.55123016033647
 20
30.026337987327501
 30
0.0
 40
1.4975671820640091
 50
86.911920649894284
 51
137.06664969373759
  0
LINE
  5
8C0
  8
0
 10
19.356202998172279
 20
30.910588850255142
 30
0.0
 11
19.454791521017771
 21
31.046401600543948
 31
0.0
  0
ARC
  5
8C1
  8
0
 10
20.67769352965453
 20
30.183283790455761
 30
0.0
 40
1.5084130319018569
 50
151.1730554336655
 51
200.9425216646913
  0
LINE
  5
8C2
  8
0
 10
21.07683477258573
 20
28.723890199538651
 30
0.0
 11
19.268927067455021
 21
29.64412988868872
 31
0.0
  0
ARC
  5
8C3
  8
0
 10
14.41197043239478
 20
22.549504388878109
 30
0.0
 40
6.7892068414172559
 50
10.893174714441921
 51
25.15389900641728
  0
ARC
  5
8C4
  8
0
 10
19.72138750490134
 20
24.171560181422219
 30
0.0
 40
1.5024123142064969
 50
140.99835529567289
 51
190.9802150487198
  0
LINE
  5
8C5
  8
0
 10
18.298405775662811
 20
23.725807162050462
 30
0.0
 11
18.246479832407118
 21
23.885395684153529
 31
0.0
  0
ARC
  5
8C6
  8
0
 10
19.663560574584551
 20
24.367416271856509
 30
0.0
 40
1.508413031901074
 50
205.17305543351421
 51
254.94252166469059
  0
LINE
  5
8C7
  8
0
 10
21.07884412729538
 20
23.832518290513079
 30
0.0
 11
19.271693093292718
 21
22.910793550657662
 31
0.0
  0
ARC
  5
8C8
  8
0
 10
14.658880963471971
 20
28.506325989579629
 30
0.0
 40
6.6500665000891486
 50
332.49608873000221
 51
340.42369059408651
  0
ARC
  5
8C9
  8
0
 10
14.66071373541112
 20
24.04480949185119
 30
0.0
 40
6.6500665000908894
 50
19.62338312677387
 51
27.550984990856978
  0
LINE
  5
8CA
  8
0
 10
20.556659983094679
 20
27.12071623622051
 30
0.0
 11
18.552867876424131
 21
27.437241983993431
 31
0.0
  0
ARC
  5
8CB
  8
0
 10
19.366569694369531
 20
26.180024096642821
 30
0.0
 40
1.4975671820669501
 50
122.9119206499563
 51
173.06664969381291
  0
LINE
  5
8CC
  8
0
 10
17.880022794880372
 20
26.192978730034689
 30
0.0
 11
17.879953853619579
 21
26.360802432840551
 31
0.0
  0
ARC
  5
8CD
  8
0
 10
19.376630280822809
 20
26.381329222011399
 30
0.0
 40
1.508413031901759
 50
187.17305543366291
 51
236.94252166469019
  0
LINE
  5
8CE
  8
0
 10
20.557352359541451
 20
25.435264341654172
 30
0.0
 11
18.553820983972539
 21
25.117092402493331
 31
0.0
  0
ARC
  5
8CF
  8
0
 10
22.264932169430551
 20
21.303235410745931
 30
0.0
 40
3.769408059431091
 50
41.746691644510882
 51
66.300382076346779
  0
ARC
  5
8D0
  8
0
 10
25.880294791767199
 20
20.130174636283861
 30
0.0
 40
3.7694080594309471
 50
77.746691644511102
 51
102.30038207634669
  0
ARC
  5
8D1
  8
0
 10
29.494692417337781
 20
21.3062053654076
 30
0.0
 40
3.7694080594314761
 50
113.746691644514
 51
138.30038207634539
  0
ARC
  5
8D2
  8
0
 10
31.72754800203106
 20
24.382123831407132
 30
0.0
 40
3.7694080594318509
 50
149.7466916445143
 51
174.30038207634379
  0
ARC
  5
8D3
  8
0
 10
31.725986604463401
 20
28.183033726894351
 30
0.0
 40
3.769408059431425
 50
185.7466916445135
 51
210.3003820763459
  0
ARC
  5
8D4
  8
0
 10
29.49060462543693
 20
31.25711665996857
 30
0.0
 40
3.7694080594317771
 50
221.7466916445149
 51
246.30038207634669
  0
ARC
  5
8D5
  8
0
 10
25.875242003099739
 20
32.430177434430639
 30
0.0
 40
3.769408059431143
 50
257.7466916445112
 51
282.30038207634681
  0
ARC
  5
8D6
  8
0
 10
20.02798879283668
 20
28.17822823930663
 30
0.0
 40
3.7694080594311781
 50
329.74669164451137
 51
354.30038207634709
  0
ARC
  5
8D7
  8
0
 10
20.02955019040397
 20
24.37731834381978
 30
0.0
 40
3.7694080594310799
 50
5.7466916445118912
 51
30.3003820763482
  0
ARC
  5
8D8
  8
0
 10
32.960960030272652
 20
36.037779747404663
 30
0.0
 40
6.7892068414155817
 50
226.89317471444031
 51
241.15389900642009
  0
LINE
  5
8D9
  8
0
 10
29.685448756185231
 20
30.090986037442171
 30
0.0
 11
31.1193229142518
 21
31.526038738421381
 31
0.0
  0
ARC
  5
8DA
  8
0
 10
29.623930349406951
 20
31.6067142724546
 30
0.0
 40
1.4975671820612191
 50
356.91192064986672
 51
47.066649694050923
  0
LINE
  5
8DB
  8
0
 10
30.508181212331611
 20
32.801741434618251
 30
0.0
 11
30.6439939626136
 21
32.70315291177797
 31
0.0
  0
ARC
  5
8DC
  8
0
 10
29.780876152532048
 20
31.48025090313801
 30
0.0
 40
1.508413031900173
 50
61.173055433484549
 51
110.9425216647067
  0
LINE
  5
8DD
  8
0
 10
28.32148256161506
 20
31.081109660204721
 30
0.0
 11
29.241722250765321
 21
32.889017365335597
 31
0.0
  0
ARC
  5
8DE
  8
0
 10
22.260844377529789
 20
31.254146705306191
 30
0.0
 40
3.7694080594307371
 50
293.74669164451069
 51
318.30038207634919
  0
LINE
  5
8DF
  8
0
 10
25.075245080656231
 20
28.746640812842109
 30
0.0
 11
24.345203793984581
 21
30.990340256885499
 31
0.0
  0
ARC
  5
8E0
  8
0
 10
24.52813594257438
 20
37.637890202899399
 30
0.0
 40
6.650066500098923
 50
260.49608873000602
 51
268.42369059407957
  0
ARC
  5
8E1
  8
0
 10
18.786562392626958
 20
36.03195696533453
 30
0.0
 40
6.7892068414149547
 50
298.89317471443752
 51
313.15389900641958
  0
ARC
  5
8E2
  8
0
 10
15.48906506127841
 20
31.064945817500131
 30
0.0
 40
6.6500665000964538
 50
343.62338312677838
 51
351.55098499085477
  0
LINE
  5
8E3
  8
0
 10
23.778761774274098
 20
27.803876586147101
 30
0.0
 11
21.86933252297575
 21
29.189960064777601
 31
0.0
  0
ARC
  5
8E4
  8
0
 10
24.53746779754605
 20
14.921356854796519
 30
0.0
 40
6.650066500095793
 50
91.623383126778435
 51
99.550984990855923
  0
LINE
  5
8E5
  8
0
 10
23.434054233252059
 20
21.479242410509439
 30
0.0
 11
22.513814544101791
 21
19.671334705378559
 31
0.0
  0
ARC
  5
8E6
  8
0
 10
23.960947498366671
 20
20.05670942883156
 30
0.0
 40
1.497567182064901
 50
194.91192064991779
 51
245.0666496938062
  0
LINE
  5
8E7
  8
0
 10
23.489258654987541
 20
18.646922515169749
 30
0.0
 11
23.329627524841669
 21
18.69871732435433
 31
0.0
  0
ARC
  5
8E8
  8
0
 10
23.774211284320842
 20
20.122064800142532
 30
0.0
 40
1.502412314206464
 50
259.06685867214208
 51
309.04871842516059
  0
LINE
  5
8E9
  8
0
 10
24.72070244879686
 20
18.955275514346809
 30
0.0
 11
25.037228196570059
 21
20.959067621018271
 31
0.0
  0
ARC
  5
8EA
  8
0
 10
20.29374710214395
 20
16.29829820358508
 30
0.0
 40
6.6500665000930246
 50
44.496088730004637
 51
52.423690594084988
  0
TEXT
  5
9C3
  8
0
 62
     3
 10
0.0
 20
0.0
 30
0.0
 40
5.0
  1
MTBU-20050-35UR
  7
STANDARD1
  0
ENDSEC
  0
EOF
