  0
SECTION
  2
HEADER
  9
$ACADVER
  1
AC1009
  9
$INSBASE
 10
0.0
 20
0.0
 30
0.0
  9
$EXTMIN
 10
0.0
 20
-2.960436562073669
 30
0.0
  9
$EXTMAX
 10
591.02331317455128
 20
495.91173979880818
 30
0.0
  9
$LIMMIN
 10
0.0
 20
0.0
  9
$LIMMAX
 10
540.0
 20
350.0
  9
$ORTHOMODE
 70
     1
  9
$REGENMODE
 70
     1
  9
$FILLMODE
 70
     1
  9
$QTEXTMODE
 70
     0
  9
$MIRRTEXT
 70
     0
  9
$DRAGMODE
 70
     2
  9
$LTSCALE
 40
10.0
  9
$OSMODE
 70
  3071
  9
$ATTMODE
 70
     1
  9
$TEXTSIZE
 40
6.4000000000000004
  9
$TRACEWID
 40
0.05
  9
$TEXTSTYLE
  7
STANDARD
  9
$CLAYER
  8
0
  9
$CELTYPE
  6
BYLAYER
  9
$CECOLOR
 62
   256
  9
$DIMSCALE
 40
2.0
  9
$DIMASZ
 40
3.0
  9
$DIMEXO
 40
2.0
  9
$DIMDLI
 40
0.38
  9
$DIMRND
 40
0.0
  9
$DIMDLE
 40
0.0
  9
$DIMEXE
 40
2.0
  9
$DIMTP
 40
0.0
  9
$DIMTM
 40
0.0
  9
$DIMTXT
 40
3.2000000000000002
  9
$DIMCEN
 40
0.0
  9
$DIMTSZ
 40
0.0
  9
$DIMTOL
 70
     0
  9
$DIMLIM
 70
     0
  9
$DIMTIH
 70
     0
  9
$DIMTOH
 70
     0
  9
$DIMSE1
 70
     0
  9
$DIMSE2
 70
     0
  9
$DIMTAD
 70
     1
  9
$DIMZIN
 70
     0
  9
$DIMBLK
  1

  9
$DIMASO
 70
     0
  9
$DIMSHO
 70
     0
  9
$DIMPOST
  1

  9
$DIMAPOST
  1

  9
$DIMALT
 70
     0
  9
$DIMALTD
 70
     2
  9
$DIMALTF
 40
25.399999999999999
  9
$DIMLFAC
 40
1.0
  9
$DIMTOFL
 70
     1
  9
$DIMTVP
 40
1.6000000000000001
  9
$DIMTIX
 70
     1
  9
$DIMSOXD
 70
     0
  9
$DIMSAH
 70
     0
  9
$DIMBLK1
  1

  9
$DIMBLK2
  1

  9
$DIMSTYLE
  2
STANDARD
  9
$DIMCLRD
 70
     0
  9
$DIMCLRE
 70
     0
  9
$DIMCLRT
 70
     0
  9
$DIMTFAC
 40
1.0
  9
$DIMGAP
 40
0.09
  9
$LUNITS
 70
     2
  9
$LUPREC
 70
     4
  9
$SKETCHINC
 40
0.1
  9
$FILLETRAD
 40
4.0
  9
$AUNITS
 70
     0
  9
$AUPREC
 70
     4
  9
$MENU
  1
E:\r13\win\SUPPORT\ACAD
  9
$ELEVATION
 40
0.0
  9
$PELEVATION
 40
0.0
  9
$THICKNESS
 40
0.0
  9
$LIMCHECK
 70
     0
  9
$BLIPMODE
 70
     0
  9
$CHAMFERA
 40
0.0
  9
$CHAMFERB
 40
0.0
  9
$SKPOLY
 70
     0
  9
$TDCREATE
 40
2449840.6533680558
  9
$TDUPDATE
 40
2456597.6703701392
  9
$TDINDWG
 40
0.0296472338
  9
$TDUSRTIMER
 40
0.0296472338
  9
$USRTIMER
 70
     1
  9
$ANGBASE
 50
0.0
  9
$ANGDIR
 70
     0
  9
$PDMODE
 70
     0
  9
$PDSIZE
 40
0.0
  9
$PLINEWID
 40
0.0
  9
$COORDS
 70
     1
  9
$SPLFRAME
 70
     0
  9
$SPLINETYPE
 70
     6
  9
$SPLINESEGS
 70
     8
  9
$ATTDIA
 70
     0
  9
$ATTREQ
 70
     1
  9
$HANDLING
 70
     1
  9
$HANDSEED
  5
369
  9
$SURFTAB1
 70
     6
  9
$SURFTAB2
 70
     6
  9
$SURFTYPE
 70
     6
  9
$SURFU
 70
     6
  9
$SURFV
 70
     6
  9
$UCSNAME
  2

  9
$UCSORG
 10
0.0
 20
0.0
 30
0.0
  9
$UCSXDIR
 10
1.0
 20
0.0
 30
0.0
  9
$UCSYDIR
 10
0.0
 20
1.0
 30
0.0
  9
$PUCSNAME
  2

  9
$PUCSORG
 10
0.0
 20
0.0
 30
0.0
  9
$PUCSXDIR
 10
1.0
 20
0.0
 30
0.0
  9
$PUCSYDIR
 10
0.0
 20
1.0
 30
0.0
  9
$USERI1
 70
     0
  9
$USERI2
 70
     1
  9
$USERI3
 70
     0
  9
$USERI4
 70
     0
  9
$USERI5
 70
     0
  9
$USERR1
 40
0.0
  9
$USERR2
 40
0.0
  9
$USERR3
 40
0.0
  9
$USERR4
 40
0.0
  9
$USERR5
 40
0.0
  9
$WORLDVIEW
 70
     1
  9
$SHADEDGE
 70
     3
  9
$SHADEDIF
 70
    70
  9
$TILEMODE
 70
     1
  9
$MAXACTVP
 70
    16
  9
$PLIMCHECK
 70
     0
  9
$PEXTMIN
 10
1.0000000000000000E+020
 20
1.0000000000000000E+020
 30
1.0000000000000000E+020
  9
$PEXTMAX
 10
-1.0000000000000000E+020
 20
-1.0000000000000000E+020
 30
-1.0000000000000000E+020
  9
$PLIMMIN
 10
0.0
 20
0.0
  9
$PLIMMAX
 10
12.0
 20
9.0
  9
$UNITMODE
 70
     0
  9
$VISRETAIN
 70
     0
  9
$PLINEGEN
 70
     0
  9
$PSLTSCALE
 70
     0
  0
ENDSEC
  0
SECTION
  2
TABLES
  0
TABLE
  2
VPORT
 70
     1
  0
VPORT
  2
*ACTIVE
 70
     0
 10
0.0
 20
0.0
 11
1.0
 21
1.0
 12
295.51165796335903
 22
247.56031019798709
 13
0.0
 23
0.0
 14
20.0
 24
20.0
 15
20.0
 25
20.0
 16
0.0
 26
0.0
 36
1.0
 17
0.0
 27
0.0
 37
0.0
 40
506.78755993646649
 41
2.304913294797688
 42
50.0
 43
0.0
 44
0.0
 50
0.0
 51
0.0
 71
     0
 72
   500
 73
     1
 74
     0
 75
     0
 76
     0
 77
     0
 78
     2
  0
ENDTAB
  0
TABLE
  2
LTYPE
 70
     5
  0
LTYPE
  2
CONTINUOUS
 70
     0
  3
Solid Line
 72
    65
 73
     0
 40
0.0
  0
LTYPE
  2
CENTER
 70
     0
  3
____ _ ____ _ ____ _ ____ _ ____ _ ____ _ ____
 72
    65
 73
     4
 40
2.0
 49
1.25
 49
-0.25
 49
0.25
 49
-0.25
  0
LTYPE
  2
HIDDEN
 70
     0
  3
_ _ _ _ _ _ _ _ _ _ _ _ _ _ _ _ _ _ _ _ _ _ _
 72
    65
 73
     2
 40
0.375
 49
0.25
 49
-0.125
  0
LTYPE
  2
PHANTOM
 70
     0
  3
_____ _ _ _____ _ _ _____ _ _ _____ _ _ ____
 72
    65
 73
     6
 40
2.5
 49
1.25
 49
-0.25
 49
0.25
 49
-0.25
 49
0.25
 49
-0.25
  0
LTYPE
  2
PHANTOM2
 70
     0
  3
___ _ _ ___ _ _ ___ _ _ ___ _ _
 72
    65
 73
     6
 40
1.25
 49
0.625
 49
-0.125
 49
0.125
 49
-0.125
 49
0.125
 49
-0.125
  0
ENDTAB
  0
TABLE
  2
LAYER
 70
     4
  0
LAYER
  2
0
 70
     0
 62
     7
  6
CONTINUOUS
  0
LAYER
  2
1
 70
     0
 62
     1
  6
CENTER
  0
LAYER
  2
2
 70
     0
 62
     2
  6
HIDDEN
  0
LAYER
  2
5
 70
     0
 62
     3
  6
PHANTOM
  0
ENDTAB
  0
TABLE
  2
STYLE
 70
     2
  0
STYLE
  2
STANDARD
 70
     0
 40
0.0
 41
1.0
 50
0.0
 71
     0
 42
6.4000000000000004
  3
TXT
  4
BIGFONT
  0
STYLE
  2
STANDARD1
 70
     0
 40
0.0
 41
1.0
 50
0.0
 71
     0
 42
3.0
  3
txt
  4

  0
ENDTAB
  0
TABLE
  2
VIEW
 70
     1
  0
VIEW
  2
ALL
 70
     0
 40
179.5384664489153
 10
135.0
 20
89.769233224457665
 41
0.0
 11
0.0
 21
0.0
 31
1.0
 12
0.0
 22
0.0
 32
0.0
 42
0.0
 43
0.0
 44
0.0
 50
0.0
 71
     0
  0
ENDTAB
  0
TABLE
  2
UCS
 70
     0
  0
ENDTAB
  0
TABLE
  2
APPID
 70
     3
  0
APPID
  2
ACAD
 70
     0
  0
APPID
  2
ACAD_MLEADERVER
 70
     0
  0
APPID
  2
ACAD_NAV_VCDISPLAY
 70
     0
  0
ENDTAB
  0
TABLE
  2
DIMSTYLE
 70
     1
  0
DIMSTYLE
  2
STANDARD
 70
     0
  3

  4

  5

  6

  7

 40
1.0
 41
0.18
 42
0.0625
 43
0.38
 44
0.18
 45
0.0
 46
0.0
 47
0.0
 48
0.0
140
0.18
141
0.09
142
0.0
143
25.399999999999999
144
1.0
145
0.0
146
1.0
147
0.09
 71
     0
 72
     0
 73
     1
 74
     1
 75
     0
 76
     0
 77
     0
 78
     0
170
     0
171
     2
172
     0
173
     0
174
     0
175
     0
176
     0
177
     0
178
     0
  0
ENDTAB
  0
ENDSEC
  0
SECTION
  2
BLOCKS
  0
BLOCK
  8
0
  2
$MODEL_SPACE
 70
     0
 10
0.0
 20
0.0
 30
0.0
  3
$MODEL_SPACE
  1

  0
ENDBLK
  5
1C4
  8
0
  0
BLOCK
 67
     1
  8
0
  2
$PAPER_SPACE
 70
     0
 10
0.0
 20
0.0
 30
0.0
  3
$PAPER_SPACE
  1

  0
ENDBLK
  5
1C2
 67
     1
  8
0
  0
ENDSEC
  0
SECTION
  2
ENTITIES
  0
CIRCLE
  5
90
  8
0
 10
379.44018101581901
 20
279.34255410419871
 30
0.0
 40
5.0
  0
LINE
  5
91
  8
0
 10
495.22331317455121
 20
254.34255410419809
 30
0.0
 11
494.22331317455132
 21
254.34255410419809
 31
0.0
  0
ARC
  5
92
  8
0
 10
534.02331317455116
 20
257.3425541041986
 30
0.0
 40
2.0
 50
0.0000000000003422
 51
89.999999999999886
  0
ARC
  5
93
  8
0
 10
539.02331317455116
 20
257.3425541041986
 30
0.0
 40
3.0
 50
180.0
 51
269.99999999999989
  0
ARC
  5
94
  8
5
 10
564.02331317455116
 20
257.3425541041986
 30
0.0
 40
3.0
 50
180.00000000000011
 51
269.99999999999989
  0
LINE
  5
95
  8
0
 10
534.02331317455116
 20
259.3425541041986
 30
0.0
 11
529.02331317455116
 21
259.3425541041986
 31
0.0
  0
LINE
  5
96
  8
0
 10
561.02331317455128
 20
294.34255410419843
 30
0.0
 11
561.02331317455128
 21
257.3425541041986
 31
0.0
  0
LINE
  5
97
  8
0
 10
558.02331317455116
 20
254.3425541041986
 30
0.0
 11
539.02331317455116
 21
254.3425541041986
 31
0.0
  0
LINE
  5
98
  8
0
 10
558.02331317455116
 20
292.34255410419843
 30
0.0
 11
535.99387592302855
 21
292.34255410419843
 31
0.0
  0
LINE
  5
99
  8
0
 10
526.02331317455116
 20
282.37199135572109
 30
0.0
 11
526.02331317455116
 21
262.3425541041986
 31
0.0
  0
LINE
  5
9A
  8
0
 10
558.02331317455116
 20
297.34255410419843
 30
0.0
 11
540.99387592302855
 21
297.34255410419843
 31
0.0
  0
ARC
  5
9B
  8
0
 10
558.02331317455116
 20
257.3425541041986
 30
0.0
 40
3.0
 50
270.0
 51
359.99999999999989
  0
ARC
  5
9C
  8
0
 10
558.02331317455116
 20
289.34255410419843
 30
0.0
 40
3.0
 50
360.0
 51
89.999999999999886
  0
ARC
  5
9D
  8
0
 10
558.02331317455116
 20
294.34255410419843
 30
0.0
 40
3.0
 50
360.0
 51
89.999999999999986
  0
ARC
  5
9E
  8
0
 10
529.02331317455116
 20
262.3425541041986
 30
0.0
 40
3.0
 50
180.0
 51
269.99999999999989
  0
LINE
  5
9F
  8
0
 10
551.02331317455116
 20
292.34255410419843
 30
0.0
 11
535.99387592302855
 21
292.34255410419843
 31
0.0
  0
LINE
  5
A0
  8
0
 10
526.02331317455116
 20
269.3425541041986
 30
0.0
 11
513.90817674665095
 21
269.3425541041986
 31
0.0
  0
ARC
  5
A1
  8
5
 10
583.02331317455116
 20
294.34255410419843
 30
0.0
 40
3.0
 50
360.0
 51
89.999999999999986
  0
ARC
  5
A2
  8
5
 10
583.02331317455116
 20
289.34255410419843
 30
0.0
 40
3.0
 50
360.0
 51
89.999999999999886
  0
ARC
  5
A3
  8
5
 10
583.02331317455116
 20
257.3425541041986
 30
0.0
 40
3.0
 50
270.0
 51
359.99999999999989
  0
LINE
  5
A4
  8
0
 10
558.02331317455116
 20
319.34255410419843
 30
0.0
 11
558.02331317455116
 21
297.34255410419843
 31
0.0
  0
LINE
  5
A5
  8
5
 10
583.02331317455116
 20
297.34255410419843
 30
0.0
 11
554.02331317455116
 21
297.34255410419843
 31
0.0
  0
LINE
  5
A6
  8
5
 10
583.02331317455116
 20
292.34255410419843
 30
0.0
 11
554.02331317455116
 21
292.34255410419843
 31
0.0
  0
LINE
  5
A7
  8
5
 10
583.02331317455116
 20
254.3425541041986
 30
0.0
 11
564.02331317455116
 21
254.3425541041986
 31
0.0
  0
LINE
  5
A8
  8
5
 10
586.02331317455128
 20
294.34255410419843
 30
0.0
 11
586.02331317455128
 21
257.3425541041986
 31
0.0
  0
ARC
  5
A9
  8
0
 10
507.86535211270518
 20
309.21890028744127
 30
0.0
 40
4.0
 50
275.0
 51
349.99999999999977
  0
ARC
  5
AB
  8
0
 10
495.22331317455121
 20
258.3425541041986
 30
0.0
 40
3.999999999999992
 50
270.0
 51
0.0
  0
ARC
  5
AC
  8
0
 10
503.22331317455121
 20
258.3425541041986
 30
0.0
 40
4.0
 50
180.0
 51
270.0
  0
ARC
  5
AD
  8
0
 10
523.02331317455128
 20
265.22985573199071
 30
0.0
 40
10.0
 50
135.0
 51
180.0
  0
LINE
  5
AE
  8
0
 10
513.02331317455116
 20
265.22985573199071
 30
0.0
 11
513.02331317455116
 21
254.3425541041986
 31
0.0
  0
LINE
  5
AF
  8
0
 10
554.50859454879003
 20
310.85727272995967
 30
0.0
 11
515.95224536268586
 21
272.30092354385602
 31
0.0
  0
LINE
  5
B0
  8
0
 10
546.02331317455116
 20
331.34255410419843
 30
0.0
 11
514.85912345604436
 21
325.84746662490812
 31
0.0
  0
ARC
  5
B1
  8
0
 10
546.02331317455116
 20
319.34255410419843
 30
0.0
 40
12.0
 50
315.00000000000011
 51
89.999999999999986
  0
LINE
  5
B2
  8
0
 10
514.85912345604436
 20
325.84746662490812
 30
0.0
 11
511.80458312475412
 21
308.52430757677348
 31
0.0
  0
LINE
  5
B3
  8
0
 10
503.22331317455121
 20
254.3425541041986
 30
0.0
 11
513.02331317455116
 21
254.3425541041986
 31
0.0
  0
LINE
  5
B4
  8
0
 10
502.8746902035607
 20
304.76699459672682
 30
0.0
 11
508.21397508369591
 21
305.23412149507391
 31
0.0
  0
CIRCLE
  5
B5
  8
0
 10
379.44018101581901
 20
279.34255410419871
 30
0.0
 40
15.0
  0
LINE
  5
B6
  8
0
 10
491.02331317455128
 20
249.3425541041986
 30
0.0
 11
494.22331317455132
 21
249.34255410419871
 31
0.0
  0
LINE
  5
B7
  8
0
 10
499.22331317455132
 20
300.78221580435979
 30
0.0
 11
499.22331317455121
 21
258.3425541041986
 31
0.0
  0
CIRCLE
  5
B9
  8
0
 10
546.02331317455116
 20
319.34255410419843
 30
0.0
 40
4.0
  0
LINE
  5
BA
  8
1
 10
486.02331317455128
 20
279.34255410419843
 30
0.0
 11
591.02331317455128
 21
279.34255410419843
 31
0.0
  0
LINE
  5
BB
  8
0
 10
491.02331317455128
 20
309.34255410419871
 30
0.0
 11
491.02331317455128
 21
249.3425541041986
 31
0.0
  0
LINE
  5
BC
  8
1
 10
516.02331317455128
 20
319.34255410419843
 30
0.0
 11
576.02331317455116
 21
319.34255410419843
 31
0.0
  0
LINE
  5
BD
  8
1
 10
546.02331317455116
 20
289.34255410419843
 30
0.0
 11
546.02331317455116
 21
349.34255410419843
 31
0.0
  0
ARC
  5
BE
  8
0
 10
546.02331317455116
 20
319.34255410419843
 30
0.0
 40
25.0
 50
298.3576365763281
 51
161.78979536631499
  0
LINE
  5
BF
  8
1
 10
339.44018101581941
 20
294.34255410419888
 30
0.0
 11
339.44018101581929
 21
264.342554104199
 31
0.0
  0
ARC
  5
C0
  8
0
 10
379.44018101581901
 20
279.34255410419871
 30
0.0
 40
29.999999999999972
 50
59.999999999999922
 51
120.0
  0
LINE
  5
C1
  8
0
 10
364.44018101581889
 20
305.3233162177317
 30
0.0
 11
334.44018101582009
 21
288.00280814204319
 31
0.0
  0
LINE
  5
C2
  8
0
 10
394.44018101581912
 20
305.3233162177321
 30
0.0
 11
424.44018101581861
 21
288.00280814204319
 31
0.0
  0
ARC
  5
C3
  8
0
 10
379.44018101581901
 20
279.34255410419871
 30
0.0
 40
29.999999999999972
 50
240.00000000000011
 51
300.0
  0
LINE
  5
C4
  8
1
 10
379.44018101581912
 20
349.34255410419871
 30
0.0
 11
379.44018101581912
 21
244.342554104199
 31
0.0
  0
LINE
  5
C5
  8
1
 10
419.44018101581912
 20
294.34255410419871
 30
0.0
 11
419.44018101581912
 21
264.34255410419883
 31
0.0
  0
LINE
  5
C6
  8
1
 10
324.44018101581941
 20
279.34255410419888
 30
0.0
 11
434.44018101581912
 21
279.34255410419871
 31
0.0
  0
LINE
  5
C7
  8
0
 10
394.44018101581901
 20
253.36179199066561
 30
0.0
 11
424.4401810158185
 21
270.6823000663544
 31
0.0
  0
LINE
  5
C8
  8
0
 10
364.44018101581878
 20
253.36179199066601
 30
0.0
 11
334.44018101582009
 21
270.68230006635463
 31
0.0
  0
ARC
  5
C9
  8
0
 10
339.4401810158202
 20
279.34255410419888
 30
0.0
 40
10.0
 50
120.0000000000007
 51
239.99999999999909
  0
ARC
  5
CA
  8
0
 10
419.4401810158185
 20
279.34255410419883
 30
0.0
 40
10.0
 50
300.0000000000004
 51
59.999999999999311
  0
CIRCLE
  5
CB
  8
0
 10
339.44018101581941
 20
279.34255410419888
 30
0.0
 40
4.4000000000000004
  0
CIRCLE
  5
CC
  8
0
 10
419.44018101581918
 20
279.34255410419871
 30
0.0
 40
4.4000000000000004
  0
ARC
  5
CD
  8
0
 10
495.22331317455121
 20
300.34255410419809
 30
0.0
 40
3.999999999999992
 50
0.0
 51
89.999999999999986
  0
LINE
  5
CE
  8
0
 10
495.22331317455121
 20
304.3425541041986
 30
0.0
 11
494.22331317455132
 21
304.3425541041986
 31
0.0
  0
LINE
  5
CF
  8
0
 10
491.02331317455128
 20
309.34255410419871
 30
0.0
 11
494.22331317455132
 21
309.34255410419883
 31
0.0
  0
ARC
  5
D0
  8
0
 10
520.46574496060111
 20
279.34255410419843
 30
0.0
 40
3.25
 50
258.37035980399588
 51
11.629640196004679
  0
ARC
  5
D1
  8
2
 10
520.46574496060111
 20
279.34255410419843
 30
0.0
 40
3.2499999999925588
 50
11.62964019600453
 51
258.37035980399583
  0
LINE
  5
D2
  8
1
 10
520.46574496060111
 20
271.09255410419843
 30
0.0
 11
520.46574496060111
 21
287.59255410419098
 31
0.0
  0
LINE
  5
D3
  8
0
 10
364.44018101581912
 20
341.42354653967732
 30
0.0
 11
364.44018101581912
 21
325.84746662490812
 31
0.0
  0
LINE
  5
D4
  8
0
 10
394.44018101581912
 20
341.42354653967709
 30
0.0
 11
394.44018101581912
 21
325.84746662490812
 31
0.0
  0
LINE
  5
D5
  8
0
 10
398.94018101581912
 20
331.34255410419843
 30
0.0
 11
397.44018101581918
 21
331.34255410419843
 31
0.0
  0
LINE
  5
D6
  8
0
 10
359.44018101581912
 20
330.84255410419843
 30
0.0
 11
359.44018101581912
 21
302.43656487178367
 31
0.0
  0
LINE
  5
D7
  8
0
 10
399.44018101581912
 20
330.84255410419843
 30
0.0
 11
399.44018101581912
 21
302.43656487178379
 31
0.0
  0
LINE
  5
D8
  8
1
 10
354.44018101581912
 20
319.34255410419843
 30
0.0
 11
404.44018101581901
 21
319.34255410419843
 31
0.0
  0
LINE
  5
D9
  8
0
 10
397.44018101581912
 20
325.84746662490812
 30
0.0
 11
361.44018101581912
 21
325.84746662490812
 31
0.0
  0
LINE
  5
DA
  8
0
 10
361.44018101581912
 20
331.34255410419843
 30
0.0
 11
361.44018101581912
 21
325.84746662490812
 31
0.0
  0
ARC
  5
DB
  8
0
 10
361.44018101581912
 20
327.84746662490812
 30
0.0
 40
2.0
 50
180.0
 51
270.0
  0
ARC
  5
DC
  8
0
 10
359.94018101581912
 20
330.84255410419843
 30
0.0
 40
0.5
 50
90.000000000000057
 51
180.0
  0
ARC
  5
DD
  8
0
 10
397.44018101581912
 20
327.84746662490812
 30
0.0
 40
2.0
 50
270.0
 51
360.0
  0
LINE
  5
DE
  8
0
 10
397.44018101581918
 20
331.34255410419843
 30
0.0
 11
397.44018101581918
 21
325.84746662490812
 31
0.0
  0
ARC
  5
DF
  8
0
 10
398.94018101581912
 20
330.84255410419843
 30
0.0
 40
0.5
 50
360.0
 51
90.000000000000071
  0
LINE
  5
E0
  8
0
 10
361.44018101581912
 20
331.34255410419843
 30
0.0
 11
359.94018101581912
 21
331.34255410419843
 31
0.0
  0
ARC
  5
E1
  8
0
 10
379.44018101581918
 20
304.34255410419871
 30
0.0
 40
40.0
 50
67.975687162957939
 51
112.0243128370421
  0
LINE
  5
EB
  8
0
 10
429.44018101581901
 20
174.12083045793571
 30
0.0
 11
429.44018101581901
 21
170.92083045793569
 31
0.0
  0
LINE
  5
EC
  8
0
 10
429.44018101581901
 20
174.12083045793571
 30
0.0
 11
329.44018101581912
 21
174.12083045793571
 31
0.0
  0
LINE
  5
ED
  8
0
 10
429.44018101581901
 20
170.92083045793569
 30
0.0
 11
329.44018101581912
 21
170.92083045793569
 31
0.0
  0
LINE
  5
EE
  8
0
 10
329.44018101581912
 20
174.12083045793571
 30
0.0
 11
329.44018101581912
 21
170.92083045793569
 31
0.0
  0
LINE
  5
EF
  8
1
 10
371.19018101581912
 20
144.6783986718857
 30
0.0
 11
387.69018101581167
 21
144.6783986718857
 31
0.0
  0
ARC
  5
F0
  8
0
 10
379.44018101581912
 20
144.6783986718857
 30
0.0
 40
3.2499999999925588
 50
281.62964019600457
 51
168.37035980399571
  0
ARC
  5
F1
  8
0
 10
379.44018101581912
 20
144.6783986718857
 30
0.0
 40
3.25
 50
168.3703598039958
 51
281.62964019600469
  0
LINE
  5
F2
  8
1
 10
379.44018101581912
 20
179.1208304579356
 30
0.0
 11
379.44018101581912
 21
74.120830457935611
 31
0.0
  0
LINE
  5
F3
  8
0
 10
400.77485631974957
 20
165.92083045793569
 30
0.0
 11
358.44018101581929
 21
165.92083045793569
 31
0.0
  0
LINE
  5
F4
  8
0
 10
354.44018101581929
 20
161.92083045793569
 30
0.0
 11
354.44018101581929
 21
152.4730503448892
 31
0.0
  0
LINE
  5
F5
  8
0
 10
404.44018101581901
 20
152.1208304579356
 30
0.0
 11
354.46092923873988
 21
152.1208304579356
 31
0.0
  0
LINE
  5
F8
  8
5
 10
404.44018101581901
 20
79.120830457935611
 30
0.0
 11
354.44018101581912
 21
79.120830457935625
 31
0.0
  0
LINE
  5
F9
  8
5
 10
351.44018101581912
 20
82.120830457935625
 30
0.0
 11
351.44018101581912
 21
101.1208304579356
 31
0.0
  0
ARC
  5
FA
  8
5
 10
354.44018101581912
 20
82.120830457935625
 30
0.0
 40
3.0
 50
180.0
 51
269.99999999999989
  0
LINE
  5
FB
  8
0
 10
369.44018101581929
 20
139.1208304579356
 30
0.0
 11
369.44018101581929
 21
149.1208304579356
 31
0.0
  0
ARC
  5
FC
  8
0
 10
362.44018101581929
 20
136.1208304579356
 30
0.0
 40
3.0
 50
89.999999999999986
 51
179.9999999999998
  0
ARC
  5
FD
  8
0
 10
354.44018101581912
 20
107.1208304579356
 30
0.0
 40
3.0
 50
180.0
 51
269.99999999999989
  0
LINE
  5
FE
  8
0
 10
396.44018558948022
 20
139.1208304579356
 30
0.0
 11
362.44018101581929
 21
139.1208304579356
 31
0.0
  0
LINE
  5
FF
  8
0
 10
351.44018101581912
 20
107.1208304579356
 30
0.0
 11
351.44018101581912
 21
126.1208304579356
 31
0.0
  0
LINE
  5
100
  8
0
 10
404.44018101581901
 20
104.1208304579356
 30
0.0
 11
354.44018101581912
 21
104.1208304579356
 31
0.0
  0
LINE
  5
101
  8
0
 10
359.44018101581929
 20
131.1208304579356
 30
0.0
 11
359.44018101581929
 21
136.1208304579356
 31
0.0
  0
ARC
  5
102
  8
5
 10
354.44018101581912
 20
101.1208304579356
 30
0.0
 40
3.0
 50
90.000000000000085
 51
179.9999999999998
  0
ARC
  5
103
  8
0
 10
354.44018101581912
 20
126.1208304579356
 30
0.0
 40
3.0
 50
89.999999999999986
 51
179.9999999999998
  0
ARC
  5
104
  8
0
 10
354.75069598643711
 20
135.59454303139091
 30
0.0
 40
6.4811553006151117
 50
267.2538830108619
 51
316.34893596184043
  0
ARC
  5
106
  8
0
 10
400.44018101581889
 20
161.92083045793569
 30
0.0
 40
4.0
 50
0.0
 51
89.999999999999986
  0
LINE
  5
107
  8
0
 10
404.44018101581901
 20
161.92083045793569
 30
0.0
 11
404.44018101581901
 21
152.1208304579356
 31
0.0
  0
LINE
  5
108
  8
0
 10
354.5217623717632
 20
151.77818876297101
 30
0.0
 11
359.44018101581929
 21
131.1208304579356
 31
0.0
  0
LINE
  5
109
  8
0
 10
359.1288072713628
 20
148.5523880051758
 30
0.0
 11
361.01805862118778
 21
138.76233909783491
 31
0.0
  0
ARC
  5
10A
  8
0
 10
355.44018101581929
 20
152.23823708692021
 30
0.0
 40
1.0
 50
180.0
 51
193.392497753751
  0
ARC
  5
10B
  8
0
 10
355.44018101581929
 20
152.23823708692009
 30
0.0
 40
1.0
 50
180.0
 51
193.392497753751
  0
ARC
  5
10C
  8
0
 10
357.44018101581929
 20
152.4730503448892
 30
0.0
 40
3.0
 50
180.0
 51
193.39249775375109
  0
ARC
  5
10D
  8
0
 10
362.07446053980772
 20
149.12083045793551
 30
0.0
 40
3.0
 50
89.999999999999986
 51
190.92248686490089
  0
LINE
  5
10E
  8
0
 10
389.44018101581889
 20
149.1208304579356
 30
0.0
 11
369.44018101581929
 21
149.12083045793571
 31
0.0
  0
ARC
  5
10F
  8
0
 10
396.80590149183053
 20
149.12083045793551
 30
0.0
 40
3.0
 50
349.07751313509903
 51
89.999999999999986
  0
ARC
  5
110
  8
0
 10
401.44018101581878
 20
152.47305034488909
 30
0.0
 40
3.0
 50
346.60750224624888
 51
360.0
  0
ARC
  5
111
  8
0
 10
403.44018101581889
 20
152.23823708692009
 30
0.0
 40
1.0
 50
346.607502246249
 51
360.0
  0
ARC
  5
112
  8
0
 10
403.44018101581889
 20
152.23823708692009
 30
0.0
 40
1.0
 50
346.607502246249
 51
360.0
  0
LINE
  5
113
  8
0
 10
399.7515547602755
 20
148.5523880051758
 30
0.0
 11
397.86230341045029
 21
138.76233909783491
 31
0.0
  0
LINE
  5
114
  8
0
 10
404.35859965987493
 20
151.77818876297101
 30
0.0
 11
399.44018101581889
 21
131.1208304579356
 31
0.0
  0
ARC
  5
115
  8
0
 10
404.12966604520102
 20
135.59454303139091
 30
0.0
 40
6.4811553006151117
 50
223.6510640381596
 51
272.74611698913799
  0
ARC
  5
116
  8
0
 10
404.44018101581901
 20
126.1208304579356
 30
0.0
 40
3.0
 50
0.0000000000000877
 51
89.999999999999986
  0
ARC
  5
117
  8
5
 10
404.44018101581901
 20
101.1208304579356
 30
0.0
 40
3.0
 50
0.0000000000000877
 51
89.999999999999886
  0
LINE
  5
118
  8
0
 10
399.44018101581889
 20
131.1208304579356
 30
0.0
 11
399.44018101581889
 21
136.1208304579356
 31
0.0
  0
LINE
  5
119
  8
0
 10
407.44018101581912
 20
107.1208304579356
 30
0.0
 11
407.44018101581912
 21
126.1208304579356
 31
0.0
  0
ARC
  5
11A
  8
0
 10
404.44018101581901
 20
107.1208304579356
 30
0.0
 40
3.0
 50
270.00000000000011
 51
360.0
  0
ARC
  5
11B
  8
0
 10
396.44018101581889
 20
136.1208304579356
 30
0.0
 40
3.0
 50
0.0000000000000877
 51
89.999999999999986
  0
LINE
  5
11C
  8
0
 10
389.44018101581889
 20
139.1208304579356
 30
0.0
 11
389.44018101581889
 21
149.1208304579356
 31
0.0
  0
ARC
  5
11D
  8
5
 10
404.44018101581901
 20
82.120830457935597
 30
0.0
 40
3.0
 50
270.00000000000011
 51
360.0
  0
LINE
  5
11E
  8
5
 10
407.44018101581912
 20
82.120830457935597
 30
0.0
 11
407.44018101581912
 21
101.1208304579356
 31
0.0
  0
LINE
  5
11F
  8
0
 10
383.8401810158191
 20
152.12083045793551
 30
0.0
 11
383.8401810158191
 21
149.1208304579356
 31
0.0
  0
LINE
  5
120
  8
0
 10
375.04018101581909
 20
152.12083045793551
 30
0.0
 11
375.04018101581909
 21
149.1208304579356
 31
0.0
  0
LINE
  5
121
  8
5
 10
351.44018101581918
 20
487.91173979880818
 30
0.0
 11
351.44018101581918
 21
468.91173979880818
 31
0.0
  0
ARC
  5
122
  8
5
 10
354.44018101581918
 20
487.91173979880818
 30
0.0
 40
3.0
 50
90.000000000000114
 51
180.0
  0
ARC
  5
123
  8
0
 10
354.44018101581918
 20
462.91173979880818
 30
0.0
 40
3.0
 50
90.000000000000114
 51
180.0
  0
LINE
  5
124
  8
0
 10
351.44018101581918
 20
462.91173979880818
 30
0.0
 11
351.44018101581918
 21
443.91173979880818
 31
0.0
  0
ARC
  5
125
  8
5
 10
354.44018101581918
 20
468.91173979880818
 30
0.0
 40
3.0
 50
180.00000000000011
 51
269.99999999999989
  0
ARC
  5
126
  8
0
 10
354.44018101581918
 20
443.91173979880818
 30
0.0
 40
3.0
 50
180.00000000000011
 51
270.0
  0
ARC
  5
127
  8
0
 10
401.44018101581889
 20
417.55951991185458
 30
0.0
 40
3.0
 50
360.0
 51
13.392497753751099
  0
ARC
  5
128
  8
0
 10
403.44018101581889
 20
417.79433316982369
 30
0.0
 40
1.0
 50
360.0
 51
13.392497753751041
  0
ARC
  5
129
  8
0
 10
403.44018101581889
 20
417.79433316982357
 30
0.0
 40
1.0
 50
360.0
 51
13.392497753751041
  0
LINE
  5
12A
  8
0
 10
404.35859965987498
 20
418.25438149377283
 30
0.0
 11
399.44018101581901
 21
438.9117397988079
 31
0.0
  0
LINE
  5
12B
  8
0
 10
354.44018101581929
 20
408.11173979880829
 30
0.0
 11
354.44018101581929
 21
417.91173979880818
 31
0.0
  0
ARC
  5
12E
  8
0
 10
404.12966604520102
 20
434.43802722535293
 30
0.0
 40
6.4811553006151117
 50
87.253883010861941
 51
136.3489359618404
  0
ARC
  5
12F
  8
0
 10
404.44018101581912
 20
443.91173979880818
 30
0.0
 40
3.0
 50
270.0
 51
359.99999999999989
  0
ARC
  5
130
  8
5
 10
404.44018101581912
 20
468.91173979880818
 30
0.0
 40
3.0
 50
270.00000000000011
 51
359.99999999999989
  0
LINE
  5
131
  8
0
 10
354.44018101581918
 20
465.91173979880818
 30
0.0
 11
364.44018101581918
 21
465.91173979880818
 31
0.0
  0
LINE
  5
132
  8
0
 10
407.44018101581918
 20
462.91173979880818
 30
0.0
 11
407.44018101581918
 21
443.91173979880818
 31
0.0
  0
ARC
  5
133
  8
0
 10
404.44018101581912
 20
462.91173979880818
 30
0.0
 40
3.0
 50
360.0
 51
89.999999999999886
  0
ARC
  5
134
  8
5
 10
404.44018101581912
 20
487.91173979880818
 30
0.0
 40
3.0
 50
360.0
 51
89.999999999999886
  0
LINE
  5
135
  8
5
 10
407.44018101581918
 20
487.91173979880818
 30
0.0
 11
407.44018101581918
 21
468.91173979880818
 31
0.0
  0
LINE
  5
136
  8
5
 10
354.44018101581918
 20
490.91173979880818
 30
0.0
 11
404.44018101581912
 21
490.91173979880818
 31
0.0
  0
LINE
  5
139
  8
0
 10
404.44018101581889
 20
408.11173979880829
 30
0.0
 11
404.44018101581901
 21
417.55951991185458
 31
0.0
  0
LINE
  5
13A
  8
0
 10
358.44018101581929
 20
404.11173979880829
 30
0.0
 11
400.44018101581889
 21
404.11173979880829
 31
0.0
  0
LINE
  5
13B
  8
1
 10
379.44018101581912
 20
390.9117397988083
 30
0.0
 11
379.44018101581918
 21
495.91173979880818
 31
0.0
  0
LINE
  5
13C
  8
0
 10
429.44018101581901
 20
395.91173979880841
 30
0.0
 11
429.44018101581901
 21
399.1117397988084
 31
0.0
  0
LINE
  5
13D
  8
0
 10
329.44018101581918
 20
399.1117397988084
 30
0.0
 11
429.44018101581901
 21
399.1117397988084
 31
0.0
  0
LINE
  5
13E
  8
0
 10
329.44018101581918
 20
395.91173979880841
 30
0.0
 11
429.44018101581901
 21
395.91173979880841
 31
0.0
  0
LINE
  5
13F
  8
0
 10
329.44018101581918
 20
395.91173979880841
 30
0.0
 11
329.44018101581918
 21
399.1117397988084
 31
0.0
  0
LINE
  5
140
  8
0
 10
394.44018101581929
 20
465.91173979880818
 30
0.0
 11
404.44018101581912
 21
465.91173979880818
 31
0.0
  0
LINE
  5
141
  8
0
 10
354.5217623717632
 20
418.25438149377283
 30
0.0
 11
359.44018101581929
 21
438.91173979880801
 31
0.0
  0
ARC
  5
142
  8
0
 10
354.75069598643722
 20
434.43802722535293
 30
0.0
 40
6.4811553006151117
 50
43.651064038159632
 51
92.746116989138059
  0
ARC
  5
143
  8
0
 10
379.44018101581918
 20
465.91173979880813
 30
0.0
 40
40.0
 50
247.97568716295791
 51
292.02431283704209
  0
ARC
  5
144
  8
0
 10
359.94018101581918
 20
418.50541516293862
 30
0.0
 40
0.5
 50
180.0
 51
270.00000000000011
  0
LINE
  5
145
  8
0
 10
359.94018101581918
 20
418.00541516293862
 30
0.0
 11
361.44018101581912
 21
418.00541516293862
 31
0.0
  0
LINE
  5
146
  8
0
 10
361.44018101581912
 20
420.00541516293862
 30
0.0
 11
361.44018101581918
 21
462.9117397988083
 31
0.0
  0
LINE
  5
147
  8
0
 10
359.44018101581918
 20
418.50541516293862
 30
0.0
 11
359.44018101581929
 21
462.9117397988083
 31
0.0
  0
LINE
  5
148
  8
0
 10
361.44018101581901
 20
462.9117397988083
 30
0.0
 11
359.44018101581918
 21
462.9117397988083
 31
0.0
  0
LINE
  5
149
  8
0
 10
361.44018101581912
 20
418.00541516293862
 30
0.0
 11
398.94018101581901
 21
418.00541516293862
 31
0.0
  0
LINE
  5
14A
  8
0
 10
361.44018101581912
 20
420.00541516293862
 30
0.0
 11
397.44018101581918
 21
420.00541516293862
 31
0.0
  0
LINE
  5
14B
  8
0
 10
397.44018101581918
 20
462.9117397988083
 30
0.0
 11
399.44018101581901
 21
462.9117397988083
 31
0.0
  0
LINE
  5
14C
  8
0
 10
399.44018101581901
 20
418.50541516293862
 30
0.0
 11
399.44018101581901
 21
462.9117397988083
 31
0.0
  0
LINE
  5
14D
  8
0
 10
397.44018101581918
 20
420.00541516293862
 30
0.0
 11
397.44018101581912
 21
462.9117397988083
 31
0.0
  0
ARC
  5
14E
  8
0
 10
398.94018101581901
 20
418.50541516293862
 30
0.0
 40
0.5
 50
269.99999999999989
 51
0.0000000000000368
  0
LINE
  5
14F
  8
0
 10
394.44018101581929
 20
428.83074736332952
 30
0.0
 11
394.44018101581929
 21
472.99273223428611
 31
0.0
  0
LINE
  5
150
  8
0
 10
364.44018101581918
 20
428.83074736332981
 30
0.0
 11
364.44018101581918
 21
472.99273223428668
 31
0.0
  0
ARC
  5
151
  8
0
 10
379.44018101581918
 20
435.91173979880818
 30
0.0
 40
40.0
 50
67.975687162957882
 51
112.024312837042
  0
ARC
  5
152
  8
0
 10
379.44018101581901
 20
134.12083045793571
 30
0.0
 40
40.0
 50
247.97568716295791
 51
292.02431283704198
  0
LINE
  5
153
  8
0
 10
394.44018101581878
 20
97.039838022457403
 30
0.0
 11
394.44018101581889
 21
104.1208304579356
 31
0.0
  0
LINE
  5
154
  8
0
 10
364.44018101581901
 20
97.039838022457417
 30
0.0
 11
364.44018101581901
 21
104.1208304579356
 31
0.0
  0
LINE
  5
155
  8
1
 10
238.41461707103699
 20
271.09255410419843
 30
0.0
 11
238.41461707103699
 21
287.59255410419098
 31
0.0
  0
ARC
  5
156
  8
2
 10
238.41461707103699
 20
279.34255410419843
 30
0.0
 40
3.2499999999925588
 50
281.62964019600429
 51
168.37035980399551
  0
ARC
  5
157
  8
0
 10
238.41461707103699
 20
279.34255410419843
 30
0.0
 40
3.25
 50
168.37035980399531
 51
281.62964019600412
  0
LINE
  5
158
  8
0
 10
267.85704885708691
 20
309.34255410419871
 30
0.0
 11
264.65704885708692
 21
309.34255410419883
 31
0.0
  0
LINE
  5
159
  8
0
 10
263.65704885708681
 20
304.3425541041986
 30
0.0
 11
264.65704885708692
 21
304.3425541041986
 31
0.0
  0
ARC
  5
15A
  8
0
 10
263.65704885708681
 20
300.34255410419809
 30
0.0
 40
3.999999999999992
 50
90.000000000000057
 51
180.0
  0
ARC
  5
15B
  8
0
 10
212.8570488570868
 20
319.34255410419843
 30
0.0
 40
25.0
 50
18.210204633685009
 51
241.64236342367201
  0
LINE
  5
15C
  8
1
 10
212.8570488570868
 20
289.34255410419843
 30
0.0
 11
212.8570488570868
 21
349.34255410419843
 31
0.0
  0
LINE
  5
15D
  8
1
 10
242.85704885708691
 20
319.34255410419843
 30
0.0
 11
182.8570488570868
 21
319.34255410419843
 31
0.0
  0
LINE
  5
15E
  8
0
 10
267.85704885708691
 20
309.34255410419871
 30
0.0
 11
267.85704885708691
 21
249.3425541041986
 31
0.0
  0
LINE
  5
15F
  8
1
 10
272.85704885708691
 20
279.34255410419843
 30
0.0
 11
167.8570488570868
 21
279.34255410419843
 31
0.0
  0
CIRCLE
  5
160
  8
0
 10
212.8570488570868
 20
319.34255410419843
 30
0.0
 40
4.0
  0
LINE
  5
161
  8
0
 10
264.65704885708692
 20
309.34255410419871
 30
0.0
 11
264.65704885708692
 21
249.3425541041986
 31
0.0
  0
LINE
  5
162
  8
0
 10
259.65704885708692
 20
300.78221580435979
 30
0.0
 11
259.65704885708681
 21
258.3425541041986
 31
0.0
  0
LINE
  5
163
  8
0
 10
267.85704885708691
 20
249.3425541041986
 30
0.0
 11
264.65704885708692
 21
249.34255410419871
 31
0.0
  0
LINE
  5
164
  8
0
 10
256.00567182807748
 20
304.76699459672682
 30
0.0
 11
250.66638694794219
 21
305.23412149507391
 31
0.0
  0
LINE
  5
165
  8
0
 10
255.65704885708689
 20
254.3425541041986
 30
0.0
 11
245.85704885708691
 21
254.3425541041986
 31
0.0
  0
LINE
  5
166
  8
0
 10
244.02123857559371
 20
325.84746662490812
 30
0.0
 11
247.07577890688401
 21
308.52430757677348
 31
0.0
  0
ARC
  5
167
  8
0
 10
212.8570488570868
 20
319.34255410419843
 30
0.0
 40
12.0
 50
90.000000000000057
 51
225.0
  0
LINE
  5
168
  8
0
 10
212.8570488570868
 20
331.34255410419843
 30
0.0
 11
244.02123857559371
 21
325.84746662490812
 31
0.0
  0
LINE
  5
169
  8
0
 10
204.3717674828481
 20
310.85727272995967
 30
0.0
 11
242.92811666895221
 21
272.30092354385602
 31
0.0
  0
LINE
  5
16A
  8
0
 10
245.85704885708691
 20
265.22985573199071
 30
0.0
 11
245.85704885708691
 21
254.3425541041986
 31
0.0
  0
ARC
  5
16B
  8
0
 10
235.8570488570868
 20
265.22985573199071
 30
0.0
 40
10.0
 50
0.0000000000000254
 51
45.000000000000021
  0
ARC
  5
16C
  8
0
 10
255.65704885708689
 20
258.3425541041986
 30
0.0
 40
4.0
 50
270.00000000000011
 51
0.0000000000000254
  0
ARC
  5
16D
  8
0
 10
263.65704885708681
 20
258.3425541041986
 30
0.0
 40
3.999999999999992
 50
180.0
 51
270.00000000000011
  0
ARC
  5
16F
  8
0
 10
251.0150099189328
 20
309.21890028744127
 30
0.0
 40
4.0
 50
190.0000000000002
 51
265.00000000000011
  0
LINE
  5
170
  8
5
 10
172.8570488570868
 20
294.34255410419843
 30
0.0
 11
172.8570488570868
 21
257.3425541041986
 31
0.0
  0
LINE
  5
171
  8
5
 10
175.8570488570868
 20
254.3425541041986
 30
0.0
 11
194.8570488570868
 21
254.3425541041986
 31
0.0
  0
LINE
  5
172
  8
5
 10
175.8570488570868
 20
292.34255410419843
 30
0.0
 11
204.8570488570868
 21
292.34255410419843
 31
0.0
  0
LINE
  5
173
  8
5
 10
175.8570488570868
 20
297.34255410419843
 30
0.0
 11
204.8570488570868
 21
297.34255410419843
 31
0.0
  0
LINE
  5
174
  8
0
 10
200.8570488570868
 20
319.34255410419843
 30
0.0
 11
200.8570488570868
 21
297.34255410419843
 31
0.0
  0
ARC
  5
175
  8
5
 10
175.8570488570868
 20
257.3425541041986
 30
0.0
 40
3.0
 50
180.00000000000011
 51
270.00000000000011
  0
ARC
  5
176
  8
5
 10
175.8570488570868
 20
289.34255410419843
 30
0.0
 40
3.0
 50
90.000000000000142
 51
180.0
  0
ARC
  5
177
  8
5
 10
175.8570488570868
 20
294.34255410419843
 30
0.0
 40
3.0
 50
90.000000000000057
 51
180.0
  0
LINE
  5
178
  8
0
 10
232.85704885708691
 20
269.3425541041986
 30
0.0
 11
244.97218528498721
 21
269.3425541041986
 31
0.0
  0
LINE
  5
179
  8
0
 10
207.85704885708691
 20
292.34255410419843
 30
0.0
 11
222.8864861086096
 21
292.34255410419843
 31
0.0
  0
ARC
  5
17A
  8
0
 10
229.8570488570868
 20
262.3425541041986
 30
0.0
 40
3.0
 50
270.00000000000023
 51
0.0000000000000254
  0
ARC
  5
17B
  8
0
 10
200.8570488570868
 20
294.34255410419843
 30
0.0
 40
3.0
 50
90.000000000000057
 51
180.0
  0
ARC
  5
17C
  8
0
 10
200.8570488570868
 20
289.34255410419843
 30
0.0
 40
3.0
 50
90.000000000000142
 51
180.0
  0
ARC
  5
17D
  8
0
 10
200.8570488570868
 20
257.3425541041986
 30
0.0
 40
3.0
 50
180.00000000000011
 51
270.00000000000011
  0
LINE
  5
17E
  8
0
 10
200.8570488570868
 20
297.34255410419843
 30
0.0
 11
217.8864861086096
 21
297.34255410419843
 31
0.0
  0
LINE
  5
17F
  8
0
 10
232.85704885708691
 20
282.37199135572109
 30
0.0
 11
232.85704885708691
 21
262.3425541041986
 31
0.0
  0
LINE
  5
180
  8
0
 10
200.8570488570868
 20
292.34255410419843
 30
0.0
 11
222.8864861086096
 21
292.34255410419843
 31
0.0
  0
LINE
  5
181
  8
0
 10
200.8570488570868
 20
254.3425541041986
 30
0.0
 11
219.85704885708691
 21
254.3425541041986
 31
0.0
  0
LINE
  5
182
  8
0
 10
197.8570488570868
 20
294.34255410419843
 30
0.0
 11
197.8570488570868
 21
257.3425541041986
 31
0.0
  0
LINE
  5
183
  8
0
 10
224.85704885708691
 20
259.3425541041986
 30
0.0
 11
229.8570488570868
 21
259.3425541041986
 31
0.0
  0
ARC
  5
184
  8
5
 10
194.8570488570868
 20
257.3425541041986
 30
0.0
 40
3.0
 50
270.00000000000023
 51
360.0
  0
ARC
  5
185
  8
0
 10
219.85704885708691
 20
257.3425541041986
 30
0.0
 40
3.0
 50
270.00000000000023
 51
0.0000000000000254
  0
ARC
  5
186
  8
0
 10
224.85704885708691
 20
257.3425541041986
 30
0.0
 40
2.0
 50
90.000000000000142
 51
179.99999999999969
  0
LINE
  5
187
  8
0
 10
263.65704885708681
 20
254.34255410419809
 30
0.0
 11
264.65704885708692
 21
254.34255410419809
 31
0.0
  0
LINE
  5
188
  8
1
 10
339.44018101581941
 20
177.12083045793571
 30
0.0
 11
339.44018101581929
 21
167.92083045793581
 31
0.0
  0
LINE
  5
189
  8
1
 10
419.44018101581901
 20
177.12083045793571
 30
0.0
 11
419.44018101581912
 21
167.92083045793569
 31
0.0
  0
LINE
  5
18A
  8
1
 10
339.44018101581952
 20
402.1117397988084
 30
0.0
 11
339.44018101581941
 21
392.91173979880853
 31
0.0
  0
LINE
  5
18B
  8
1
 10
419.44018101581918
 20
402.1117397988084
 30
0.0
 11
419.44018101581918
 21
392.91173979880853
 31
0.0
  0
LINE
  5
1D0
  8
0
 10
494.22331317455132
 20
309.34255410419871
 30
0.0
 11
494.22331317455132
 21
249.3425541041986
 31
0.0
  0
ARC
  5
1D1
  8
0
 10
503.22331317455121
 20
300.78221580435979
 30
0.0
 40
4.0
 50
94.999999999999275
 51
180.0
  0
ARC
  5
1D3
  8
0
 10
255.65704885708689
 20
300.78221580435979
 30
0.0
 40
4.0
 50
0.0
 51
85.000000000000739
  0
ARC
  5
20D
  8
0
 10
358.44018101581929
 20
161.92083045793569
 30
0.0
 40
4.0
 50
89.999999999999943
 51
180.0
  0
ARC
  5
20E
  8
0
 10
358.44018101581929
 20
169.92083045793561
 30
0.0
 40
4.0
 50
180.0
 51
270.00000000000011
  0
LINE
  5
20F
  8
0
 10
354.44018101581929
 20
169.92083045793561
 30
0.0
 11
354.44018101581929
 21
170.92083045793581
 31
0.0
  0
LINE
  5
210
  8
0
 10
404.44018101581901
 20
169.92083045793569
 30
0.0
 11
404.44018101581901
 21
170.92083045793569
 31
0.0
  0
ARC
  5
211
  8
0
 10
400.44018101581889
 20
169.92083045793569
 30
0.0
 40
4.0
 50
270.0
 51
0.0
  0
ARC
  5
215
  8
0
 10
400.44018101581889
 20
408.11173979880829
 30
0.0
 40
4.0
 50
270.0
 51
0.0
  0
ARC
  5
216
  8
0
 10
358.44018101581929
 20
408.11173979880829
 30
0.0
 40
4.0
 50
180.0
 51
269.99999999999989
  0
ARC
  5
217
  8
0
 10
400.44018101581889
 20
400.1117397988084
 30
0.0
 40
4.0
 50
0.0
 51
90.000000000000028
  0
ARC
  5
218
  8
0
 10
358.44018101581929
 20
400.11173979880829
 30
0.0
 40
4.0
 50
90.000000000000114
 51
180.0
  0
LINE
  5
219
  8
0
 10
404.44018101581901
 20
400.1117397988084
 30
0.0
 11
404.44018101581901
 21
399.11173979880851
 31
0.0
  0
LINE
  5
21A
  8
0
 10
354.44018101581929
 20
400.11173979880829
 30
0.0
 11
354.44018101581929
 21
399.1117397988084
 31
0.0
  0
TEXT
  5
2D8
  8
0
 62
     3
 10
0.0
 20
0.0
 30
0.0
 40
10.0
  1
MTC-60
  7
STANDARD1
  0
ENDSEC
  0
EOF
