  0
SECTION
  2
HEADER
  9
$ACADVER
  1
AC1009
  9
$INSBASE
 10
0.0
 20
0.0
 30
0.0
  9
$EXTMIN
 10
0.0
 20
-2.960436562073669
 30
0.0
  9
$EXTMAX
 10
324.44116379670902
 20
235.41192681476119
 30
0.0
  9
$LIMMIN
 10
0.0
 20
0.0
  9
$LIMMAX
 10
375.0
 20
270.0
  9
$ORTHOMODE
 70
     1
  9
$REGENMODE
 70
     1
  9
$FILLMODE
 70
     1
  9
$QTEXTMODE
 70
     0
  9
$MIRRTEXT
 70
     0
  9
$DRAGMODE
 70
     2
  9
$LTSCALE
 40
10.0
  9
$OSMODE
 70
  3071
  9
$ATTMODE
 70
     1
  9
$TEXTSIZE
 40
0.2
  9
$TRACEWID
 40
0.05
  9
$TEXTSTYLE
  7
STANDARD
  9
$CLAYER
  8
0
  9
$CELTYPE
  6
BYLAYER
  9
$CECOLOR
 62
   256
  9
$DIMSCALE
 40
1.0
  9
$DIMASZ
 40
3.0
  9
$DIMEXO
 40
2.0
  9
$DIMDLI
 40
0.38
  9
$DIMRND
 40
0.0
  9
$DIMDLE
 40
0.0
  9
$DIMEXE
 40
2.0
  9
$DIMTP
 40
0.0
  9
$DIMTM
 40
0.0
  9
$DIMTXT
 40
3.2000000000000002
  9
$DIMCEN
 40
0.0
  9
$DIMTSZ
 40
0.0
  9
$DIMTOL
 70
     0
  9
$DIMLIM
 70
     0
  9
$DIMTIH
 70
     0
  9
$DIMTOH
 70
     0
  9
$DIMSE1
 70
     0
  9
$DIMSE2
 70
     0
  9
$DIMTAD
 70
     1
  9
$DIMZIN
 70
     0
  9
$DIMBLK
  1

  9
$DIMASO
 70
     1
  9
$DIMSHO
 70
     0
  9
$DIMPOST
  1

  9
$DIMAPOST
  1

  9
$DIMALT
 70
     0
  9
$DIMALTD
 70
     2
  9
$DIMALTF
 40
25.399999999999999
  9
$DIMLFAC
 40
1.0
  9
$DIMTOFL
 70
     1
  9
$DIMTVP
 40
1.6000000000000001
  9
$DIMTIX
 70
     1
  9
$DIMSOXD
 70
     0
  9
$DIMSAH
 70
     0
  9
$DIMBLK1
  1

  9
$DIMBLK2
  1

  9
$DIMSTYLE
  2
STANDARD
  9
$DIMCLRD
 70
     0
  9
$DIMCLRE
 70
     0
  9
$DIMCLRT
 70
     0
  9
$DIMTFAC
 40
1.0
  9
$DIMGAP
 40
0.09
  9
$LUNITS
 70
     2
  9
$LUPREC
 70
     4
  9
$SKETCHINC
 40
0.1
  9
$FILLETRAD
 40
0.0
  9
$AUNITS
 70
     0
  9
$AUPREC
 70
     4
  9
$MENU
  1
E:\r13\win\SUPPORT\ACAD
  9
$ELEVATION
 40
0.0
  9
$PELEVATION
 40
0.0
  9
$THICKNESS
 40
0.0
  9
$LIMCHECK
 70
     0
  9
$BLIPMODE
 70
     0
  9
$CHAMFERA
 40
0.0
  9
$CHAMFERB
 40
0.0
  9
$SKPOLY
 70
     0
  9
$TDCREATE
 40
2449839.7954629632
  9
$TDUPDATE
 40
2456597.670378923
  9
$TDINDWG
 40
0.0005661806
  9
$TDUSRTIMER
 40
0.0005661806
  9
$USRTIMER
 70
     1
  9
$ANGBASE
 50
0.0
  9
$ANGDIR
 70
     0
  9
$PDMODE
 70
     0
  9
$PDSIZE
 40
0.0
  9
$PLINEWID
 40
0.0
  9
$COORDS
 70
     1
  9
$SPLFRAME
 70
     0
  9
$SPLINETYPE
 70
     6
  9
$SPLINESEGS
 70
     8
  9
$ATTDIA
 70
     0
  9
$ATTREQ
 70
     1
  9
$HANDLING
 70
     1
  9
$HANDSEED
  5
46B
  9
$SURFTAB1
 70
     6
  9
$SURFTAB2
 70
     6
  9
$SURFTYPE
 70
     6
  9
$SURFU
 70
     6
  9
$SURFV
 70
     6
  9
$UCSNAME
  2

  9
$UCSORG
 10
0.0
 20
0.0
 30
0.0
  9
$UCSXDIR
 10
1.0
 20
0.0
 30
0.0
  9
$UCSYDIR
 10
0.0
 20
1.0
 30
0.0
  9
$PUCSNAME
  2

  9
$PUCSORG
 10
0.0
 20
0.0
 30
0.0
  9
$PUCSXDIR
 10
1.0
 20
0.0
 30
0.0
  9
$PUCSYDIR
 10
0.0
 20
1.0
 30
0.0
  9
$USERI1
 70
     0
  9
$USERI2
 70
     1
  9
$USERI3
 70
     1
  9
$USERI4
 70
     0
  9
$USERI5
 70
     0
  9
$USERR1
 40
0.0
  9
$USERR2
 40
0.0
  9
$USERR3
 40
0.0
  9
$USERR4
 40
0.0
  9
$USERR5
 40
0.0
  9
$WORLDVIEW
 70
     1
  9
$SHADEDGE
 70
     3
  9
$SHADEDIF
 70
    70
  9
$TILEMODE
 70
     1
  9
$MAXACTVP
 70
    16
  9
$PLIMCHECK
 70
     0
  9
$PEXTMIN
 10
1.0000000000000000E+020
 20
1.0000000000000000E+020
 30
1.0000000000000000E+020
  9
$PEXTMAX
 10
-1.0000000000000000E+020
 20
-1.0000000000000000E+020
 30
-1.0000000000000000E+020
  9
$PLIMMIN
 10
0.0
 20
0.0
  9
$PLIMMAX
 10
12.0
 20
9.0
  9
$UNITMODE
 70
     0
  9
$VISRETAIN
 70
     0
  9
$PLINEGEN
 70
     0
  9
$PSLTSCALE
 70
     0
  0
ENDSEC
  0
SECTION
  2
TABLES
  0
TABLE
  2
VPORT
 70
     1
  0
VPORT
  2
*ACTIVE
 70
     0
 10
0.0
 20
0.0
 11
1.0
 21
1.0
 12
187.49427839065231
 22
134.10366293909439
 13
0.0
 23
0.0
 14
10.0
 24
10.0
 15
10.0
 25
10.0
 16
0.0
 26
0.0
 36
1.0
 17
0.0
 27
0.0
 37
0.0
 40
277.29405978699532
 41
2.304913294797688
 42
50.0
 43
0.0
 44
0.0
 50
0.0
 51
0.0
 71
     0
 72
   500
 73
     1
 74
     0
 75
     0
 76
     0
 77
     0
 78
     2
  0
ENDTAB
  0
TABLE
  2
LTYPE
 70
     3
  0
LTYPE
  2
CONTINUOUS
 70
     0
  3
Solid Line
 72
    65
 73
     0
 40
0.0
  0
LTYPE
  2
CENTER
 70
     0
  3
____ _ ____ _ ____ _ ____ _ ____ _ ____ _ ____
 72
    65
 73
     4
 40
2.0
 49
1.25
 49
-0.25
 49
0.25
 49
-0.25
  0
LTYPE
  2
PHANTOM2
 70
     0
  3
___ _ _ ___ _ _ ___ _ _ ___ _ _
 72
    65
 73
     6
 40
1.25
 49
0.625
 49
-0.125
 49
0.125
 49
-0.125
 49
0.125
 49
-0.125
  0
ENDTAB
  0
TABLE
  2
LAYER
 70
     3
  0
LAYER
  2
0
 70
     0
 62
     7
  6
CONTINUOUS
  0
LAYER
  2
1
 70
     0
 62
     1
  6
CENTER
  0
LAYER
  2
3
 70
     0
 62
     3
  6
CONTINUOUS
  0
ENDTAB
  0
TABLE
  2
STYLE
 70
     2
  0
STYLE
  2
STANDARD
 70
     0
 40
0.0
 41
1.0
 50
0.0
 71
     0
 42
0.2
  3
TXT
  4
BIGFONT
  0
STYLE
  2
STANDARD1
 70
     0
 40
0.0
 41
1.0
 50
0.0
 71
     0
 42
3.0
  3
txt
  4

  0
ENDTAB
  0
TABLE
  2
VIEW
 70
     1
  0
VIEW
  2
ALL
 70
     0
 40
270.0
 10
220.99159663865549
 20
135.0
 41
0.0
 11
0.0
 21
0.0
 31
1.0
 12
0.0
 22
0.0
 32
0.0
 42
0.0
 43
0.0
 44
0.0
 50
0.0
 71
     0
  0
ENDTAB
  0
TABLE
  2
UCS
 70
     0
  0
ENDTAB
  0
TABLE
  2
APPID
 70
     3
  0
APPID
  2
ACAD
 70
     0
  0
APPID
  2
ACAD_MLEADERVER
 70
     0
  0
APPID
  2
ACAD_NAV_VCDISPLAY
 70
     0
  0
ENDTAB
  0
TABLE
  2
DIMSTYLE
 70
     1
  0
DIMSTYLE
  2
STANDARD
 70
     0
  3

  4

  5

  6

  7

 40
1.0
 41
0.18
 42
0.0625
 43
0.38
 44
0.18
 45
0.0
 46
0.0
 47
0.0
 48
0.0
140
0.18
141
0.09
142
0.0
143
25.399999999999999
144
1.0
145
0.0
146
1.0
147
0.09
 71
     0
 72
     0
 73
     1
 74
     1
 75
     0
 76
     0
 77
     0
 78
     0
170
     0
171
     2
172
     0
173
     0
174
     0
175
     0
176
     0
177
     0
178
     0
  0
ENDTAB
  0
ENDSEC
  0
SECTION
  2
BLOCKS
  0
BLOCK
  8
0
  2
$MODEL_SPACE
 70
     0
 10
0.0
 20
0.0
 30
0.0
  3
$MODEL_SPACE
  1

  0
ENDBLK
  5
2EA
  8
0
  0
BLOCK
 67
     1
  8
0
  2
$PAPER_SPACE
 70
     0
 10
0.0
 20
0.0
 30
0.0
  3
$PAPER_SPACE
  1

  0
ENDBLK
  5
2E8
 67
     1
  8
0
  0
BLOCK
  8
0
  2
*X0
 70
     1
 10
0.0
 20
0.0
 30
0.0
  3
*X0
  1

  0
LINE
  5
2E
  8
0
 62
     0
 10
231.5840732662509
 20
37.116503584637208
 30
0.0
 11
231.4695995653864
 21
37.230977285501609
 31
0.0
  0
LINE
  5
2F
  8
0
 62
     0
 10
234.41250039099691
 20
37.116503584637208
 30
0.0
 11
231.4695995653864
 21
40.059404410247801
 31
0.0
  0
LINE
  5
30
  8
0
 62
     0
 10
236.87005683350611
 20
37.487374266874269
 30
0.0
 11
233.24092751574389
 21
41.116503584636511
 31
0.0
  0
LINE
  5
31
  8
0
 62
     0
 10
236.87005683350611
 20
40.315801391620468
 30
0.0
 11
236.06935464048999
 21
41.116503584636511
 31
0.0
  0
LINE
  5
32
  8
0
 62
     0
 10
211.09359956538611
 20
40.63641453702477
 30
0.0
 11
210.61351051777439
 21
41.116503584636511
 31
0.0
  0
LINE
  5
33
  8
0
 62
     0
 10
211.09359956538611
 20
37.807987412278578
 30
0.0
 11
207.7850833930282
 21
41.116503584636511
 31
0.0
  0
LINE
  5
34
  8
0
 62
     0
 10
208.95665626828131
 20
37.116503584637201
 30
0.0
 11
205.69314229726641
 21
40.380017555652159
 31
0.0
  0
LINE
  5
35
  8
0
 62
     0
 10
206.12822914353509
 20
37.116503584637201
 30
0.0
 11
205.69314229726641
 21
37.551590430905961
 31
0.0
  0
ENDBLK
  5
36
  8
0
  0
BLOCK
  8
0
  2
*X1
 70
     1
 10
0.0
 20
0.0
 30
0.0
  3
*X1
  1

  0
LINE
  5
38
  8
0
 62
     0
 10
232.81199532760959
 20
48.616503584636277
 30
0.0
 11
232.31199532760951
 21
49.116503584636291
 31
0.0
  0
LINE
  5
39
  8
0
 62
     0
 10
234.2262088899827
 20
48.616503584636277
 30
0.0
 11
233.7262088899827
 21
49.116503584636291
 31
0.0
  0
LINE
  5
3A
  8
0
 62
     0
 10
210.18457832964009
 20
48.616503584636277
 30
0.0
 11
209.68457832964009
 21
49.116503584636291
 31
0.0
  0
LINE
  5
3B
  8
0
 62
     0
 10
208.7703647672669
 20
48.616503584636277
 30
0.0
 11
208.2703647672669
 21
49.116503584636291
 31
0.0
  0
ENDBLK
  5
3C
  8
0
  0
BLOCK
  8
0
  2
*X2
 70
     1
 10
0.0
 20
0.0
 30
0.0
  3
*X2
  1

  0
LINE
  5
3E
  8
0
 62
     0
 10
228.78333917028661
 20
40.624344461787913
 30
0.0
 11
228.11309121240319
 21
41.294592419671297
 31
0.0
  0
LINE
  5
3F
  8
0
 62
     0
 10
229.23645709278699
 20
41.231886711067339
 30
0.0
 11
228.21734290820871
 21
42.251000895645639
 31
0.0
  0
LINE
  5
40
  8
0
 62
     0
 10
214.42650960087769
 20
41.192591798059198
 30
0.0
 11
213.40130281478659
 21
42.217798584150252
 31
0.0
  0
LINE
  5
41
  8
0
 62
     0
 10
213.93768376680799
 20
40.62075746034909
 30
0.0
 11
213.32680063989309
 21
41.231640587264003
 31
0.0
  0
ENDBLK
  5
42
  8
0
  0
BLOCK
  8
0
  2
*X3
 70
     1
 10
0.0
 20
0.0
 30
0.0
  3
*X3
  1

  0
LINE
  5
4F
  8
0
 62
     0
 10
241.02158230973961
 20
88.286517573445252
 30
0.0
 11
245.0215823097393
 21
92.28651757344501
 31
0.0
  0
LINE
  5
50
  8
0
 62
     0
 10
258.09827107925821
 20
105.36320634296381
 30
0.0
 11
261.0215823097393
 21
108.286517573445
 31
0.0
  0
LINE
  5
51
  8
0
 62
     0
 10
240.0982710792583
 20
91.605847030083297
 30
0.0
 11
242.09827107925821
 21
93.605847030083211
 31
0.0
  0
LINE
  5
52
  8
0
 62
     0
 10
240.0982710792583
 20
95.848487717202573
 30
0.0
 11
242.09827107925821
 21
97.848487717202516
 31
0.0
  0
LINE
  5
53
  8
0
 62
     0
 10
240.0982710792583
 20
100.09112840432179
 30
0.0
 11
242.09827107925821
 21
102.09112840432179
 31
0.0
  0
LINE
  5
54
  8
0
 62
     0
 10
239.55101956126239
 20
103.78651757344529
 30
0.0
 11
242.09827107925821
 21
106.3337690914411
 31
0.0
  0
LINE
  5
55
  8
0
 62
     0
 10
236.0982710792583
 20
104.5764097785604
 30
0.0
 11
239.8083788741429
 21
108.286517573445
 31
0.0
  0
LINE
  5
56
  8
0
 62
     0
 10
258.09827107925821
 20
101.1205656558445
 30
0.0
 11
260.09827107925838
 21
103.1205656558447
 31
0.0
  0
LINE
  5
57
  8
0
 62
     0
 10
260.76422299685879
 20
103.78651757344529
 30
0.0
 11
263.18124703805847
 21
106.20354161464491
 31
0.0
  0
LINE
  5
58
  8
0
 62
     0
 10
258.09827107925821
 20
96.877924968725281
 30
0.0
 11
260.09827107925838
 21
98.877924968725466
 31
0.0
  0
LINE
  5
59
  8
0
 62
     0
 10
254.9982710792583
 20
89.535284281606167
 30
0.0
 11
257.7495043710972
 21
92.286517573445025
 31
0.0
  0
LINE
  5
5A
  8
0
 62
     0
 10
258.09827107925821
 20
92.63528428160599
 30
0.0
 11
260.09827107925838
 21
94.635284281606175
 31
0.0
  0
LINE
  5
5B
  8
0
 62
     0
 10
255.49214505821669
 20
85.786517573445252
 30
0.0
 11
259.84827107925821
 21
90.142643594486785
 31
0.0
  0
ENDBLK
  5
5C
  8
0
  0
ENDSEC
  0
SECTION
  2
ENTITIES
  0
LINE
  5
5D
  8
0
 10
183.48918169747469
 20
73.889025997996228
 30
0.0
 11
199.07763896559439
 21
73.889025997995759
 31
0.0
  0
LINE
  5
5E
  8
0
 10
183.48918169747469
 20
46.889025997996221
 30
0.0
 11
199.07763896559439
 21
46.889025997995752
 31
0.0
  0
LINE
  5
5F
  8
0
 10
199.07763896559439
 20
73.889025997995759
 30
0.0
 11
206.87186759965451
 21
60.389025997995518
 31
0.0
  0
LINE
  5
60
  8
0
 10
206.87186759965459
 20
60.389025997995518
 30
0.0
 11
199.07763896559439
 21
46.889025997995752
 31
0.0
  0
LINE
  5
61
  8
0
 10
183.48918169747469
 20
73.889025997996228
 30
0.0
 11
175.6949530634148
 21
60.38902599799647
 31
0.0
  0
LINE
  5
62
  8
0
 10
175.6949530634148
 20
60.38902599799647
 30
0.0
 11
183.48918169747469
 21
46.889025997996221
 31
0.0
  0
LINE
  5
63
  8
1
 10
210.7834103315343
 20
215.9119268147613
 30
0.0
 11
171.7834103315349
 21
215.9119268147613
 31
0.0
  0
LINE
  5
64
  8
1
 10
191.28341033153461
 20
235.41192681476119
 30
0.0
 11
191.28341033153461
 21
196.41192681476119
 31
0.0
  0
LINE
  5
65
  8
1
 10
210.7834103315347
 20
60.389025997996001
 30
0.0
 11
171.7834103315347
 21
60.389025997996001
 31
0.0
  0
LINE
  5
66
  8
1
 10
191.28341033153461
 20
79.889025997996001
 30
0.0
 11
191.28341033153461
 21
40.889025997996001
 31
0.0
  0
LINE
  5
67
  8
0
 10
181.2834103315347
 20
55.806450303040187
 30
0.0
 11
181.2834103315347
 21
64.971601692951808
 31
0.0
  0
LINE
  5
68
  8
0
 10
201.2834103315347
 20
55.806450303040187
 30
0.0
 11
201.2834103315347
 21
64.971601692951808
 31
0.0
  0
ARC
  5
69
  8
0
 10
191.28341033153461
 20
60.389025997996001
 30
0.0
 40
10.188000000000001
 50
78.97592404213691
 51
101.0240759578632
  0
ARC
  5
6A
  8
3
 10
191.2834103315347
 20
60.389025997996001
 30
0.0
 40
11.0
 50
65.380022671342914
 51
114.619977328657
  0
LINE
  5
6B
  8
0
 10
195.8659860264905
 20
50.389025997996001
 30
0.0
 11
186.70083463657889
 21
50.389025997996001
 31
0.0
  0
LINE
  5
6C
  8
0
 10
195.8659860264905
 20
70.389025997996001
 30
0.0
 11
186.70083463657889
 21
70.389025997996001
 31
0.0
  0
ARC
  5
6D
  8
0
 10
191.2834103315347
 20
60.389025997996001
 30
0.0
 40
11.0
 50
294.61997732865711
 51
335.38002267134311
  0
ARC
  5
6E
  8
3
 10
191.28341033153461
 20
60.389025997996001
 30
0.0
 40
10.188000000000001
 50
281.02407595786309
 51
348.97592404213771
  0
ARC
  5
6F
  8
3
 10
191.2834103315345
 20
60.389025997996157
 30
0.0
 40
11.0
 50
155.38002267134291
 51
204.61997732865709
  0
ARC
  5
70
  8
0
 10
191.2834103315345
 20
60.389025997996121
 30
0.0
 40
10.188000000000001
 50
168.97592404213691
 51
191.0240759578632
  0
ARC
  5
71
  8
3
 10
191.2834103315345
 20
60.389025997996121
 30
0.0
 40
10.188000000000001
 50
11.02407595786309
 51
78.975924042137692
  0
ARC
  5
72
  8
0
 10
191.2834103315345
 20
60.389025997996157
 30
0.0
 40
11.0
 50
24.619977328657068
 51
65.380022671343056
  0
ARC
  5
73
  8
3
 10
191.28341033153441
 20
60.389025997996029
 30
0.0
 40
11.0
 50
245.38002267134291
 51
294.61997732865711
  0
ARC
  5
74
  8
0
 10
191.28341033153441
 20
60.389025997996029
 30
0.0
 40
10.188000000000001
 50
258.97592404213691
 51
281.02407595786332
  0
ARC
  5
75
  8
3
 10
191.28341033153441
 20
60.389025997996029
 30
0.0
 40
10.188000000000001
 50
101.024075957863
 51
168.97592404213759
  0
ARC
  5
76
  8
0
 10
191.28341033153441
 20
60.389025997996029
 30
0.0
 40
11.0
 50
114.619977328657
 51
155.380022671343
  0
ARC
  5
77
  8
3
 10
191.2834103315345
 20
60.38902599799588
 30
0.0
 40
11.0
 50
335.38002267134289
 51
24.619977328657068
  0
ARC
  5
78
  8
0
 10
191.2834103315345
 20
60.389025997995908
 30
0.0
 40
10.188000000000001
 50
348.97592404213691
 51
11.024075957863239
  0
ARC
  5
79
  8
3
 10
191.2834103315345
 20
60.389025997995908
 30
0.0
 40
10.188000000000001
 50
191.02407595786309
 51
258.97592404213782
  0
ARC
  5
7A
  8
0
 10
191.2834103315345
 20
60.38902599799588
 30
0.0
 40
11.0
 50
204.61997732865709
 51
245.38002267134311
  0
CIRCLE
  5
7B
  8
0
 10
191.28341033153461
 20
60.389025997996001
 30
0.0
 40
5.0
  0
CIRCLE
  5
7C
  8
3
 10
191.28341033153461
 20
60.389025997996001
 30
0.0
 40
3.0
  0
CIRCLE
  5
7D
  8
0
 10
191.28341033153461
 20
60.389025997996001
 30
0.0
 40
2.458499999999999
  0
LINE
  5
7E
  8
0
 10
187.28341033153461
 20
57.389025997996079
 30
0.0
 11
187.28341033153461
 21
63.389025997995901
 31
0.0
  0
LINE
  5
7F
  8
0
 10
188.28341033153461
 20
64.389025997996001
 30
0.0
 11
194.28341033153461
 21
64.389025997996001
 31
0.0
  0
LINE
  5
80
  8
0
 10
195.28341033153461
 20
63.389025997995901
 30
0.0
 11
195.28341033153461
 21
57.389025997996079
 31
0.0
  0
LINE
  5
81
  8
0
 10
194.28341033153461
 20
56.389025997996001
 30
0.0
 11
188.28341033153461
 21
56.389025997996001
 31
0.0
  0
LINE
  5
82
  8
0
 10
195.28341033153461
 20
63.389025997996001
 30
0.0
 11
200.56039798917439
 21
63.389025997996001
 31
0.0
  0
CIRCLE
  5
83
  8
0
 10
191.28341033153461
 20
60.389025997996001
 30
0.0
 40
9.75
  0
LINE
  5
84
  8
0
 10
188.28341033153461
 20
56.389025997996526
 30
0.0
 11
188.28341033153461
 21
51.112038340356101
 31
0.0
  0
LINE
  5
85
  8
0
 10
312.80270652858911
 20
128.58148160222191
 30
0.0
 11
312.80270652858911
 21
132.08148160222191
 31
0.0
  0
LINE
  5
86
  8
0
 10
304.90270652858902
 20
128.58148160222191
 30
0.0
 11
304.90270652858902
 21
132.08148160222191
 31
0.0
  0
LINE
  5
87
  8
0
 10
304.90270652858902
 20
128.58148160222191
 30
0.0
 11
312.80270652858911
 21
128.58148160222191
 31
0.0
  0
LINE
  5
88
  8
0
 10
303.95270652858898
 20
132.08148160222191
 30
0.0
 11
304.90270652858902
 21
132.08148160222191
 31
0.0
  0
LINE
  5
89
  8
0
 10
316.75270652858921
 20
139.58148160222191
 30
0.0
 11
316.75270652858921
 21
141.58148160222191
 31
0.0
  0
LINE
  5
8A
  8
0
 10
315.65270652858902
 20
141.58148160222191
 30
0.0
 11
315.65270652858902
 21
143.58148160222191
 31
0.0
  0
LINE
  5
8B
  8
0
 10
316.75270652858921
 20
139.58148160222191
 30
0.0
 11
316.75270652858921
 21
141.58148160222191
 31
0.0
  0
LINE
  5
8C
  8
0
 10
300.95270652858881
 20
139.58148160222191
 30
0.0
 11
300.95270652858898
 21
141.58148160222191
 31
0.0
  0
LINE
  5
8D
  8
0
 10
302.05270652858911
 20
141.58148160222191
 30
0.0
 11
302.05270652858911
 21
143.58148160222191
 31
0.0
  0
LINE
  5
8E
  8
0
 10
300.95270652858898
 20
139.58148160222191
 30
0.0
 11
300.95270652858898
 21
141.58148160222191
 31
0.0
  0
LINE
  5
8F
  8
0
 10
300.95270652858898
 20
139.58148160222191
 30
0.0
 11
316.75270652858921
 21
139.58148160222191
 31
0.0
  0
LINE
  5
90
  8
0
 10
316.75270652858921
 20
141.58148160222191
 30
0.0
 11
300.95270652858898
 21
141.58148160222191
 31
0.0
  0
LINE
  5
91
  8
0
 10
300.95270652858898
 20
143.58148160222191
 30
0.0
 11
316.75270652858921
 21
143.58148160222191
 31
0.0
  0
LINE
  5
92
  8
1
 10
308.85270652858912
 20
159.581481602222
 30
0.0
 11
308.85270652858912
 21
118.0814816022216
 31
0.0
  0
LINE
  5
93
  8
0
 10
311.81918592342731
 20
128.58148160222191
 30
0.0
 11
311.81918592342731
 21
132.08148160222191
 31
0.0
  0
LINE
  5
94
  8
0
 10
312.80270652858911
 20
132.08148160222191
 30
0.0
 11
313.75270652858921
 21
132.08148160222191
 31
0.0
  0
LINE
  5
95
  8
0
 10
305.88622713375088
 20
128.58148160222191
 30
0.0
 11
305.88622713375088
 21
132.08148160222191
 31
0.0
  0
LINE
  5
96
  8
0
 10
305.88622713375088
 20
132.08148160222191
 30
0.0
 11
311.81918592342731
 21
132.08148160222191
 31
0.0
  0
LINE
  5
97
  8
3
 10
311.81918592342731
 20
132.08148160222191
 30
0.0
 11
305.88622713375088
 21
128.58148160222191
 31
0.0
  0
LINE
  5
98
  8
3
 10
305.88622713375088
 20
132.08148160222191
 30
0.0
 11
311.81918592342748
 21
128.58148160222191
 31
0.0
  0
LINE
  5
99
  8
0
 10
316.35270652858912
 20
138.5814816022218
 30
0.0
 11
316.35270652858912
 21
139.18148160222179
 31
0.0
  0
LINE
  5
9A
  8
0
 10
301.35270652858912
 20
138.5814816022218
 30
0.0
 11
301.35270652858912
 21
139.18148160222179
 31
0.0
  0
LINE
  5
9B
  8
0
 10
313.75270652858921
 20
139.58148160222191
 30
0.0
 11
313.75270652858921
 21
139.4110220634567
 31
0.0
  0
LINE
  5
9C
  8
0
 10
303.95270652858898
 20
139.58148160222191
 30
0.0
 11
303.95270652858898
 21
139.4110220634567
 31
0.0
  0
ARC
  5
9D
  8
0
 10
308.85270652858912
 20
68.468981602224474
 30
0.0
 40
70.512499999997488
 50
83.894234970414942
 51
96.105765029585058
  0
ARC
  5
9E
  8
0
 10
308.85270652858912
 20
69.068981602224383
 30
0.0
 40
70.512499999997488
 50
83.894234970414942
 51
96.105765029585058
  0
LINE
  5
9F
  8
0
 10
313.75270652858921
 20
138.81102206345679
 30
0.0
 11
313.75270652858921
 21
132.08148160222191
 31
0.0
  0
LINE
  5
A0
  8
0
 10
303.95270652858898
 20
138.81102206345679
 30
0.0
 11
303.95270652858898
 21
132.08148160222191
 31
0.0
  0
LINE
  5
A1
  8
0
 10
298.85270652858912
 20
137.5814816022222
 30
0.0
 11
298.85270652858912
 21
150.0814816022222
 31
0.0
  0
LINE
  5
A2
  8
0
 10
318.85270652858918
 20
137.5814816022222
 30
0.0
 11
318.85270652858912
 21
150.0814816022222
 31
0.0
  0
LINE
  5
A3
  8
0
 10
318.85270652858912
 20
137.5814816022222
 30
0.0
 11
318.60270652858912
 21
137.5814816022222
 31
0.0
  0
LINE
  5
A4
  8
0
 10
313.69804629414477
 20
132.0814816022222
 30
0.0
 11
317.60270652858912
 21
132.0814816022222
 31
0.0
  0
LINE
  5
A5
  8
0
 10
303.85270652858912
 20
134.5814816022222
 30
0.0
 11
303.85270652858912
 21
132.0814816022222
 31
0.0
  0
LINE
  5
A6
  8
0
 10
324.44116379670902
 20
138.08148160222311
 30
0.0
 11
318.85270652858918
 21
138.08148160222311
 31
0.0
  0
LINE
  5
A7
  8
0
 10
293.26424926046923
 20
142.0814816022224
 30
0.0
 11
298.85270652858912
 21
142.0814816022224
 31
0.0
  0
LINE
  5
A8
  8
0
 10
324.44116379670902
 20
142.0814816022224
 30
0.0
 11
324.44116379670902
 21
138.08148160222311
 31
0.0
  0
LINE
  5
A9
  8
0
 10
293.26424926046923
 20
142.0814816022224
 30
0.0
 11
293.26424926046923
 21
138.08148160222311
 31
0.0
  0
LINE
  5
AA
  8
0
 10
299.10270652858912
 20
134.5814816022222
 30
0.0
 11
303.95270652858898
 21
134.5814816022222
 31
0.0
  0
LINE
  5
AB
  8
0
 10
300.10270652858912
 20
132.0814816022222
 30
0.0
 11
303.85270652858912
 21
132.0814816022222
 31
0.0
  0
LINE
  5
AC
  8
0
 10
295.35270652858912
 20
149.5814816022222
 30
0.0
 11
295.35270652858912
 21
150.0814816022222
 31
0.0
  0
LINE
  5
AD
  8
0
 10
322.35270652858912
 20
149.5814816022222
 30
0.0
 11
322.35270652858912
 21
150.0814816022222
 31
0.0
  0
LINE
  5
AE
  8
0
 10
295.35270652858912
 20
149.5814816022222
 30
0.0
 11
298.85270652858912
 21
149.5814816022222
 31
0.0
  0
LINE
  5
AF
  8
0
 10
318.60270652858912
 20
133.0814816022222
 30
0.0
 11
318.60270652858912
 21
137.5814816022222
 31
0.0
  0
ARC
  5
B0
  8
0
 10
317.60270652858912
 20
133.0814816022222
 30
0.0
 40
1.0
 50
270.00000000000011
 51
0.0000000000001781
  0
LINE
  5
B1
  8
0
 10
299.10270652858912
 20
134.5814816022222
 30
0.0
 11
299.10270652858912
 21
137.5814816022222
 31
0.0
  0
LINE
  5
B2
  8
0
 10
299.57571887094929
 20
133.0814816022222
 30
0.0
 11
299.57571887094929
 21
134.5814816022222
 31
0.0
  0
POLYLINE
  5
B3
  8
0
 66
     1
 10
0.0
 20
0.0
 30
0.0
  0
VERTEX
  5
B4
  8
0
 10
300.10270652858912
 20
132.0814816022222
 30
0.0
 42
-0.1680937180862847
  0
VERTEX
  5
B5
  8
0
 10
299.92211799670878
 20
132.14395851401721
 30
0.0
 42
-0.1052978660959511
  0
VERTEX
  5
B6
  8
0
 10
299.73006998227038
 20
132.37437482103559
 30
0.0
 42
-0.0676252060446964
 70
     2
 50
117.7886770925242
  0
VERTEX
  5
B7
  8
0
 10
299.6056802312159
 20
132.71518532166311
 30
0.0
 42
-0.0667491529464663
  0
VERTEX
  5
B8
  8
0
 10
299.57571887094929
 20
133.0814816022222
 30
0.0
 42
-0.0537803369482067
  0
SEQEND
  5
B9
  8
0
  0
LINE
  5
BA
  8
0
 10
297.85270652858912
 20
149.5814816022222
 30
0.0
 11
297.85270652858912
 21
150.0814816022222
 31
0.0
  0
LINE
  5
BB
  8
0
 10
319.85270652858912
 20
149.5814816022222
 30
0.0
 11
319.85270652858912
 21
150.0814816022222
 31
0.0
  0
LINE
  5
BC
  8
0
 10
318.85270652858918
 20
149.5814816022222
 30
0.0
 11
322.35270652858912
 21
149.5814816022222
 31
0.0
  0
LINE
  5
BD
  8
0
 10
318.85270652858918
 20
142.0814816022224
 30
0.0
 11
324.44116379670902
 21
142.0814816022224
 31
0.0
  0
LINE
  5
BE
  8
0
 10
298.85270652858912
 20
138.08148160222311
 30
0.0
 11
293.26424926046923
 21
138.08148160222311
 31
0.0
  0
LINE
  5
BF
  8
3
 10
297.85270652858901
 20
138.08148160222311
 30
0.0
 11
297.85270652858901
 21
142.0814816022224
 31
0.0
  0
LINE
  5
C0
  8
0
 10
298.66470652858902
 20
138.08148160222311
 30
0.0
 11
298.66470652858902
 21
142.0814816022224
 31
0.0
  0
LINE
  5
C1
  8
3
 10
319.85270652858918
 20
138.08148160222311
 30
0.0
 11
319.85270652858918
 21
142.0814816022224
 31
0.0
  0
LINE
  5
C2
  8
0
 10
319.04070652858923
 20
138.08148160222311
 30
0.0
 11
319.04070652858923
 21
142.0814816022224
 31
0.0
  0
LINE
  5
C3
  8
0
 10
300.85270652858912
 20
138.581481602222
 30
0.0
 11
303.95270652858898
 21
138.581481602222
 31
0.0
  0
LINE
  5
C4
  8
0
 10
299.10270652858912
 20
137.5814816022222
 30
0.0
 11
298.85270652858912
 21
137.5814816022222
 31
0.0
  0
LINE
  5
C5
  8
0
 10
313.75270652858921
 20
138.581481602222
 30
0.0
 11
316.85270652858901
 21
138.581481602222
 31
0.0
  0
LINE
  5
C6
  8
0
 10
300.85270652858912
 20
138.581481602222
 30
0.0
 11
300.85270652858912
 21
154.581481602222
 31
0.0
  0
LINE
  5
C7
  8
0
 10
300.95270652858898
 20
143.58148160222191
 30
0.0
 11
300.95270652858898
 21
146.58148160222191
 31
0.0
  0
LINE
  5
C8
  8
0
 10
316.75270652858921
 20
143.58148160222191
 30
0.0
 11
316.7527065285891
 21
146.58148160222191
 31
0.0
  0
LINE
  5
C9
  8
0
 10
316.85270652858901
 20
138.581481602222
 30
0.0
 11
316.85270652858901
 21
154.581481602222
 31
0.0
  0
ARC
  5
CA
  8
0
 10
308.85270652858981
 20
136.22929722674829
 30
0.0
 40
9.6478156245263698
 50
252.5896629562416
 51
287.410337043749
  0
LINE
  5
CB
  8
0
 10
303.0792038366929
 20
127.02348314044831
 30
0.0
 11
302.10270652858912
 21
127.5814816022219
 31
0.0
  0
ARC
  5
CC
  8
0
 10
304.52257950966703
 20
129.15918608518771
 30
0.0
 40
2.5777044829658
 50
235.94792701550699
 51
304.05207298449318
  0
ARC
  5
CD
  8
0
 10
313.18283354751122
 20
129.15918608518771
 30
0.0
 40
2.5777044829658
 50
235.94792701550671
 51
304.05207298449301
  0
LINE
  5
CE
  8
0
 10
314.62620922048518
 20
127.02348314044831
 30
0.0
 11
315.60270652858912
 21
127.5814816022219
 31
0.0
  0
ARC
  5
CF
  8
0
 10
308.85270652858839
 20
127.0346020036982
 30
0.0
 40
3.7799153207197551
 50
220.2078187220751
 51
319.79218127795662
  0
LINE
  5
D0
  8
0
 10
305.96595518264098
 20
127.02348314044831
 30
0.0
 11
305.96595518264098
 21
124.59443264513379
 31
0.0
  0
ARC
  5
D1
  8
0
 10
304.52257950966703
 20
124.70207024896629
 30
0.0
 40
1.4473835659880101
 50
235.7351462967014
 51
355.7351462967182
  0
LINE
  5
D2
  8
0
 10
303.95270652858892
 20
123.0814816022219
 30
0.0
 11
303.0792038366929
 21
124.59443264513379
 31
0.0
  0
LINE
  5
D3
  8
0
 10
303.0792038366933
 20
127.02348314044831
 30
0.0
 11
303.0792038366929
 21
124.59443264513379
 31
0.0
  0
ARC
  5
D4
  8
0
 10
313.18283354751122
 20
124.70207024896629
 30
0.0
 40
1.4473835659880101
 50
355.73514629661901
 51
355.73514629671701
  0
ARC
  5
D5
  8
0
 10
313.18283354751122
 20
124.70207024896629
 30
0.0
 40
1.4473835659880101
 50
184.2648537032818
 51
304.26485370329863
  0
LINE
  5
D6
  8
0
 10
311.73945787453709
 20
127.02348314044831
 30
0.0
 11
311.73945787453709
 21
124.59443264513379
 31
0.0
  0
LINE
  5
D7
  8
0
 10
313.75270652858927
 20
123.0814816022219
 30
0.0
 11
314.62620922048518
 21
124.59443264513379
 31
0.0
  0
LINE
  5
D8
  8
0
 10
313.75270652858899
 20
123.0814816022212
 30
0.0
 11
303.95270652858949
 21
123.0814816022219
 31
0.0
  0
LINE
  5
D9
  8
0
 10
314.62620922048518
 20
127.02348314044831
 30
0.0
 11
314.62620922048518
 21
124.59443264513379
 31
0.0
  0
LINE
  5
DA
  8
0
 10
315.60270652858912
 20
127.5814816022219
 30
0.0
 11
302.10270652858912
 21
127.5814816022219
 31
0.0
  0
LINE
  5
DB
  8
0
 10
315.60270652858912
 20
128.08148160222191
 30
0.0
 11
315.60270652858912
 21
127.5814816022219
 31
0.0
  0
LINE
  5
DC
  8
0
 10
302.10270652858912
 20
128.08148160222191
 30
0.0
 11
315.60270652858912
 21
128.08148160222191
 31
0.0
  0
LINE
  5
DD
  8
0
 10
302.10270652858912
 20
128.08148160222191
 30
0.0
 11
302.10270652858912
 21
127.5814816022219
 31
0.0
  0
LINE
  5
DE
  8
0
 10
311.85270652858912
 20
128.08148160222191
 30
0.0
 11
311.85270652858912
 21
128.58148160222191
 31
0.0
  0
LINE
  5
DF
  8
0
 10
305.85270652858912
 20
128.08148160222191
 30
0.0
 11
305.85270652858912
 21
128.58148160222191
 31
0.0
  0
POLYLINE
  5
E0
  8
0
 66
     1
 10
0.0
 20
0.0
 30
0.0
 70
     1
  0
VERTEX
  5
E1
  8
0
 10
300.85270652858912
 20
142.58148160222191
 30
0.0
 42
0.0609736195238384
  0
VERTEX
  5
E2
  8
0
 10
300.90174465995329
 20
142.1808508159076
 30
0.0
 42
0.0743431597850084
  0
VERTEX
  5
E3
  8
0
 10
301.02844245987711
 20
141.8743748210353
 30
0.0
 42
0.1069431103830217
 70
     2
 50
300.96375653207451
  0
VERTEX
  5
E4
  8
0
 10
301.25492119478707
 20
141.63296428286051
 30
0.0
 42
0.1765915526448065
 50
300.96375653207451
  0
VERTEX
  5
E5
  8
0
 10
301.45270652858909
 20
141.58148160222191
 30
0.0
 42
0.1522155302173621
  0
VERTEX
  5
E6
  8
0
 10
301.66395836883618
 20
141.6473186396592
 30
0.0
 42
0.1069431103829728
  0
VERTEX
  5
E7
  8
0
 10
301.87697059730101
 20
141.8743748210353
 30
0.0
 42
0.0743431597850744
 70
     2
 50
59.036243467925509
  0
VERTEX
  5
E8
  8
0
 10
302.00366839722489
 20
142.18085081590769
 30
0.0
 42
0.0609736195238556
 50
59.036243467925509
  0
VERTEX
  5
E9
  8
0
 10
302.05270652858911
 20
142.58148160222191
 30
0.0
 42
0.060973619523877
  0
VERTEX
  5
EA
  8
0
 10
302.00366839722489
 20
142.982112388536
 30
0.0
 42
0.0743431597851559
  0
VERTEX
  5
EB
  8
0
 10
301.87697059730101
 20
143.28858838340841
 30
0.0
 42
0.106943110382944
 70
     2
 50
120.9637565320744
  0
VERTEX
  5
EC
  8
0
 10
301.66395836883612
 20
143.51564456478471
 30
0.0
 42
0.1522155302172562
 50
120.9637565320744
  0
VERTEX
  5
ED
  8
0
 10
301.45270652858909
 20
143.58148160222191
 30
0.0
 42
0.1522155302174248
  0
VERTEX
  5
EE
  8
0
 10
301.241454688342
 20
143.51564456478459
 30
0.0
 42
0.1069431103830043
  0
VERTEX
  5
EF
  8
0
 10
301.02844245987711
 20
143.28858838340841
 30
0.0
 42
0.0743431597849714
 70
     2
 50
239.03624346792549
  0
VERTEX
  5
F0
  8
0
 10
300.90174465995318
 20
142.98211238853611
 30
0.0
 42
0.0609736195237546
 50
239.03624346792549
  0
SEQEND
  5
F1
  8
0
  0
POLYLINE
  5
F2
  8
0
 66
     1
 10
0.0
 20
0.0
 30
0.0
 70
     1
  0
VERTEX
  5
F3
  8
0
 10
316.85270652858912
 20
142.58148160222191
 30
0.0
 42
-0.0609736195238384
  0
VERTEX
  5
F4
  8
0
 10
316.80366839722478
 20
142.1808508159076
 30
0.0
 42
-0.0743431597850084
  0
VERTEX
  5
F5
  8
0
 10
316.67697059730102
 20
141.8743748210353
 30
0.0
 42
-0.1069431103830217
 70
     2
 50
239.0362434679256
  0
VERTEX
  5
F6
  8
0
 10
316.45049186239117
 20
141.63296428286051
 30
0.0
 42
-0.1765915526448065
  0
VERTEX
  5
F7
  8
0
 10
316.25270652858899
 20
141.58148160222191
 30
0.0
 42
-0.1522155302173621
  0
VERTEX
  5
F8
  8
0
 10
316.04145468834213
 20
141.6473186396592
 30
0.0
 42
-0.1069431103829728
  0
VERTEX
  5
F9
  8
0
 10
315.82844245987718
 20
141.8743748210353
 30
0.0
 42
-0.0743431597850744
 70
     2
 50
120.9637565320745
  0
VERTEX
  5
FA
  8
0
 10
315.70174465995331
 20
142.18085081590769
 30
0.0
 42
-0.0609736195238556
  0
VERTEX
  5
FB
  8
0
 10
315.65270652858902
 20
142.58148160222191
 30
0.0
 42
-0.060973619523877
  0
VERTEX
  5
FC
  8
0
 10
315.70174465995331
 20
142.982112388536
 30
0.0
 42
-0.0743431597851559
  0
VERTEX
  5
FD
  8
0
 10
315.82844245987718
 20
143.28858838340841
 30
0.0
 42
-0.106943110382944
 70
     2
 50
59.036243467925608
  0
VERTEX
  5
FE
  8
0
 10
316.04145468834213
 20
143.51564456478471
 30
0.0
 42
-0.1522155302172562
  0
VERTEX
  5
FF
  8
0
 10
316.25270652858899
 20
143.58148160222191
 30
0.0
 42
-0.1522155302174248
  0
VERTEX
  5
100
  8
0
 10
316.46395836883607
 20
143.51564456478459
 30
0.0
 42
-0.1069431103830043
  0
VERTEX
  5
101
  8
0
 10
316.67697059730102
 20
143.28858838340841
 30
0.0
 42
-0.0743431597849714
 70
     2
 50
300.96375653207451
  0
VERTEX
  5
102
  8
0
 10
316.80366839722501
 20
142.98211238853611
 30
0.0
 42
-0.0609736195237546
  0
SEQEND
  5
103
  8
0
  0
INSERT
  5
104
  8
3
  2
*X1
 10
87.571106963202823
 20
100.96497801758591
 30
0.0
  0
INSERT
  5
105
  8
3
  2
*X0
 10
87.571106963202823
 20
100.96497801758591
 30
0.0
  0
INSERT
  5
106
  8
3
  2
*X2
 10
87.571106963202823
 20
100.96497801758591
 30
0.0
  0
LINE
  5
107
  8
0
 10
305.35270652858912
 20
153.58148160222191
 30
0.0
 11
312.35270652858912
 21
153.58148160222191
 31
0.0
  0
LINE
  5
108
  8
0
 10
300.95270652858909
 20
146.58148160222191
 30
0.0
 11
316.75270652858887
 21
146.58148160222191
 31
0.0
  0
LINE
  5
109
  8
0
 10
305.35270652858912
 20
146.58148160222191
 30
0.0
 11
305.35270652858912
 21
153.58148160222191
 31
0.0
  0
LINE
  5
10A
  8
0
 10
312.35270652858912
 20
153.58148160222191
 30
0.0
 11
312.35270652858912
 21
146.58148160222191
 31
0.0
  0
CIRCLE
  5
10B
  8
0
 10
191.28341033153461
 20
215.9119268147613
 30
0.0
 40
7.9999999999999432
  0
CIRCLE
  5
10C
  8
0
 10
191.28341033153461
 20
215.9119268147613
 30
0.0
 40
7.8999999999998627
  0
LINE
  5
10D
  8
0
 10
187.7834103315345
 20
219.41192681476119
 30
0.0
 11
187.7834103315345
 21
212.41192681476119
 31
0.0
  0
LINE
  5
10E
  8
0
 10
187.7834103315345
 20
212.41192681476119
 30
0.0
 11
194.78341033153461
 21
212.41192681476119
 31
0.0
  0
LINE
  5
10F
  8
0
 10
194.78341033153461
 20
212.41192681476119
 30
0.0
 11
194.78341033153461
 21
219.41192681476119
 31
0.0
  0
LINE
  5
110
  8
0
 10
194.78341033153461
 20
219.41192681476119
 30
0.0
 11
187.7834103315345
 21
219.41192681476119
 31
0.0
  0
LINE
  5
111
  8
0
 10
185.71642295172811
 20
49.746721011076403
 30
0.0
 11
185.21642295172811
 21
48.880695607291962
 31
0.0
  0
LINE
  5
112
  8
0
 10
184.8503976247386
 20
50.246721144089072
 30
0.0
 11
184.3503976247386
 21
49.380695740304617
 31
0.0
  0
ARC
  5
113
  8
0
 10
185.2834103315347
 20
49.996721152582737
 30
0.0
 40
0.4999999999999984
 50
329.99998127603038
 51
150.00000112387389
  0
ARC
  5
114
  8
0
 10
184.7834103315347
 20
49.130695748798303
 30
0.0
 40
0.5000000000000001
 50
150.00000112387389
 51
329.99998127603038
  0
LINE
  5
115
  8
0
 10
179.28341016813721
 20
59.889025997996029
 30
0.0
 11
178.28341016813721
 21
59.889025997996029
 31
0.0
  0
LINE
  5
116
  8
0
 10
179.28341032172699
 20
60.889025997996001
 30
0.0
 11
178.28341032172699
 21
60.889025997996001
 31
0.0
  0
ARC
  5
117
  8
0
 10
179.2834103315347
 20
60.389025997996001
 30
0.0
 40
0.4999999999999984
 50
269.99998127603038
 51
90.000001123873886
  0
ARC
  5
118
  8
0
 10
178.2834103315347
 20
60.389025997996001
 30
0.0
 40
0.5000000000000001
 50
90.000001123873886
 51
269.99998127603038
  0
LINE
  5
119
  8
0
 10
184.85039754794369
 20
70.531330984915641
 30
0.0
 11
184.35039754794369
 21
71.397356388700075
 31
0.0
  0
LINE
  5
11A
  8
0
 10
185.71642302852311
 20
71.03133085190295
 30
0.0
 11
185.21642302852311
 21
71.897356255687384
 31
0.0
  0
ARC
  5
11B
  8
0
 10
185.2834103315347
 20
70.781330843409265
 30
0.0
 40
0.4999999999999984
 50
209.99998127603041
 51
30.00000112387383
  0
ARC
  5
11C
  8
0
 10
184.7834103315347
 20
71.647356247193713
 30
0.0
 40
0.5000000000000001
 50
30.00000112387383
 51
209.99998127603041
  0
LINE
  5
11D
  8
0
 10
196.8503977113412
 20
71.031330984915598
 30
0.0
 11
197.3503977113412
 21
71.897356388700047
 31
0.0
  0
LINE
  5
11E
  8
0
 10
197.7164230383307
 20
70.531330851902936
 30
0.0
 11
198.2164230383307
 21
71.397356255687384
 31
0.0
  0
ARC
  5
11F
  8
0
 10
197.2834103315347
 20
70.781330843409265
 30
0.0
 40
0.4999999999999984
 50
149.99998127603041
 51
330.00000112387391
  0
ARC
  5
120
  8
0
 10
197.7834103315347
 20
71.647356247193684
 30
0.0
 40
0.5000000000000001
 50
330.00000112387391
 51
149.99998127603041
  0
ARC
  5
121
  8
0
 10
204.2834103315347
 20
60.389025997996001
 30
0.0
 40
0.5000000000000001
 50
270.00000112387391
 51
89.999981276030425
  0
ARC
  5
122
  8
0
 10
203.2834103315347
 20
60.389025997996001
 30
0.0
 40
0.4999999999999984
 50
89.999981276030425
 51
270.00000112387391
  0
LINE
  5
123
  8
0
 10
203.28341034134229
 20
59.889025997996001
 30
0.0
 11
204.2834103413424
 21
59.889025997996001
 31
0.0
  0
LINE
  5
124
  8
0
 10
203.2834104949321
 20
60.889025997995972
 30
0.0
 11
204.28341049493221
 21
60.889025997995972
 31
0.0
  0
LINE
  5
125
  8
0
 10
197.71642311512559
 20
50.24672101107636
 30
0.0
 11
198.21642311512559
 21
49.380695607291912
 31
0.0
  0
LINE
  5
126
  8
0
 10
196.85039763454631
 20
49.746721144089051
 30
0.0
 11
197.35039763454631
 21
48.880695740304603
 31
0.0
  0
ARC
  5
127
  8
0
 10
197.2834103315347
 20
49.996721152582722
 30
0.0
 40
0.4999999999999984
 50
29.999981276030368
 51
210.0000011238738
  0
ARC
  5
128
  8
0
 10
197.7834103315347
 20
49.130695748798281
 30
0.0
 40
0.5000000000000001
 50
210.0000011238738
 51
29.999981276030368
  0
LINE
  5
12E
  8
0
 10
80.113312920660391
 20
154.581481602222
 30
0.0
 11
58.113312920660462
 21
154.581481602222
 31
0.0
  0
LINE
  5
12F
  8
0
 10
58.113312920660462
 20
154.581481602222
 30
0.0
 11
55.113312920660462
 21
151.5814816022222
 31
0.0
  0
LINE
  5
130
  8
0
 10
55.113312920660462
 20
151.5814816022222
 30
0.0
 11
55.113312920660462
 21
150.0814816022222
 31
0.0
  0
LINE
  5
131
  8
0
 10
55.113312920660462
 20
150.0814816022222
 30
0.0
 11
83.113312920660448
 21
150.0814816022222
 31
0.0
  0
LINE
  5
132
  8
0
 10
83.113312920660448
 20
150.0814816022222
 30
0.0
 11
83.113312920660448
 21
151.5814816022222
 31
0.0
  0
LINE
  5
133
  8
0
 10
83.113312920660405
 20
151.5814816022222
 30
0.0
 11
80.11331292066042
 21
154.581481602222
 31
0.0
  0
LINE
  5
134
  8
0
 10
83.113312920660448
 20
151.5814816022222
 30
0.0
 11
55.113312920660462
 21
151.5814816022222
 31
0.0
  0
LINE
  5
135
  8
0
 10
82.613312920660434
 20
149.5814816022222
 30
0.0
 11
55.613312920660448
 21
149.5814816022222
 31
0.0
  0
LINE
  5
136
  8
0
 10
55.613312920660448
 20
149.5814816022222
 30
0.0
 11
55.613312920660448
 21
150.0814816022222
 31
0.0
  0
LINE
  5
137
  8
0
 10
82.613312920660434
 20
149.5814816022222
 30
0.0
 11
82.613312920660434
 21
150.0814816022222
 31
0.0
  0
LINE
  5
138
  8
0
 10
144.8314443409634
 20
149.5814816022222
 30
0.0
 11
144.8314443409634
 21
150.0814816022222
 31
0.0
  0
LINE
  5
139
  8
0
 10
117.8314443409633
 20
149.5814816022222
 30
0.0
 11
117.8314443409633
 21
150.0814816022222
 31
0.0
  0
LINE
  5
13A
  8
0
 10
144.8314443409634
 20
149.5814816022222
 30
0.0
 11
117.8314443409633
 21
149.5814816022222
 31
0.0
  0
LINE
  5
13B
  8
0
 10
145.33144434096329
 20
151.5814816022222
 30
0.0
 11
117.3314443409634
 21
151.5814816022222
 31
0.0
  0
LINE
  5
13C
  8
0
 10
145.33144434096329
 20
151.5814816022222
 30
0.0
 11
142.33144434096329
 21
154.581481602222
 31
0.0
  0
LINE
  5
13D
  8
0
 10
145.33144434096329
 20
150.0814816022222
 30
0.0
 11
145.33144434096329
 21
151.5814816022222
 31
0.0
  0
LINE
  5
13E
  8
0
 10
117.3314443409634
 20
150.0814816022222
 30
0.0
 11
145.33144434096329
 21
150.0814816022222
 31
0.0
  0
LINE
  5
13F
  8
0
 10
117.3314443409634
 20
151.5814816022222
 30
0.0
 11
117.3314443409634
 21
150.0814816022222
 31
0.0
  0
LINE
  5
140
  8
0
 10
120.3314443409634
 20
154.581481602222
 30
0.0
 11
117.3314443409634
 21
151.5814816022222
 31
0.0
  0
LINE
  5
141
  8
0
 10
142.33144434096329
 20
154.581481602222
 30
0.0
 11
120.3314443409634
 21
154.581481602222
 31
0.0
  0
LINE
  5
142
  8
0
 10
264.27674760418398
 20
149.5814816022222
 30
0.0
 11
264.27674760418398
 21
150.0814816022222
 31
0.0
  0
LINE
  5
143
  8
0
 10
237.27674760418401
 20
149.5814816022222
 30
0.0
 11
237.27674760418401
 21
150.0814816022222
 31
0.0
  0
LINE
  5
144
  8
0
 10
264.27674760418398
 20
149.5814816022222
 30
0.0
 11
237.27674760418401
 21
149.5814816022222
 31
0.0
  0
LINE
  5
145
  8
0
 10
264.77674760418398
 20
151.5814816022222
 30
0.0
 11
236.77674760418401
 21
151.5814816022222
 31
0.0
  0
LINE
  5
146
  8
0
 10
264.77674760418392
 20
151.5814816022222
 30
0.0
 11
261.77674760418392
 21
154.581481602222
 31
0.0
  0
LINE
  5
147
  8
0
 10
264.77674760418398
 20
150.0814816022222
 30
0.0
 11
264.77674760418398
 21
151.5814816022222
 31
0.0
  0
LINE
  5
148
  8
0
 10
236.77674760418401
 20
150.0814816022222
 30
0.0
 11
264.77674760418398
 21
150.0814816022222
 31
0.0
  0
LINE
  5
149
  8
0
 10
236.77674760418401
 20
151.5814816022222
 30
0.0
 11
236.77674760418401
 21
150.0814816022222
 31
0.0
  0
LINE
  5
14A
  8
0
 10
239.77674760418401
 20
154.581481602222
 30
0.0
 11
236.77674760418401
 21
151.5814816022222
 31
0.0
  0
LINE
  5
14B
  8
0
 10
261.77674760418392
 20
154.581481602222
 30
0.0
 11
239.77674760418401
 21
154.581481602222
 31
0.0
  0
LINE
  5
14C
  8
1
 10
69.113312920660434
 20
159.581481602222
 30
0.0
 11
69.113312920660434
 21
106.0814816022219
 31
0.0
  0
LINE
  5
14D
  8
1
 10
191.28341033153461
 20
159.581481602222
 30
0.0
 11
191.28341033153461
 21
106.0814816022219
 31
0.0
  0
LINE
  5
14E
  8
1
 10
131.3314443409634
 20
106.0814816022219
 30
0.0
 11
131.33144434096329
 21
159.58148160222191
 31
0.0
  0
LINE
  5
14F
  8
0
 10
59.113312920660483
 20
142.0814816022224
 30
0.0
 11
59.113312920660483
 21
149.5814816022222
 31
0.0
  0
LINE
  5
150
  8
0
 10
79.113312920660505
 20
142.0814816022224
 30
0.0
 11
79.113312920660505
 21
149.5814816022222
 31
0.0
  0
LINE
  5
151
  8
0
 10
79.113312920660476
 20
137.5814816022222
 30
0.0
 11
79.113312920660476
 21
138.08148160222311
 31
0.0
  0
LINE
  5
152
  8
0
 10
59.113312920660483
 20
137.5814816022222
 30
0.0
 11
59.113312920660483
 21
138.08148160222311
 31
0.0
  0
LINE
  5
153
  8
0
 10
79.113312920660476
 20
137.5814816022222
 30
0.0
 11
59.113312920660483
 21
137.5814816022222
 31
0.0
  0
LINE
  5
154
  8
0
 10
73.695888615616283
 20
149.5814816022222
 30
0.0
 11
73.695888615616283
 21
142.0814816022224
 31
0.0
  0
LINE
  5
155
  8
0
 10
64.530737225704613
 20
137.5814816022222
 30
0.0
 11
64.530737225704613
 21
138.08148160222311
 31
0.0
  0
LINE
  5
156
  8
3
 10
64.897343281301033
 20
149.5814816022222
 30
0.0
 11
70.396434115248027
 21
142.0814816022224
 31
0.0
  0
LINE
  5
157
  8
3
 10
73.329282560019834
 20
149.5814816022222
 30
0.0
 11
67.830191726072869
 21
142.0814816022224
 31
0.0
  0
LINE
  5
158
  8
0
 10
73.695888615616283
 20
138.08148160222311
 30
0.0
 11
73.695888615616283
 21
137.5814816022222
 31
0.0
  0
LINE
  5
159
  8
3
 10
73.329282560019166
 20
138.08148160222311
 30
0.0
 11
73.695888615616283
 21
137.5814816022222
 31
0.0
  0
LINE
  5
15A
  8
3
 10
64.89734328130173
 20
138.08148160222311
 30
0.0
 11
64.530737225704613
 21
137.5814816022222
 31
0.0
  0
LINE
  5
15B
  8
0
 10
64.530737225704613
 20
142.0814816022224
 30
0.0
 11
64.530737225704613
 21
149.5814816022222
 31
0.0
  0
LINE
  5
15C
  8
0
 10
126.74886864600749
 20
142.0814816022224
 30
0.0
 11
126.74886864600749
 21
149.5814816022222
 31
0.0
  0
LINE
  5
15D
  8
3
 10
127.1154747016047
 20
138.08148160222311
 30
0.0
 11
126.74886864600749
 21
137.5814816022222
 31
0.0
  0
LINE
  5
15E
  8
3
 10
135.54741398032209
 20
138.08148160222311
 30
0.0
 11
135.91402003591921
 21
137.5814816022222
 31
0.0
  0
LINE
  5
15F
  8
0
 10
135.91402003591921
 20
138.08148160222311
 30
0.0
 11
135.91402003591921
 21
137.5814816022222
 31
0.0
  0
LINE
  5
160
  8
3
 10
135.5474139803228
 20
149.5814816022222
 30
0.0
 11
130.04832314637579
 21
142.0814816022224
 31
0.0
  0
LINE
  5
161
  8
3
 10
127.115474701604
 20
149.5814816022222
 30
0.0
 11
132.61456553555089
 21
142.0814816022224
 31
0.0
  0
LINE
  5
162
  8
0
 10
126.74886864600749
 20
137.5814816022222
 30
0.0
 11
126.74886864600749
 21
138.08148160222311
 31
0.0
  0
LINE
  5
163
  8
0
 10
135.91402003591921
 20
149.5814816022222
 30
0.0
 11
135.91402003591921
 21
142.0814816022224
 31
0.0
  0
LINE
  5
164
  8
0
 10
141.3314443409634
 20
137.5814816022222
 30
0.0
 11
121.3314443409634
 21
137.5814816022222
 31
0.0
  0
LINE
  5
165
  8
0
 10
121.3314443409634
 20
137.5814816022222
 30
0.0
 11
121.3314443409634
 21
138.08148160222311
 31
0.0
  0
LINE
  5
166
  8
0
 10
141.3314443409634
 20
137.5814816022222
 30
0.0
 11
141.3314443409634
 21
138.08148160222311
 31
0.0
  0
LINE
  5
167
  8
0
 10
141.3314443409634
 20
142.0814816022224
 30
0.0
 11
141.3314443409634
 21
149.5814816022222
 31
0.0
  0
LINE
  5
168
  8
0
 10
121.3314443409634
 20
142.0814816022224
 30
0.0
 11
121.3314443409634
 21
149.5814816022222
 31
0.0
  0
LINE
  5
169
  8
0
 10
246.1941719092282
 20
142.0814816022224
 30
0.0
 11
246.1941719092282
 21
149.5814816022222
 31
0.0
  0
LINE
  5
16A
  8
3
 10
246.56077796482529
 20
138.08148160222311
 30
0.0
 11
246.1941719092282
 21
137.5814816022222
 31
0.0
  0
LINE
  5
16B
  8
3
 10
254.9927172435427
 20
138.08148160222311
 30
0.0
 11
255.3593232991399
 21
137.5814816022222
 31
0.0
  0
LINE
  5
16C
  8
0
 10
255.3593232991399
 20
138.08148160222311
 30
0.0
 11
255.3593232991399
 21
137.5814816022222
 31
0.0
  0
LINE
  5
16D
  8
3
 10
254.9927172435435
 20
149.5814816022222
 30
0.0
 11
249.49362640959649
 21
142.0814816022224
 31
0.0
  0
LINE
  5
16E
  8
3
 10
246.56077796482461
 20
149.5814816022222
 30
0.0
 11
252.05986879877159
 21
142.0814816022224
 31
0.0
  0
LINE
  5
16F
  8
0
 10
246.1941719092282
 20
137.5814816022222
 30
0.0
 11
246.1941719092282
 21
138.08148160222311
 31
0.0
  0
LINE
  5
170
  8
0
 10
255.3593232991399
 20
149.5814816022222
 30
0.0
 11
255.3593232991399
 21
142.0814816022224
 31
0.0
  0
LINE
  5
171
  8
0
 10
260.7767476041841
 20
137.5814816022222
 30
0.0
 11
240.7767476041841
 21
137.5814816022222
 31
0.0
  0
LINE
  5
172
  8
0
 10
240.7767476041841
 20
137.5814816022222
 30
0.0
 11
240.7767476041841
 21
138.08148160222311
 31
0.0
  0
LINE
  5
173
  8
0
 10
260.7767476041841
 20
137.5814816022222
 30
0.0
 11
260.7767476041841
 21
138.08148160222311
 31
0.0
  0
LINE
  5
174
  8
0
 10
260.7767476041841
 20
142.0814816022224
 30
0.0
 11
260.7767476041841
 21
149.5814816022222
 31
0.0
  0
LINE
  5
175
  8
0
 10
240.7767476041841
 20
142.0814816022224
 30
0.0
 11
240.7767476041841
 21
149.5814816022222
 31
0.0
  0
LINE
  5
176
  8
0
 10
181.2834103315347
 20
142.0814816022224
 30
0.0
 11
181.2834103315347
 21
149.5814816022222
 31
0.0
  0
LINE
  5
177
  8
0
 10
201.2834103315347
 20
142.0814816022224
 30
0.0
 11
201.2834103315347
 21
149.5814816022222
 31
0.0
  0
LINE
  5
178
  8
0
 10
201.2834103315347
 20
137.5814816022222
 30
0.0
 11
201.2834103315347
 21
138.08148160222311
 31
0.0
  0
LINE
  5
179
  8
0
 10
181.2834103315347
 20
137.5814816022222
 30
0.0
 11
181.2834103315347
 21
138.08148160222311
 31
0.0
  0
LINE
  5
17A
  8
0
 10
66.11331292066042
 20
117.0814816022222
 30
0.0
 11
72.113312920660405
 21
117.0814816022222
 31
0.0
  0
LINE
  5
17B
  8
0
 10
66.11331292066042
 20
123.0814816022222
 30
0.0
 11
72.113312920660405
 21
123.0814816022222
 31
0.0
  0
LINE
  5
17C
  8
0
 10
67.113312920660405
 20
124.0814816022222
 30
0.0
 11
66.11331292066042
 21
123.0814816022222
 31
0.0
  0
LINE
  5
17D
  8
0
 10
72.113312920660405
 20
123.0814816022222
 30
0.0
 11
71.11331292066042
 21
124.0814816022222
 31
0.0
  0
LINE
  5
17E
  8
0
 10
72.113312920660476
 20
116.0814816022222
 30
0.0
 11
72.113312920660405
 21
123.0814816022222
 31
0.0
  0
LINE
  5
17F
  8
3
 10
71.571812920660548
 20
117.0814816022222
 30
0.0
 11
71.571812920660548
 21
123.6229816022221
 31
0.0
  0
LINE
  5
180
  8
3
 10
66.654812920660348
 20
117.0814816022222
 30
0.0
 11
66.654812920660348
 21
123.6229816022221
 31
0.0
  0
LINE
  5
181
  8
0
 10
66.11331292066042
 20
116.0814816022222
 30
0.0
 11
66.11331292066042
 21
123.0814816022222
 31
0.0
  0
LINE
  5
182
  8
0
 10
71.11331292066042
 20
124.0814816022222
 30
0.0
 11
67.113312920660405
 21
124.0814816022222
 31
0.0
  0
LINE
  5
183
  8
0
 10
128.33144434096329
 20
117.0814816022222
 30
0.0
 11
134.3314443409634
 21
117.0814816022222
 31
0.0
  0
LINE
  5
184
  8
0
 10
128.33144434096329
 20
123.0814816022222
 30
0.0
 11
134.3314443409634
 21
123.0814816022222
 31
0.0
  0
LINE
  5
185
  8
0
 10
129.33144434096329
 20
124.0814816022222
 30
0.0
 11
128.33144434096329
 21
123.0814816022222
 31
0.0
  0
LINE
  5
186
  8
0
 10
134.3314443409634
 20
123.0814816022222
 30
0.0
 11
133.3314443409634
 21
124.0814816022222
 31
0.0
  0
LINE
  5
187
  8
0
 10
134.3314443409634
 20
116.0814816022222
 30
0.0
 11
134.3314443409634
 21
123.0814816022222
 31
0.0
  0
LINE
  5
188
  8
3
 10
133.7899443409635
 20
117.0814816022222
 30
0.0
 11
133.7899443409635
 21
123.6229816022221
 31
0.0
  0
LINE
  5
189
  8
3
 10
128.8729443409633
 20
117.0814816022222
 30
0.0
 11
128.8729443409633
 21
123.6229816022221
 31
0.0
  0
LINE
  5
18A
  8
0
 10
128.33144434096329
 20
116.0814816022222
 30
0.0
 11
128.33144434096329
 21
123.0814816022222
 31
0.0
  0
LINE
  5
18B
  8
0
 10
133.3314443409634
 20
124.0814816022222
 30
0.0
 11
129.33144434096329
 21
124.0814816022222
 31
0.0
  0
LINE
  5
18C
  8
0
 10
188.28341033153461
 20
117.0814816022222
 30
0.0
 11
194.28341033153461
 21
117.0814816022222
 31
0.0
  0
LINE
  5
18D
  8
0
 10
188.28341033153461
 20
123.0814816022222
 30
0.0
 11
194.28341033153461
 21
123.0814816022222
 31
0.0
  0
LINE
  5
18E
  8
0
 10
189.28341033153461
 20
124.0814816022222
 30
0.0
 11
188.28341033153461
 21
123.0814816022222
 31
0.0
  0
LINE
  5
18F
  8
0
 10
194.28341033153461
 20
123.0814816022222
 30
0.0
 11
193.28341033153461
 21
124.0814816022222
 31
0.0
  0
LINE
  5
190
  8
0
 10
194.2834103315347
 20
116.0814816022222
 30
0.0
 11
194.28341033153461
 21
123.0814816022222
 31
0.0
  0
LINE
  5
191
  8
3
 10
193.74191033153471
 20
117.0814816022222
 30
0.0
 11
193.74191033153471
 21
123.6229816022221
 31
0.0
  0
LINE
  5
192
  8
3
 10
188.8249103315346
 20
117.0814816022222
 30
0.0
 11
188.8249103315346
 21
123.6229816022221
 31
0.0
  0
LINE
  5
193
  8
0
 10
188.28341033153461
 20
116.0814816022222
 30
0.0
 11
188.28341033153461
 21
123.0814816022222
 31
0.0
  0
LINE
  5
194
  8
0
 10
193.28341033153461
 20
124.0814816022222
 30
0.0
 11
189.28341033153461
 21
124.0814816022222
 31
0.0
  0
LINE
  5
195
  8
0
 10
248.77674760418401
 20
124.0814816022222
 30
0.0
 11
252.77674760418401
 21
124.0814816022222
 31
0.0
  0
LINE
  5
196
  8
0
 10
253.77674760418401
 20
116.0814816022222
 30
0.0
 11
253.77674760418401
 21
123.0814816022222
 31
0.0
  0
LINE
  5
197
  8
3
 10
253.23524760418411
 20
117.0814816022222
 30
0.0
 11
253.23524760418411
 21
123.6229816022221
 31
0.0
  0
LINE
  5
198
  8
3
 10
248.31824760418391
 20
117.0814816022222
 30
0.0
 11
248.31824760418391
 21
123.6229816022221
 31
0.0
  0
LINE
  5
199
  8
0
 10
247.77674760418401
 20
116.0814816022222
 30
0.0
 11
247.77674760418401
 21
123.0814816022222
 31
0.0
  0
LINE
  5
19A
  8
0
 10
247.77674760418401
 20
123.0814816022222
 30
0.0
 11
248.77674760418401
 21
124.0814816022222
 31
0.0
  0
LINE
  5
19B
  8
0
 10
252.77674760418401
 20
124.0814816022222
 30
0.0
 11
253.77674760418401
 21
123.0814816022222
 31
0.0
  0
LINE
  5
19C
  8
0
 10
253.77674760418401
 20
123.0814816022222
 30
0.0
 11
247.77674760418401
 21
123.0814816022222
 31
0.0
  0
LINE
  5
19D
  8
0
 10
253.77674760418401
 20
117.0814816022222
 30
0.0
 11
247.7767476041841
 21
117.0814816022222
 31
0.0
  0
POLYLINE
  5
19E
  8
0
 66
     1
 10
0.0
 20
0.0
 30
0.0
  0
VERTEX
  5
19F
  8
0
 10
259.52674760418398
 20
132.0814816022222
 30
0.0
 42
0.1680937180862847
  0
VERTEX
  5
1A0
  8
0
 10
259.70733613606433
 20
132.14395851401721
 30
0.0
 42
0.1052978660959511
  0
VERTEX
  5
1A1
  8
0
 10
259.89938415050273
 20
132.37437482103559
 30
0.0
 42
0.0676252060446964
 70
     2
 50
62.211322907475818
  0
VERTEX
  5
1A2
  8
0
 10
260.02377390155721
 20
132.71518532166311
 30
0.0
 42
0.0667491529464663
  0
VERTEX
  5
1A3
  8
0
 10
260.05373526182382
 20
133.0814816022222
 30
0.0
 42
0.0537803369482067
  0
SEQEND
  5
1A4
  8
0
  0
LINE
  5
1A5
  8
0
 10
260.05373526182382
 20
133.0814816022222
 30
0.0
 11
260.05373526182382
 21
134.5814816022222
 31
0.0
  0
LINE
  5
1A6
  8
0
 10
260.5267476041841
 20
134.5814816022222
 30
0.0
 11
260.5267476041841
 21
137.5814816022222
 31
0.0
  0
ARC
  5
1A7
  8
0
 10
242.02674760418401
 20
133.0814816022222
 30
0.0
 40
1.0
 50
179.9999999999998
 51
270.0
  0
LINE
  5
1A8
  8
0
 10
241.02674760418401
 20
133.0814816022222
 30
0.0
 11
241.0267476041841
 21
137.5814816022222
 31
0.0
  0
LINE
  5
1A9
  8
0
 10
259.52674760418398
 20
132.0814816022222
 30
0.0
 11
254.77674760418401
 21
132.0814816022222
 31
0.0
  0
LINE
  5
1AA
  8
0
 10
260.5267476041841
 20
134.5814816022222
 30
0.0
 11
247.77674760418381
 21
134.5814816022222
 31
0.0
  0
LINE
  5
1AB
  8
0
 10
247.77674760418381
 20
132.0814816022222
 30
0.0
 11
247.77674760418381
 21
134.5814816022222
 31
0.0
  0
LINE
  5
1AC
  8
0
 10
255.77674760418401
 20
134.5814816022222
 30
0.0
 11
255.77674760418401
 21
132.0814816022222
 31
0.0
  0
LINE
  5
1AD
  8
0
 10
253.77674760418401
 20
132.0814816022222
 30
0.0
 11
242.02674760418401
 21
132.0814816022222
 31
0.0
  0
LINE
  5
1AE
  8
0
 10
245.77674760418429
 20
111.2546866829788
 30
0.0
 11
245.77674760418429
 21
115.0234831404485
 31
0.0
  0
ARC
  5
1AF
  8
0
 10
248.27674760418381
 20
121.8725935128911
 30
0.0
 40
7.2911119106689046
 50
249.94736631884709
 51
290.05263368115288
  0
ARC
  5
1B0
  8
0
 10
253.27674760418449
 20
121.8725935128911
 30
0.0
 40
7.2911119106689046
 50
249.94736631884689
 51
290.05263368115283
  0
LINE
  5
1B1
  8
0
 10
250.77674760418489
 20
112.59443264513369
 30
0.0
 11
250.77674760418489
 21
115.0234831404485
 31
0.0
  0
LINE
  5
1B2
  8
0
 10
245.8767476041842
 20
111.0814816022215
 30
0.0
 11
245.77674760418429
 21
111.2546866829788
 31
0.0
  0
LINE
  5
1B3
  8
0
 10
245.77674760418429
 20
114.5814816022222
 30
0.0
 11
244.02674760418429
 21
115.5814816022222
 31
0.0
  0
ARC
  5
1B4
  8
0
 10
248.27674760418429
 20
114.25709141878799
 30
0.0
 40
3.0024047358092472
 50
213.62642913599859
 51
326.37357086400158
  0
ARC
  5
1B5
  8
0
 10
253.27674760418429
 20
114.25709141878799
 30
0.0
 40
3.0024047358092472
 50
213.62642913599839
 51
326.37357086400141
  0
LINE
  5
1B6
  8
0
 10
255.77674760418401
 20
114.5814816022222
 30
0.0
 11
257.52674760418398
 21
115.5814816022222
 31
0.0
  0
LINE
  5
1B7
  8
0
 10
255.77674760418401
 20
111.2546866829788
 30
0.0
 11
255.77674760418421
 21
115.0234831404485
 31
0.0
  0
LINE
  5
1B8
  8
0
 10
255.6767476041841
 20
111.0814816022215
 30
0.0
 11
255.77674760418401
 21
111.2546866829788
 31
0.0
  0
LINE
  5
1B9
  8
0
 10
244.0267476041841
 20
116.0814816022222
 30
0.0
 11
257.52674760418398
 21
116.0814816022222
 31
0.0
  0
LINE
  5
1BA
  8
0
 10
257.52674760418398
 20
116.0814816022222
 30
0.0
 11
257.52674760418398
 21
115.5814816022222
 31
0.0
  0
LINE
  5
1BB
  8
0
 10
257.52674760418398
 20
115.5814816022222
 30
0.0
 11
244.0267476041841
 21
115.5814816022222
 31
0.0
  0
LINE
  5
1BC
  8
0
 10
255.6767476041841
 20
111.0814816022215
 30
0.0
 11
245.8767476041846
 21
111.0814816022222
 31
0.0
  0
LINE
  5
1BD
  8
0
 10
244.0267476041841
 20
115.5814816022222
 30
0.0
 11
244.0267476041841
 21
116.0814816022222
 31
0.0
  0
LINE
  5
1BE
  8
1
 10
250.77674760418401
 20
106.0814816022219
 30
0.0
 11
250.77674760418401
 21
159.58148160222191
 31
0.0
  0
LINE
  5
1BF
  8
0
 10
246.77674760418401
 20
132.0814816022222
 30
0.0
 11
246.77674760418401
 21
128.5814816022222
 31
0.0
  0
LINE
  5
1C0
  8
0
 10
246.77674760418401
 20
128.5814816022222
 30
0.0
 11
254.77674760418401
 21
128.5814816022222
 31
0.0
  0
LINE
  5
1C1
  8
0
 10
247.77674760418401
 20
132.0814816022222
 30
0.0
 11
247.77674760418401
 21
128.5814816022222
 31
0.0
  0
LINE
  5
1C2
  8
0
 10
253.77674760418401
 20
132.0814816022222
 30
0.0
 11
253.77674760418401
 21
128.5814816022222
 31
0.0
  0
LINE
  5
1C3
  8
0
 10
254.77674760418401
 20
132.0814816022222
 30
0.0
 11
254.77674760418401
 21
128.5814816022222
 31
0.0
  0
LINE
  5
1C4
  8
3
 10
247.77674760418401
 20
128.5814816022222
 30
0.0
 11
253.77674760418401
 21
132.0814816022222
 31
0.0
  0
LINE
  5
1C5
  8
3
 10
247.77674760418401
 20
132.0814816022222
 30
0.0
 11
253.77674760418401
 21
128.5814816022222
 31
0.0
  0
LINE
  5
1C6
  8
0
 10
250.7767476041841
 20
142.0814816022224
 30
0.0
 11
250.7767476041841
 21
138.08148160222311
 31
0.0
  0
LINE
  5
1C7
  8
0
 10
237.27674760418429
 20
142.0814816022224
 30
0.0
 11
264.27674760418438
 21
142.08148160222251
 31
0.0
  0
LINE
  5
1C8
  8
0
 10
264.27674760418432
 20
138.08148160222311
 30
0.0
 11
237.27674760418421
 21
138.08148160222311
 31
0.0
  0
LINE
  5
1C9
  8
0
 10
237.27674760418429
 20
142.0814816022224
 30
0.0
 11
237.27674760418421
 21
138.08148160222311
 31
0.0
  0
LINE
  5
1CA
  8
0
 10
264.27674760418438
 20
142.08148160222251
 30
0.0
 11
264.27674760418432
 21
138.08148160222311
 31
0.0
  0
LINE
  5
1CB
  8
0
 10
66.113312920660434
 20
132.0814816022222
 30
0.0
 11
77.863312920660462
 21
132.0814816022222
 31
0.0
  0
LINE
  5
1CC
  8
0
 10
64.113312920660434
 20
134.5814816022222
 30
0.0
 11
64.113312920660434
 21
132.0814816022222
 31
0.0
  0
LINE
  5
1CD
  8
0
 10
72.113312920660675
 20
132.0814816022222
 30
0.0
 11
72.113312920660675
 21
134.5814816022222
 31
0.0
  0
LINE
  5
1CE
  8
0
 10
117.8314443409631
 20
142.08148160222251
 30
0.0
 11
117.8314443409632
 21
138.08148160222311
 31
0.0
  0
LINE
  5
1CF
  8
0
 10
144.83144434096309
 20
142.0814816022224
 30
0.0
 11
144.8314443409632
 21
138.08148160222311
 31
0.0
  0
LINE
  5
1D0
  8
0
 10
84.701770188780344
 20
138.08148160222311
 30
0.0
 11
53.524855652540552
 21
138.08148160222311
 31
0.0
  0
LINE
  5
1D1
  8
0
 10
53.524855652540552
 20
142.0814816022224
 30
0.0
 11
84.701770188780344
 21
142.0814816022224
 31
0.0
  0
LINE
  5
1D2
  8
0
 10
76.907541554720225
 20
142.0814816022224
 30
0.0
 11
76.907541554720225
 21
138.08148160222311
 31
0.0
  0
LINE
  5
1D3
  8
0
 10
84.701770188780344
 20
142.0814816022224
 30
0.0
 11
84.701770188780344
 21
138.08148160222311
 31
0.0
  0
LINE
  5
1D4
  8
0
 10
61.319084286600557
 20
142.0814816022224
 30
0.0
 11
61.319084286600557
 21
138.08148160222311
 31
0.0
  0
LINE
  5
1D5
  8
0
 10
53.524855652540552
 20
142.0814816022224
 30
0.0
 11
53.524855652540552
 21
138.08148160222311
 31
0.0
  0
LINE
  5
1D6
  8
3
 10
66.113312920660434
 20
132.0814816022222
 30
0.0
 11
72.113312920660448
 21
128.5814816022222
 31
0.0
  0
LINE
  5
1D7
  8
3
 10
66.113312920660434
 20
128.5814816022222
 30
0.0
 11
72.113312920660448
 21
132.0814816022222
 31
0.0
  0
LINE
  5
1D8
  8
0
 10
75.863312920660448
 20
116.0814816022222
 30
0.0
 11
75.863312920660448
 21
115.5814816022222
 31
0.0
  0
LINE
  5
1D9
  8
0
 10
75.863312920660448
 20
116.0814816022222
 30
0.0
 11
62.363312920660441
 21
116.0814816022222
 31
0.0
  0
LINE
  5
1DA
  8
0
 10
62.363312920660441
 20
116.0814816022222
 30
0.0
 11
62.363312920660441
 21
115.5814816022222
 31
0.0
  0
LINE
  5
1DB
  8
0
 10
62.363312920660441
 20
115.5814816022222
 30
0.0
 11
75.863312920660448
 21
115.5814816022222
 31
0.0
  0
LINE
  5
1DC
  8
0
 10
63.339810228764279
 20
115.0234831404485
 30
0.0
 11
63.339810228764279
 21
112.59443264513411
 31
0.0
  0
LINE
  5
1DD
  8
0
 10
64.213312920660471
 20
111.0814816022215
 30
0.0
 11
74.013312920660084
 21
111.0814816022222
 31
0.0
  0
LINE
  5
1DE
  8
0
 10
64.213312920660243
 20
111.0814816022222
 30
0.0
 11
63.339810228764279
 21
112.59443264513411
 31
0.0
  0
LINE
  5
1DF
  8
0
 10
66.22656157471242
 20
115.0234831404485
 30
0.0
 11
66.22656157471242
 21
112.59443264513411
 31
0.0
  0
ARC
  5
1E0
  8
0
 10
64.783185901738335
 20
112.70207024896661
 30
0.0
 40
1.4473835659880101
 50
235.7351462967014
 51
355.7351462967182
  0
ARC
  5
1E1
  8
0
 10
64.783185901738335
 20
112.70207024896661
 30
0.0
 40
1.4473835659880101
 50
184.26485370328299
 51
184.26485370338099
  0
LINE
  5
1E2
  8
0
 10
74.886815612556276
 20
115.0234831404485
 30
0.0
 11
74.886815612556617
 21
112.59443264513411
 31
0.0
  0
LINE
  5
1E3
  8
0
 10
74.013312920660653
 20
111.0814816022222
 30
0.0
 11
74.886815612556617
 21
112.59443264513411
 31
0.0
  0
ARC
  5
1E4
  8
0
 10
73.443439939582547
 20
112.70207024896661
 30
0.0
 40
1.4473835659880101
 50
184.26485370328189
 51
304.26485370329863
  0
LINE
  5
1E5
  8
0
 10
72.000064266608476
 20
115.0234831404485
 30
0.0
 11
72.000064266608476
 21
112.59443264513411
 31
0.0
  0
ARC
  5
1E6
  8
0
 10
69.11331292066113
 20
115.0346020036985
 30
0.0
 40
3.7799153207197551
 50
220.20781872204341
 51
319.79218127792501
  0
LINE
  5
1E7
  8
0
 10
63.339810228764279
 20
115.0234831404485
 30
0.0
 11
62.363312920660441
 21
115.5814816022222
 31
0.0
  0
ARC
  5
1E8
  8
0
 10
64.783185901738335
 20
117.159186085188
 30
0.0
 40
2.5777044829658
 50
235.9479270155071
 51
304.05207298449329
  0
ARC
  5
1E9
  8
0
 10
73.443439939582547
 20
117.159186085188
 30
0.0
 40
2.5777044829658
 50
235.94792701550679
 51
304.05207298449301
  0
LINE
  5
1EA
  8
0
 10
74.886815612556617
 20
115.0234831404485
 30
0.0
 11
75.863312920660448
 21
115.5814816022222
 31
0.0
  0
ARC
  5
1EB
  8
0
 10
69.113312920659652
 20
124.2292972267486
 30
0.0
 40
9.6478156245263698
 50
252.589662956251
 51
287.41033704375837
  0
LINE
  5
1EC
  8
0
 10
73.113312920660448
 20
132.0814816022222
 30
0.0
 11
73.113312920660448
 21
128.5814816022222
 31
0.0
  0
LINE
  5
1ED
  8
0
 10
72.113312920660448
 20
132.0814816022222
 30
0.0
 11
72.113312920660448
 21
128.5814816022222
 31
0.0
  0
LINE
  5
1EE
  8
0
 10
66.113312920660434
 20
132.0814816022222
 30
0.0
 11
66.113312920660434
 21
128.5814816022222
 31
0.0
  0
LINE
  5
1EF
  8
0
 10
65.113312920660448
 20
128.5814816022222
 30
0.0
 11
73.113312920660448
 21
128.5814816022222
 31
0.0
  0
LINE
  5
1F0
  8
0
 10
65.113312920660448
 20
132.0814816022222
 30
0.0
 11
65.113312920660448
 21
128.5814816022222
 31
0.0
  0
LINE
  5
1F1
  8
0
 10
59.363312920660448
 20
134.5814816022222
 30
0.0
 11
72.113312920660675
 21
134.5814816022222
 31
0.0
  0
LINE
  5
1F2
  8
0
 10
60.36331292066042
 20
132.0814816022222
 30
0.0
 11
65.113312920660448
 21
132.0814816022222
 31
0.0
  0
LINE
  5
1F3
  8
0
 10
78.863312920660462
 20
133.0814816022222
 30
0.0
 11
78.863312920660434
 21
137.5814816022222
 31
0.0
  0
ARC
  5
1F4
  8
0
 10
77.863312920660462
 20
133.0814816022222
 30
0.0
 40
1.0
 50
270.00000000000011
 51
0.0000000000001781
  0
LINE
  5
1F5
  8
0
 10
59.36331292066042
 20
134.5814816022222
 30
0.0
 11
59.363312920660469
 21
137.5814816022222
 31
0.0
  0
LINE
  5
1F6
  8
0
 10
59.836325263020733
 20
133.0814816022222
 30
0.0
 11
59.836325263020733
 21
134.5814816022222
 31
0.0
  0
POLYLINE
  5
1F7
  8
0
 66
     1
 10
0.0
 20
0.0
 30
0.0
  0
VERTEX
  5
1F8
  8
0
 10
60.36331292066042
 20
132.0814816022222
 30
0.0
 42
-0.1680937180862847
  0
VERTEX
  5
1F9
  8
0
 10
60.182724388780159
 20
132.14395851401721
 30
0.0
 42
-0.1052978660959511
  0
VERTEX
  5
1FA
  8
0
 10
59.990676374341788
 20
132.37437482103559
 30
0.0
 42
-0.0676252060446964
 70
     2
 50
117.7886770925242
  0
VERTEX
  5
1FB
  8
0
 10
59.86628662328728
 20
132.71518532166311
 30
0.0
 42
-0.0667491529464663
  0
VERTEX
  5
1FC
  8
0
 10
59.836325263020733
 20
133.0814816022222
 30
0.0
 42
-0.0537803369482067
  0
SEQEND
  5
1FD
  8
0
  0
LINE
  5
1FE
  8
0
 10
117.8314443409632
 20
138.08148160222311
 30
0.0
 11
144.8314443409632
 21
138.08148160222311
 31
0.0
  0
LINE
  5
1FF
  8
0
 10
144.83144434096309
 20
142.0814816022224
 30
0.0
 11
117.8314443409631
 21
142.08148160222251
 31
0.0
  0
LINE
  5
200
  8
0
 10
131.33144434096329
 20
142.0814816022224
 30
0.0
 11
131.33144434096329
 21
138.08148160222311
 31
0.0
  0
LINE
  5
201
  8
3
 10
134.3314443409634
 20
132.0814816022222
 30
0.0
 11
128.3314443409634
 21
128.5814816022222
 31
0.0
  0
LINE
  5
202
  8
3
 10
134.3314443409634
 20
128.5814816022222
 30
0.0
 11
128.3314443409634
 21
132.0814816022222
 31
0.0
  0
LINE
  5
203
  8
0
 10
127.3314443409634
 20
132.0814816022222
 30
0.0
 11
127.3314443409634
 21
128.5814816022222
 31
0.0
  0
LINE
  5
204
  8
0
 10
128.3314443409634
 20
132.0814816022222
 30
0.0
 11
128.3314443409634
 21
128.5814816022222
 31
0.0
  0
LINE
  5
205
  8
0
 10
134.3314443409634
 20
132.0814816022222
 30
0.0
 11
134.3314443409634
 21
128.5814816022222
 31
0.0
  0
LINE
  5
206
  8
0
 10
135.3314443409634
 20
128.5814816022222
 30
0.0
 11
127.3314443409634
 21
128.5814816022222
 31
0.0
  0
LINE
  5
207
  8
0
 10
135.3314443409634
 20
132.0814816022222
 30
0.0
 11
135.3314443409634
 21
128.5814816022222
 31
0.0
  0
LINE
  5
208
  8
0
 10
121.5814443409634
 20
134.5814816022222
 30
0.0
 11
122.05445668332371
 21
134.5814816022222
 31
0.0
  0
LINE
  5
209
  8
0
 10
122.5814443409634
 20
132.0814816022222
 30
0.0
 11
140.0814443409634
 21
132.0814816022222
 31
0.0
  0
LINE
  5
20A
  8
0
 10
141.0814443409634
 20
133.0814816022222
 30
0.0
 11
141.08144434096329
 21
137.5814816022222
 31
0.0
  0
ARC
  5
20B
  8
0
 10
140.0814443409634
 20
133.0814816022222
 30
0.0
 40
1.0
 50
270.00000000000011
 51
0.0000000000001781
  0
LINE
  5
20C
  8
0
 10
121.5814443409634
 20
134.5814816022222
 30
0.0
 11
121.5814443409634
 21
137.5814816022222
 31
0.0
  0
LINE
  5
20D
  8
0
 10
122.05445668332371
 20
133.0814816022222
 30
0.0
 11
122.05445668332371
 21
134.5814816022222
 31
0.0
  0
POLYLINE
  5
20E
  8
0
 66
     1
 10
0.0
 20
0.0
 30
0.0
  0
VERTEX
  5
20F
  8
0
 10
122.5814443409634
 20
132.0814816022222
 30
0.0
 42
-0.1680937180862847
  0
VERTEX
  5
210
  8
0
 10
122.4008558090831
 20
132.14395851401721
 30
0.0
 42
-0.1052978660959511
  0
VERTEX
  5
211
  8
0
 10
122.2088077946447
 20
132.37437482103559
 30
0.0
 42
-0.0676252060446964
 70
     2
 50
117.7886770925242
  0
VERTEX
  5
212
  8
0
 10
122.0844180435902
 20
132.71518532166311
 30
0.0
 42
-0.0667491529464663
  0
VERTEX
  5
213
  8
0
 10
122.05445668332371
 20
133.0814816022222
 30
0.0
 42
-0.0537803369482067
  0
SEQEND
  5
214
  8
0
  0
POLYLINE
  5
215
  8
0
 66
     1
 10
0.0
 20
0.0
 30
0.0
  0
VERTEX
  5
216
  8
0
 10
200.0334103315347
 20
132.0814816022222
 30
0.0
 42
0.1680937180862847
  0
VERTEX
  5
217
  8
0
 10
200.21399886341499
 20
132.14395851401721
 30
0.0
 42
0.1052978660959511
  0
VERTEX
  5
218
  8
0
 10
200.4060468778533
 20
132.37437482103559
 30
0.0
 42
0.0676252060446964
 70
     2
 50
62.211322907475832
  0
VERTEX
  5
219
  8
0
 10
200.53043662890781
 20
132.71518532166311
 30
0.0
 42
0.0667491529464663
 50
62.211322907475832
  0
VERTEX
  5
21A
  8
0
 10
200.56039798917439
 20
133.0814816022222
 30
0.0
 42
0.0537803369482067
  0
SEQEND
  5
21B
  8
0
  0
LINE
  5
21C
  8
0
 10
200.56039798917439
 20
133.0814816022222
 30
0.0
 11
200.56039798917439
 21
134.5814816022222
 31
0.0
  0
LINE
  5
21D
  8
0
 10
201.0334103315347
 20
134.5814816022222
 30
0.0
 11
201.03341033153461
 21
137.5814816022222
 31
0.0
  0
ARC
  5
21E
  8
0
 10
182.53341033153461
 20
133.0814816022222
 30
0.0
 40
1.0
 50
179.9999999999998
 51
270.0
  0
LINE
  5
21F
  8
0
 10
181.53341033153461
 20
133.0814816022222
 30
0.0
 11
181.5334103315347
 21
137.5814816022222
 31
0.0
  0
LINE
  5
220
  8
0
 10
138.0814443409634
 20
115.5814816022222
 30
0.0
 11
138.0814443409634
 21
116.0814816022222
 31
0.0
  0
LINE
  5
221
  8
0
 10
126.4314443409633
 20
111.0814816022215
 30
0.0
 11
136.23144434096281
 21
111.0814816022222
 31
0.0
  0
LINE
  5
222
  8
0
 10
124.5814443409634
 20
115.5814816022222
 30
0.0
 11
138.0814443409634
 21
115.5814816022222
 31
0.0
  0
LINE
  5
223
  8
0
 10
124.5814443409634
 20
116.0814816022222
 30
0.0
 11
124.5814443409634
 21
115.5814816022222
 31
0.0
  0
LINE
  5
224
  8
0
 10
138.0814443409634
 20
116.0814816022222
 30
0.0
 11
124.5814443409634
 21
116.0814816022222
 31
0.0
  0
LINE
  5
225
  8
0
 10
126.4314443409633
 20
111.0814816022215
 30
0.0
 11
126.3314443409634
 21
111.2546866829788
 31
0.0
  0
LINE
  5
226
  8
0
 10
126.3314443409634
 20
111.2546866829788
 30
0.0
 11
126.3314443409631
 21
115.0234831404485
 31
0.0
  0
LINE
  5
227
  8
0
 10
126.3314443409634
 20
114.5814816022222
 30
0.0
 11
124.5814443409634
 21
115.5814816022222
 31
0.0
  0
ARC
  5
228
  8
0
 10
128.8314443409632
 20
114.25709141878799
 30
0.0
 40
3.0024047358092472
 50
213.62642913599859
 51
326.37357086400158
  0
ARC
  5
229
  8
0
 10
133.83144434096309
 20
114.25709141878799
 30
0.0
 40
3.0024047358092472
 50
213.62642913599839
 51
326.37357086400152
  0
LINE
  5
22A
  8
0
 10
136.3314443409632
 20
114.5814816022222
 30
0.0
 11
138.08144434096309
 21
115.5814816022222
 31
0.0
  0
LINE
  5
22B
  8
0
 10
136.23144434096321
 20
111.0814816022215
 30
0.0
 11
136.3314443409632
 21
111.2546866829788
 31
0.0
  0
LINE
  5
22C
  8
0
 10
131.33144434096249
 20
112.59443264513369
 30
0.0
 11
131.33144434096249
 21
115.0234831404485
 31
0.0
  0
ARC
  5
22D
  8
0
 10
128.83144434096289
 20
121.8725935128911
 30
0.0
 40
7.2911119106689046
 50
249.9473663188472
 51
290.052633681153
  0
ARC
  5
22E
  8
0
 10
133.8314443409636
 20
121.8725935128911
 30
0.0
 40
7.2911119106689046
 50
249.947366318847
 51
290.05263368115288
  0
LINE
  5
22F
  8
0
 10
136.3314443409632
 20
111.2546866829788
 30
0.0
 11
136.3314443409632
 21
115.0234831404485
 31
0.0
  0
LINE
  5
230
  8
0
 10
202.28341033153461
 20
154.581481602222
 30
0.0
 11
180.2834103315347
 21
154.581481602222
 31
0.0
  0
LINE
  5
231
  8
0
 10
180.2834103315347
 20
154.581481602222
 30
0.0
 11
177.2834103315347
 21
151.5814816022222
 31
0.0
  0
LINE
  5
232
  8
0
 10
177.2834103315347
 20
151.5814816022222
 30
0.0
 11
177.2834103315347
 21
150.0814816022222
 31
0.0
  0
LINE
  5
233
  8
0
 10
177.2834103315347
 20
150.0814816022222
 30
0.0
 11
205.2834103315347
 21
150.0814816022222
 31
0.0
  0
LINE
  5
234
  8
0
 10
205.2834103315347
 20
150.0814816022222
 30
0.0
 11
205.2834103315347
 21
151.5814816022222
 31
0.0
  0
LINE
  5
235
  8
0
 10
205.28341033153461
 20
151.5814816022222
 30
0.0
 11
202.28341033153461
 21
154.581481602222
 31
0.0
  0
LINE
  5
236
  8
0
 10
205.2834103315347
 20
151.5814816022222
 30
0.0
 11
177.2834103315347
 21
151.5814816022222
 31
0.0
  0
LINE
  5
237
  8
0
 10
204.7834103315347
 20
149.5814816022222
 30
0.0
 11
177.78341033153461
 21
149.5814816022222
 31
0.0
  0
LINE
  5
238
  8
0
 10
177.78341033153461
 20
149.5814816022222
 30
0.0
 11
177.78341033153461
 21
150.0814816022222
 31
0.0
  0
LINE
  5
239
  8
0
 10
204.7834103315347
 20
149.5814816022222
 30
0.0
 11
204.7834103315347
 21
150.0814816022222
 31
0.0
  0
LINE
  5
23A
  8
0
 10
201.2834103315347
 20
137.5814816022222
 30
0.0
 11
181.2834103315347
 21
137.5814816022222
 31
0.0
  0
LINE
  5
23B
  8
0
 10
200.0334103315347
 20
132.0814816022222
 30
0.0
 11
182.53341033153461
 21
132.0814816022222
 31
0.0
  0
LINE
  5
23C
  8
0
 10
195.8659860264905
 20
149.5814816022222
 30
0.0
 11
195.8659860264905
 21
142.0814816022224
 31
0.0
  0
LINE
  5
23D
  8
0
 10
186.7008346365788
 20
137.5814816022222
 30
0.0
 11
186.7008346365788
 21
138.08148160222311
 31
0.0
  0
LINE
  5
23E
  8
3
 10
187.06744069217521
 20
149.5814816022222
 30
0.0
 11
192.56653152612219
 21
142.0814816022224
 31
0.0
  0
LINE
  5
23F
  8
3
 10
195.4993799708941
 20
149.5814816022222
 30
0.0
 11
190.00028913694709
 21
142.0814816022224
 31
0.0
  0
LINE
  5
240
  8
0
 10
201.0334103315347
 20
134.5814816022222
 30
0.0
 11
200.56039798917431
 21
134.5814816022222
 31
0.0
  0
LINE
  5
241
  8
0
 10
195.28341033153461
 20
132.0814816022222
 30
0.0
 11
195.28341033153461
 21
128.5814816022222
 31
0.0
  0
LINE
  5
242
  8
0
 10
195.28341033153461
 20
128.5814816022222
 30
0.0
 11
187.28341033153461
 21
128.5814816022222
 31
0.0
  0
LINE
  5
243
  8
0
 10
194.28341033153461
 20
132.0814816022222
 30
0.0
 11
194.28341033153461
 21
128.5814816022222
 31
0.0
  0
LINE
  5
244
  8
0
 10
188.28341033153461
 20
132.0814816022222
 30
0.0
 11
188.28341033153461
 21
128.5814816022222
 31
0.0
  0
LINE
  5
245
  8
0
 10
187.28341033153461
 20
132.0814816022222
 30
0.0
 11
187.28341033153461
 21
128.5814816022222
 31
0.0
  0
ARC
  5
246
  8
0
 10
191.28341033153541
 20
124.2292972267486
 30
0.0
 40
9.6478156245263698
 50
252.5896629562416
 51
287.410337043749
  0
LINE
  5
247
  8
0
 10
185.5099076396385
 20
115.0234831404485
 30
0.0
 11
184.53341033153461
 21
115.5814816022222
 31
0.0
  0
ARC
  5
248
  8
0
 10
186.9532833126126
 20
117.159186085188
 30
0.0
 40
2.5777044829658
 50
235.94792701550699
 51
304.05207298449318
  0
ARC
  5
249
  8
0
 10
195.61353735045671
 20
117.159186085188
 30
0.0
 40
2.5777044829658
 50
235.94792701550671
 51
304.05207298449301
  0
LINE
  5
24A
  8
0
 10
197.05691302343081
 20
115.0234831404485
 30
0.0
 11
198.03341033153461
 21
115.5814816022222
 31
0.0
  0
ARC
  5
24B
  8
0
 10
191.28341033153399
 20
115.0346020036985
 30
0.0
 40
3.7799153207197551
 50
220.2078187220751
 51
319.79218127795662
  0
LINE
  5
24C
  8
0
 10
188.39665898558661
 20
115.0234831404485
 30
0.0
 11
188.39665898558661
 21
112.59443264513411
 31
0.0
  0
ARC
  5
24D
  8
0
 10
186.9532833126126
 20
112.70207024896661
 30
0.0
 40
1.4473835659880101
 50
235.7351462967014
 51
355.7351462967182
  0
LINE
  5
24E
  8
0
 10
186.38341033153441
 20
111.0814816022222
 30
0.0
 11
185.5099076396385
 21
112.59443264513411
 31
0.0
  0
LINE
  5
24F
  8
0
 10
185.50990763963881
 20
115.0234831404485
 30
0.0
 11
185.5099076396385
 21
112.59443264513411
 31
0.0
  0
ARC
  5
250
  8
0
 10
195.61353735045671
 20
112.70207024896661
 30
0.0
 40
1.4473835659880101
 50
355.73514629661901
 51
355.73514629671701
  0
ARC
  5
251
  8
0
 10
195.61353735045671
 20
112.70207024896661
 30
0.0
 40
1.4473835659880101
 50
184.2648537032818
 51
304.26485370329863
  0
LINE
  5
252
  8
0
 10
194.1701616774827
 20
115.0234831404485
 30
0.0
 11
194.1701616774827
 21
112.59443264513411
 31
0.0
  0
LINE
  5
253
  8
0
 10
196.18341033153479
 20
111.0814816022222
 30
0.0
 11
197.05691302343081
 21
112.59443264513411
 31
0.0
  0
LINE
  5
254
  8
0
 10
196.18341033153459
 20
111.0814816022215
 30
0.0
 11
186.383410331535
 21
111.0814816022222
 31
0.0
  0
LINE
  5
255
  8
0
 10
197.05691302343081
 20
115.0234831404485
 30
0.0
 11
197.05691302343081
 21
112.59443264513411
 31
0.0
  0
LINE
  5
256
  8
0
 10
198.03341033153461
 20
115.5814816022222
 30
0.0
 11
184.53341033153461
 21
115.5814816022222
 31
0.0
  0
LINE
  5
257
  8
0
 10
198.03341033153461
 20
116.0814816022222
 30
0.0
 11
198.03341033153461
 21
115.5814816022222
 31
0.0
  0
LINE
  5
258
  8
0
 10
184.53341033153461
 20
116.0814816022222
 30
0.0
 11
198.03341033153461
 21
116.0814816022222
 31
0.0
  0
LINE
  5
259
  8
0
 10
184.53341033153461
 20
116.0814816022222
 30
0.0
 11
184.53341033153461
 21
115.5814816022222
 31
0.0
  0
LINE
  5
25A
  8
3
 10
194.28341033153461
 20
128.5814816022222
 30
0.0
 11
188.28341033153461
 21
132.0814816022222
 31
0.0
  0
LINE
  5
25B
  8
3
 10
194.28341033153461
 20
132.0814816022222
 30
0.0
 11
188.28341033153461
 21
128.5814816022222
 31
0.0
  0
LINE
  5
25C
  8
0
 10
206.87186759965451
 20
142.0814816022224
 30
0.0
 11
206.87186759965451
 21
138.08148160222311
 31
0.0
  0
LINE
  5
25D
  8
0
 10
199.0776389655945
 20
142.0814816022224
 30
0.0
 11
199.0776389655945
 21
138.08148160222311
 31
0.0
  0
LINE
  5
25E
  8
0
 10
175.6949530634148
 20
142.0814816022224
 30
0.0
 11
175.6949530634148
 21
138.08148160222311
 31
0.0
  0
LINE
  5
25F
  8
0
 10
183.48918169747489
 20
142.0814816022224
 30
0.0
 11
183.48918169747489
 21
138.08148160222311
 31
0.0
  0
LINE
  5
260
  8
0
 10
206.87186759965451
 20
142.0814816022224
 30
0.0
 11
175.6949530634148
 21
142.0814816022224
 31
0.0
  0
LINE
  5
261
  8
0
 10
175.6949530634148
 20
138.08148160222311
 30
0.0
 11
206.87186759965451
 21
138.08148160222311
 31
0.0
  0
LINE
  5
262
  8
0
 10
195.8659860264905
 20
138.08148160222311
 30
0.0
 11
195.8659860264905
 21
137.5814816022222
 31
0.0
  0
LINE
  5
263
  8
3
 10
195.49937997089339
 20
138.08148160222311
 30
0.0
 11
195.8659860264905
 21
137.5814816022222
 31
0.0
  0
LINE
  5
264
  8
3
 10
187.06744069217589
 20
138.08148160222311
 30
0.0
 11
186.7008346365788
 21
137.5814816022222
 31
0.0
  0
LINE
  5
265
  8
0
 10
186.7008346365788
 20
142.0814816022224
 30
0.0
 11
186.7008346365788
 21
149.5814816022222
 31
0.0
  0
CIRCLE
  5
266
  8
0
 10
191.28341033153461
 20
215.9119268147613
 30
0.0
 40
14.0
  0
CIRCLE
  5
267
  8
0
 10
191.28341033153461
 20
215.9119268147613
 30
0.0
 40
10.99999999999997
  0
LINE
  5
268
  8
0
 10
204.82880290439871
 20
212.37323495942769
 30
0.0
 11
206.87186759965451
 21
215.91192681476119
 31
0.0
  0
LINE
  5
269
  8
0
 10
206.87186759965451
 20
215.91192681476119
 30
0.0
 11
204.82880290439749
 21
219.45061867009659
 31
0.0
  0
LINE
  5
26A
  8
0
 10
201.1207036608514
 20
225.8732349594267
 30
0.0
 11
199.07763896559479
 21
229.41192681476119
 31
0.0
  0
LINE
  5
26B
  8
0
 10
199.07763896559479
 20
229.41192681476119
 30
0.0
 11
194.99150957508201
 21
229.41192681476119
 31
0.0
  0
LINE
  5
26C
  8
0
 10
187.5753110879883
 20
229.4119268147615
 30
0.0
 11
183.48918169747481
 21
229.4119268147615
 31
0.0
  0
LINE
  5
26D
  8
0
 10
183.48918169747481
 20
229.4119268147615
 30
0.0
 11
181.4461170022183
 21
225.87323495942721
 31
0.0
  0
LINE
  5
26E
  8
0
 10
175.6949530634146
 20
215.91192681476139
 30
0.0
 11
177.73801775867051
 21
212.37323495942789
 31
0.0
  0
LINE
  5
26F
  8
0
 10
177.73801775867091
 20
219.45061867009551
 30
0.0
 11
175.6949530634146
 21
215.91192681476139
 31
0.0
  0
LINE
  5
270
  8
0
 10
181.4461170022189
 20
205.9506186700944
 30
0.0
 11
183.48918169747449
 21
202.41192681476119
 31
0.0
  0
LINE
  5
271
  8
0
 10
183.48918169747449
 20
202.41192681476119
 30
0.0
 11
187.5753110879873
 21
202.41192681476119
 31
0.0
  0
LINE
  5
272
  8
0
 10
194.99150957508249
 20
202.41192681476119
 30
0.0
 11
199.0776389655945
 21
202.41192681476119
 31
0.0
  0
LINE
  5
273
  8
0
 10
199.0776389655945
 20
202.41192681476119
 30
0.0
 11
201.12070366085049
 21
205.9506186700948
 31
0.0
  0
ARC
  5
274
  8
0
 10
191.28341033153461
 20
60.389025997996001
 30
0.0
 40
14.0
 50
314.64111441917947
 51
345.3588855808182
  0
ARC
  5
275
  8
0
 10
191.28341033153461
 20
60.389025997996001
 30
0.0
 40
14.0
 50
14.641114419172171
 51
45.35888558082803
  0
ARC
  5
276
  8
0
 10
191.28341033153461
 20
60.389025997996001
 30
0.0
 40
14.0
 50
74.641114419177526
 51
105.35888558081901
  0
ARC
  5
277
  8
0
 10
191.28341033153461
 20
60.389025997996001
 30
0.0
 40
14.0
 50
134.64111441917851
 51
165.3588855808207
  0
ARC
  5
278
  8
0
 10
191.28341033153461
 20
60.389025997996001
 30
0.0
 40
14.0
 50
194.6411144191739
 51
225.35888558082519
  0
ARC
  5
279
  8
0
 10
191.28341033153461
 20
60.389025997996001
 30
0.0
 40
14.0
 50
254.64111441917379
 51
285.35888558082303
  0
LINE
  5
27A
  8
0
 10
319.8527065285889
 20
154.581481602222
 30
0.0
 11
297.85270652858912
 21
154.581481602222
 31
0.0
  0
LINE
  5
27B
  8
0
 10
297.85270652858912
 20
154.581481602222
 30
0.0
 11
294.85270652858912
 21
151.5814816022222
 31
0.0
  0
LINE
  5
27C
  8
0
 10
322.85270652858912
 20
151.5814816022222
 30
0.0
 11
319.85270652858912
 21
154.581481602222
 31
0.0
  0
LINE
  5
27D
  8
0
 10
322.85270652858912
 20
150.0814816022222
 30
0.0
 11
322.85270652858912
 21
151.5814816022222
 31
0.0
  0
LINE
  5
27E
  8
0
 10
294.85270652858912
 20
150.0814816022222
 30
0.0
 11
298.85270652858912
 21
150.0814816022222
 31
0.0
  0
LINE
  5
27F
  8
0
 10
294.85270652858912
 20
151.5814816022222
 30
0.0
 11
294.85270652858912
 21
150.0814816022222
 31
0.0
  0
LINE
  5
280
  8
0
 10
318.85270652858912
 20
150.0814816022222
 30
0.0
 11
322.85270652858912
 21
150.0814816022222
 31
0.0
  0
INSERT
  5
281
  8
3
  2
*X3
 10
58.754435449330828
 20
46.294964028776967
 30
0.0
  0
TEXT
  5
3DC
  8
0
 62
     3
 10
0.0
 20
0.0
 30
0.0
 40
10.0
  1
MTE28S7
  7
STANDARD1
  0
ENDSEC
  0
EOF
