  0
SECTION
  2
HEADER
  9
$ACADVER
  1
AC1009
  9
$INSBASE
 10
0.0
 20
0.0
 30
0.0
  9
$EXTMIN
 10
0.0
 20
-2.960436562073669
 30
0.0
  9
$EXTMAX
 10
341.23506832061338
 20
235.39843760612811
 30
0.0
  9
$LIMMIN
 10
0.0
 20
0.0
  9
$LIMMAX
 10
375.0
 20
270.0
  9
$ORTHOMODE
 70
     1
  9
$REGENMODE
 70
     1
  9
$FILLMODE
 70
     1
  9
$QTEXTMODE
 70
     0
  9
$MIRRTEXT
 70
     0
  9
$DRAGMODE
 70
     2
  9
$LTSCALE
 40
10.0
  9
$OSMODE
 70
  3071
  9
$ATTMODE
 70
     1
  9
$TEXTSIZE
 40
0.2
  9
$TRACEWID
 40
0.05
  9
$TEXTSTYLE
  7
STANDARD
  9
$CLAYER
  8
0
  9
$CELTYPE
  6
BYLAYER
  9
$CECOLOR
 62
   256
  9
$DIMSCALE
 40
1.0
  9
$DIMASZ
 40
3.0
  9
$DIMEXO
 40
2.0
  9
$DIMDLI
 40
0.38
  9
$DIMRND
 40
0.0
  9
$DIMDLE
 40
0.0
  9
$DIMEXE
 40
2.0
  9
$DIMTP
 40
0.0
  9
$DIMTM
 40
0.0
  9
$DIMTXT
 40
3.2000000000000002
  9
$DIMCEN
 40
0.0
  9
$DIMTSZ
 40
0.0
  9
$DIMTOL
 70
     0
  9
$DIMLIM
 70
     0
  9
$DIMTIH
 70
     0
  9
$DIMTOH
 70
     0
  9
$DIMSE1
 70
     0
  9
$DIMSE2
 70
     0
  9
$DIMTAD
 70
     1
  9
$DIMZIN
 70
     0
  9
$DIMBLK
  1

  9
$DIMASO
 70
     1
  9
$DIMSHO
 70
     0
  9
$DIMPOST
  1

  9
$DIMAPOST
  1

  9
$DIMALT
 70
     0
  9
$DIMALTD
 70
     2
  9
$DIMALTF
 40
25.399999999999999
  9
$DIMLFAC
 40
1.0
  9
$DIMTOFL
 70
     1
  9
$DIMTVP
 40
1.6000000000000001
  9
$DIMTIX
 70
     1
  9
$DIMSOXD
 70
     0
  9
$DIMSAH
 70
     0
  9
$DIMBLK1
  1

  9
$DIMBLK2
  1

  9
$DIMSTYLE
  2
STANDARD
  9
$DIMCLRD
 70
     0
  9
$DIMCLRE
 70
     0
  9
$DIMCLRT
 70
     0
  9
$DIMTFAC
 40
1.0
  9
$DIMGAP
 40
0.09
  9
$LUNITS
 70
     2
  9
$LUPREC
 70
     4
  9
$SKETCHINC
 40
0.1
  9
$FILLETRAD
 40
0.0
  9
$AUNITS
 70
     0
  9
$AUPREC
 70
     4
  9
$MENU
  1
E:\r13\win\SUPPORT\ACAD
  9
$ELEVATION
 40
0.0
  9
$PELEVATION
 40
0.0
  9
$THICKNESS
 40
0.0
  9
$LIMCHECK
 70
     0
  9
$BLIPMODE
 70
     0
  9
$CHAMFERA
 40
0.0
  9
$CHAMFERB
 40
0.0
  9
$SKPOLY
 70
     0
  9
$TDCREATE
 40
2449839.7953587961
  9
$TDUPDATE
 40
2456597.6704106708
  9
$TDINDWG
 40
0.0001318056
  9
$TDUSRTIMER
 40
0.0001318056
  9
$USRTIMER
 70
     1
  9
$ANGBASE
 50
0.0
  9
$ANGDIR
 70
     0
  9
$PDMODE
 70
     0
  9
$PDSIZE
 40
0.0
  9
$PLINEWID
 40
0.0
  9
$COORDS
 70
     1
  9
$SPLFRAME
 70
     0
  9
$SPLINETYPE
 70
     6
  9
$SPLINESEGS
 70
     8
  9
$ATTDIA
 70
     0
  9
$ATTREQ
 70
     1
  9
$HANDLING
 70
     1
  9
$HANDSEED
  5
465
  9
$SURFTAB1
 70
     6
  9
$SURFTAB2
 70
     6
  9
$SURFTYPE
 70
     6
  9
$SURFU
 70
     6
  9
$SURFV
 70
     6
  9
$UCSNAME
  2

  9
$UCSORG
 10
0.0
 20
0.0
 30
0.0
  9
$UCSXDIR
 10
1.0
 20
0.0
 30
0.0
  9
$UCSYDIR
 10
0.0
 20
1.0
 30
0.0
  9
$PUCSNAME
  2

  9
$PUCSORG
 10
0.0
 20
0.0
 30
0.0
  9
$PUCSXDIR
 10
1.0
 20
0.0
 30
0.0
  9
$PUCSYDIR
 10
0.0
 20
1.0
 30
0.0
  9
$USERI1
 70
     0
  9
$USERI2
 70
     1
  9
$USERI3
 70
     1
  9
$USERI4
 70
     0
  9
$USERI5
 70
     0
  9
$USERR1
 40
0.0
  9
$USERR2
 40
0.0
  9
$USERR3
 40
0.0
  9
$USERR4
 40
0.0
  9
$USERR5
 40
0.0
  9
$WORLDVIEW
 70
     1
  9
$SHADEDGE
 70
     3
  9
$SHADEDIF
 70
    70
  9
$TILEMODE
 70
     1
  9
$MAXACTVP
 70
    16
  9
$PLIMCHECK
 70
     0
  9
$PEXTMIN
 10
1.0000000000000000E+020
 20
1.0000000000000000E+020
 30
1.0000000000000000E+020
  9
$PEXTMAX
 10
-1.0000000000000000E+020
 20
-1.0000000000000000E+020
 30
-1.0000000000000000E+020
  9
$PLIMMIN
 10
0.0
 20
0.0
  9
$PLIMMAX
 10
12.0
 20
9.0
  9
$UNITMODE
 70
     0
  9
$VISRETAIN
 70
     0
  9
$PLINEGEN
 70
     0
  9
$PSLTSCALE
 70
     0
  0
ENDSEC
  0
SECTION
  2
TABLES
  0
TABLE
  2
VPORT
 70
     1
  0
VPORT
  2
*ACTIVE
 70
     0
 10
0.0
 20
0.0
 11
1.0
 21
1.0
 12
187.49427839065231
 22
134.10366293909439
 13
0.0
 23
0.0
 14
10.0
 24
10.0
 15
10.0
 25
10.0
 16
0.0
 26
0.0
 36
1.0
 17
0.0
 27
0.0
 37
0.0
 40
277.29405978699532
 41
2.304913294797688
 42
50.0
 43
0.0
 44
0.0
 50
0.0
 51
0.0
 71
     0
 72
   500
 73
     1
 74
     0
 75
     0
 76
     0
 77
     0
 78
     2
  0
ENDTAB
  0
TABLE
  2
LTYPE
 70
     4
  0
LTYPE
  2
CONTINUOUS
 70
     0
  3
Solid Line
 72
    65
 73
     0
 40
0.0
  0
LTYPE
  2
CENTER
 70
     0
  3
____ _ ____ _ ____ _ ____ _ ____ _ ____ _ ____
 72
    65
 73
     4
 40
2.0
 49
1.25
 49
-0.25
 49
0.25
 49
-0.25
  0
LTYPE
  2
HIDDEN
 70
     0
  3
_ _ _ _ _ _ _ _ _ _ _ _ _ _ _ _ _ _ _ _ _ _ _
 72
    65
 73
     2
 40
0.375
 49
0.25
 49
-0.125
  0
LTYPE
  2
PHANTOM2
 70
     0
  3
___ _ _ ___ _ _ ___ _ _ ___ _ _
 72
    65
 73
     6
 40
1.25
 49
0.625
 49
-0.125
 49
0.125
 49
-0.125
 49
0.125
 49
-0.125
  0
ENDTAB
  0
TABLE
  2
LAYER
 70
     4
  0
LAYER
  2
0
 70
     0
 62
     7
  6
CONTINUOUS
  0
LAYER
  2
1
 70
     0
 62
     1
  6
CENTER
  0
LAYER
  2
3
 70
     0
 62
     3
  6
CONTINUOUS
  0
LAYER
  2
2
 70
     0
 62
     2
  6
HIDDEN
  0
ENDTAB
  0
TABLE
  2
STYLE
 70
     2
  0
STYLE
  2
STANDARD
 70
     0
 40
0.0
 41
1.0
 50
0.0
 71
     0
 42
0.2
  3
TXT
  4
BIGFONT
  0
STYLE
  2
STANDARD1
 70
     0
 40
0.0
 41
1.0
 50
0.0
 71
     0
 42
3.0
  3
txt
  4

  0
ENDTAB
  0
TABLE
  2
VIEW
 70
     1
  0
VIEW
  2
ALL
 70
     0
 40
270.0
 10
220.99159663865549
 20
135.0
 41
0.0
 11
0.0
 21
0.0
 31
1.0
 12
0.0
 22
0.0
 32
0.0
 42
0.0
 43
0.0
 44
0.0
 50
0.0
 71
     0
  0
ENDTAB
  0
TABLE
  2
UCS
 70
     0
  0
ENDTAB
  0
TABLE
  2
APPID
 70
     3
  0
APPID
  2
ACAD
 70
     0
  0
APPID
  2
ACAD_MLEADERVER
 70
     0
  0
APPID
  2
ACAD_NAV_VCDISPLAY
 70
     0
  0
ENDTAB
  0
TABLE
  2
DIMSTYLE
 70
     1
  0
DIMSTYLE
  2
STANDARD
 70
     0
  3

  4

  5

  6

  7

 40
1.0
 41
0.18
 42
0.0625
 43
0.38
 44
0.18
 45
0.0
 46
0.0
 47
0.0
 48
0.0
140
0.18
141
0.09
142
0.0
143
25.399999999999999
144
1.0
145
0.0
146
1.0
147
0.09
 71
     0
 72
     0
 73
     1
 74
     1
 75
     0
 76
     0
 77
     0
 78
     0
170
     0
171
     2
172
     0
173
     0
174
     0
175
     0
176
     0
177
     0
178
     0
  0
ENDTAB
  0
ENDSEC
  0
SECTION
  2
BLOCKS
  0
BLOCK
  8
0
  2
$MODEL_SPACE
 70
     0
 10
0.0
 20
0.0
 30
0.0
  3
$MODEL_SPACE
  1

  0
ENDBLK
  5
2E2
  8
0
  0
BLOCK
 67
     1
  8
0
  2
$PAPER_SPACE
 70
     0
 10
0.0
 20
0.0
 30
0.0
  3
$PAPER_SPACE
  1

  0
ENDBLK
  5
2E0
 67
     1
  8
0
  0
BLOCK
  8
0
  2
*X0
 70
     1
 10
0.0
 20
0.0
 30
0.0
  3
*X0
  1

  0
LINE
  5
31
  8
0
 62
     0
 10
231.5840732662509
 20
37.116503584637208
 30
0.0
 11
231.4695995653864
 21
37.230977285501609
 31
0.0
  0
LINE
  5
32
  8
0
 62
     0
 10
234.41250039099691
 20
37.116503584637208
 30
0.0
 11
231.4695995653864
 21
40.059404410247801
 31
0.0
  0
LINE
  5
33
  8
0
 62
     0
 10
236.87005683350611
 20
37.487374266874269
 30
0.0
 11
233.24092751574389
 21
41.116503584636511
 31
0.0
  0
LINE
  5
34
  8
0
 62
     0
 10
236.87005683350611
 20
40.315801391620468
 30
0.0
 11
236.06935464048999
 21
41.116503584636511
 31
0.0
  0
LINE
  5
35
  8
0
 62
     0
 10
211.09359956538611
 20
40.63641453702477
 30
0.0
 11
210.61351051777439
 21
41.116503584636511
 31
0.0
  0
LINE
  5
36
  8
0
 62
     0
 10
211.09359956538611
 20
37.807987412278578
 30
0.0
 11
207.7850833930282
 21
41.116503584636511
 31
0.0
  0
LINE
  5
37
  8
0
 62
     0
 10
208.95665626828131
 20
37.116503584637201
 30
0.0
 11
205.69314229726641
 21
40.380017555652159
 31
0.0
  0
LINE
  5
38
  8
0
 62
     0
 10
206.12822914353509
 20
37.116503584637201
 30
0.0
 11
205.69314229726641
 21
37.551590430905961
 31
0.0
  0
ENDBLK
  5
39
  8
0
  0
BLOCK
  8
0
  2
*X1
 70
     1
 10
0.0
 20
0.0
 30
0.0
  3
*X1
  1

  0
LINE
  5
3B
  8
0
 62
     0
 10
232.81199532760959
 20
48.616503584636277
 30
0.0
 11
232.31199532760951
 21
49.116503584636291
 31
0.0
  0
LINE
  5
3C
  8
0
 62
     0
 10
234.2262088899827
 20
48.616503584636277
 30
0.0
 11
233.7262088899827
 21
49.116503584636291
 31
0.0
  0
LINE
  5
3D
  8
0
 62
     0
 10
210.18457832964009
 20
48.616503584636277
 30
0.0
 11
209.68457832964009
 21
49.116503584636291
 31
0.0
  0
LINE
  5
3E
  8
0
 62
     0
 10
208.7703647672669
 20
48.616503584636277
 30
0.0
 11
208.2703647672669
 21
49.116503584636291
 31
0.0
  0
ENDBLK
  5
3F
  8
0
  0
BLOCK
  8
0
  2
*X2
 70
     1
 10
0.0
 20
0.0
 30
0.0
  3
*X2
  1

  0
LINE
  5
41
  8
0
 62
     0
 10
228.78333917028661
 20
40.624344461787913
 30
0.0
 11
228.11309121240319
 21
41.294592419671297
 31
0.0
  0
LINE
  5
42
  8
0
 62
     0
 10
229.23645709278699
 20
41.231886711067339
 30
0.0
 11
228.21734290820871
 21
42.251000895645639
 31
0.0
  0
LINE
  5
43
  8
0
 62
     0
 10
214.42650960087769
 20
41.192591798059198
 30
0.0
 11
213.40130281478659
 21
42.217798584150252
 31
0.0
  0
LINE
  5
44
  8
0
 62
     0
 10
213.93768376680799
 20
40.62075746034909
 30
0.0
 11
213.32680063989309
 21
41.231640587264003
 31
0.0
  0
ENDBLK
  5
45
  8
0
  0
BLOCK
  8
0
  2
*X3
 70
     1
 10
0.0
 20
0.0
 30
0.0
  3
*X3
  1

  0
LINE
  5
52
  8
0
 62
     0
 10
245.52408101136149
 20
88.546375587947836
 30
0.0
 11
249.26422299685859
 21
92.28651757344501
 31
0.0
  0
LINE
  5
53
  8
0
 62
     0
 10
263.27408101136132
 20
106.29637558794769
 30
0.0
 11
265.26422299685862
 21
108.286517573445
 31
0.0
  0
LINE
  5
54
  8
0
 62
     0
 10
245.2740810113616
 20
92.539016275067212
 30
0.0
 11
247.2740810113614
 21
94.539016275067155
 31
0.0
  0
LINE
  5
55
  8
0
 62
     0
 10
245.2740810113616
 20
96.781656962186474
 30
0.0
 11
247.2740810113614
 21
98.781656962186446
 31
0.0
  0
LINE
  5
56
  8
0
 62
     0
 10
245.27408101136149
 20
101.02429764930569
 30
0.0
 11
247.2740810113614
 21
103.02429764930569
 31
0.0
  0
LINE
  5
57
  8
0
 62
     0
 10
243.79366024838171
 20
103.7865175734452
 30
0.0
 11
247.2740810113614
 21
107.266938336425
 31
0.0
  0
LINE
  5
58
  8
0
 62
     0
 10
249.5068636839782
 20
88.286517573445252
 30
0.0
 11
250.37408101136131
 21
89.153734900828454
 31
0.0
  0
LINE
  5
59
  8
0
 62
     0
 10
263.27408101136132
 20
102.0537349008284
 30
0.0
 11
267.89047234766969
 21
106.6701262371369
 31
0.0
  0
LINE
  5
5A
  8
0
 62
     0
 10
263.27408101136132
 20
97.811094213709168
 30
0.0
 11
265.27408101136149
 21
99.811094213709339
 31
0.0
  0
LINE
  5
5B
  8
0
 62
     0
 10
269.24950437109749
 20
103.78651757344529
 30
0.0
 11
269.27408101136137
 21
103.8110942137092
 31
0.0
  0
LINE
  5
5C
  8
0
 62
     0
 10
260.17408101136158
 20
90.468453526590096
 30
0.0
 11
261.99214505821652
 21
92.286517573445025
 31
0.0
  0
LINE
  5
5D
  8
0
 62
     0
 10
263.27408101136132
 20
93.568453526589877
 30
0.0
 11
265.27408101136149
 21
95.568453526590076
 31
0.0
  0
LINE
  5
5E
  8
0
 62
     0
 10
260.17408101136152
 20
86.225812839470791
 30
0.0
 11
265.02408101136149
 21
91.075812839470757
 31
0.0
  0
LINE
  5
5F
  8
0
 62
     0
 10
265.23478574533601
 20
91.286517573445266
 30
0.0
 11
265.27408101136149
 21
91.325812839470814
 31
0.0
  0
LINE
  5
60
  8
0
 62
     0
 10
263.97742643245522
 20
85.786517573445252
 30
0.0
 11
265.02408101136149
 21
86.833172152351437
 31
0.0
  0
ENDBLK
  5
61
  8
0
  0
ENDSEC
  0
SECTION
  2
ENTITIES
  0
LINE
  5
64
  8
0
 10
187.1594633545007
 20
142.98525858063971
 30
0.0
 11
187.1594633545007
 21
150.48525858063951
 31
0.0
  0
LINE
  5
65
  8
3
 10
187.52606941009779
 20
138.98525858064039
 30
0.0
 11
187.1594633545007
 21
138.48525858063951
 31
0.0
  0
LINE
  5
66
  8
3
 10
195.9580086888152
 20
138.98525858064039
 30
0.0
 11
196.3246147444124
 21
138.48525858063951
 31
0.0
  0
LINE
  5
67
  8
0
 10
196.3246147444124
 20
138.98525858064039
 30
0.0
 11
196.3246147444124
 21
138.48525858063951
 31
0.0
  0
LINE
  5
68
  8
0
 10
176.15358178133661
 20
138.98525858064039
 30
0.0
 11
207.33049631757649
 21
138.98525858064039
 31
0.0
  0
LINE
  5
69
  8
0
 10
207.33049631757649
 20
142.98525858063971
 30
0.0
 11
176.15358178133661
 21
142.98525858063971
 31
0.0
  0
LINE
  5
6A
  8
0
 10
183.94781041539679
 20
142.98525858063971
 30
0.0
 11
183.94781041539679
 21
138.98525858064039
 31
0.0
  0
LINE
  5
6B
  8
0
 10
176.15358178133661
 20
142.98525858063971
 30
0.0
 11
176.15358178133661
 21
138.98525858064039
 31
0.0
  0
LINE
  5
6C
  8
0
 10
199.5362676835164
 20
142.98525858063971
 30
0.0
 11
199.5362676835164
 21
138.98525858064039
 31
0.0
  0
LINE
  5
6D
  8
0
 10
207.33049631757649
 20
142.98525858063971
 30
0.0
 11
207.33049631757649
 21
138.98525858064039
 31
0.0
  0
LINE
  5
6E
  8
0
 10
199.5362676835164
 20
202.39843760612811
 30
0.0
 11
201.57933237877239
 21
205.93712946146169
 31
0.0
  0
LINE
  5
6F
  8
0
 10
195.45013829300439
 20
202.39843760612811
 30
0.0
 11
199.5362676835164
 21
202.39843760612811
 31
0.0
  0
LINE
  5
70
  8
0
 10
183.94781041539639
 20
202.39843760612811
 30
0.0
 11
188.0339398059092
 21
202.39843760612811
 31
0.0
  0
LINE
  5
71
  8
0
 10
181.9047457201408
 20
205.9371294614613
 30
0.0
 11
183.94781041539639
 21
202.39843760612811
 31
0.0
  0
LINE
  5
72
  8
0
 10
183.94781041539659
 20
229.3984376061284
 30
0.0
 11
181.9047457201402
 21
225.8597457507941
 31
0.0
  0
LINE
  5
73
  8
0
 10
188.03393980591019
 20
229.3984376061284
 30
0.0
 11
183.94781041539659
 21
229.3984376061284
 31
0.0
  0
LINE
  5
74
  8
0
 10
199.53626768351671
 20
229.39843760612811
 30
0.0
 11
195.4501382930039
 21
229.39843760612811
 31
0.0
  0
LINE
  5
75
  8
0
 10
201.5793323787733
 20
225.85974575079359
 30
0.0
 11
199.53626768351671
 21
229.39843760612811
 31
0.0
  0
LINE
  5
76
  8
3
 10
194.74203904945651
 20
132.9852585806394
 30
0.0
 11
188.74203904945651
 21
129.48525858063951
 31
0.0
  0
LINE
  5
77
  8
3
 10
194.74203904945651
 20
129.48525858063951
 30
0.0
 11
188.74203904945651
 21
132.9852585806394
 31
0.0
  0
LINE
  5
78
  8
0
 10
184.99203904945651
 20
116.9852585806395
 30
0.0
 11
184.99203904945651
 21
116.4852585806394
 31
0.0
  0
LINE
  5
79
  8
0
 10
184.99203904945651
 20
116.9852585806395
 30
0.0
 11
198.49203904945651
 21
116.9852585806395
 31
0.0
  0
LINE
  5
7A
  8
0
 10
198.49203904945651
 20
116.9852585806395
 30
0.0
 11
198.49203904945651
 21
116.4852585806394
 31
0.0
  0
LINE
  5
7B
  8
0
 10
198.49203904945651
 20
116.4852585806395
 30
0.0
 11
184.99203904945651
 21
116.4852585806395
 31
0.0
  0
LINE
  5
7C
  8
0
 10
197.51554174135271
 20
115.9272601188658
 30
0.0
 11
197.51554174135271
 21
113.4982096235514
 31
0.0
  0
LINE
  5
7D
  8
0
 10
196.64203904945651
 20
111.9852585806388
 30
0.0
 11
186.8420390494569
 21
111.9852585806395
 31
0.0
  0
LINE
  5
7E
  8
0
 10
196.64203904945671
 20
111.9852585806395
 30
0.0
 11
197.51554174135271
 21
113.4982096235514
 31
0.0
  0
LINE
  5
7F
  8
0
 10
194.62879039540459
 20
115.9272601188658
 30
0.0
 11
194.62879039540459
 21
113.4982096235514
 31
0.0
  0
ARC
  5
80
  8
0
 10
196.07216606837861
 20
113.6058472273839
 30
0.0
 40
1.4473835659880101
 50
184.2648537032818
 51
304.26485370329863
  0
ARC
  5
81
  8
0
 10
196.07216606837861
 20
113.6058472273839
 30
0.0
 40
1.4473835659880101
 50
355.73514629661901
 51
355.73514629671701
  0
LINE
  5
82
  8
0
 10
185.96853635756071
 20
115.9272601188658
 30
0.0
 11
185.9685363575604
 21
113.4982096235514
 31
0.0
  0
LINE
  5
83
  8
0
 10
186.8420390494563
 20
111.9852585806395
 30
0.0
 11
185.9685363575604
 21
113.4982096235514
 31
0.0
  0
ARC
  5
84
  8
0
 10
187.41191203053441
 20
113.6058472273839
 30
0.0
 40
1.4473835659880101
 50
235.7351462967014
 51
355.7351462967182
  0
LINE
  5
85
  8
0
 10
188.85528770350851
 20
115.9272601188658
 30
0.0
 11
188.85528770350851
 21
113.4982096235514
 31
0.0
  0
ARC
  5
86
  8
0
 10
191.74203904945591
 20
115.93837898211579
 30
0.0
 40
3.7799153207197551
 50
220.2078187220751
 51
319.79218127795662
  0
LINE
  5
87
  8
0
 10
197.51554174135271
 20
115.9272601188658
 30
0.0
 11
198.49203904945651
 21
116.4852585806395
 31
0.0
  0
ARC
  5
88
  8
0
 10
196.07216606837861
 20
118.0629630636053
 30
0.0
 40
2.5777044829658
 50
235.94792701550671
 51
304.05207298449301
  0
ARC
  5
89
  8
0
 10
187.41191203053441
 20
118.0629630636053
 30
0.0
 40
2.5777044829658
 50
235.94792701550699
 51
304.05207298449318
  0
LINE
  5
8A
  8
0
 10
185.9685363575604
 20
115.9272601188658
 30
0.0
 11
184.99203904945651
 21
116.4852585806395
 31
0.0
  0
ARC
  5
8B
  8
0
 10
191.7420390494573
 20
125.1330742051659
 30
0.0
 40
9.6478156245263698
 50
252.5896629562416
 51
287.410337043749
  0
LINE
  5
8C
  8
0
 10
187.74203904945651
 20
132.9852585806394
 30
0.0
 11
187.74203904945651
 21
129.48525858063951
 31
0.0
  0
LINE
  5
8D
  8
0
 10
188.74203904945651
 20
132.9852585806394
 30
0.0
 11
188.74203904945651
 21
129.48525858063951
 31
0.0
  0
LINE
  5
8E
  8
0
 10
194.74203904945651
 20
132.9852585806394
 30
0.0
 11
194.74203904945651
 21
129.48525858063951
 31
0.0
  0
LINE
  5
8F
  8
0
 10
195.74203904945651
 20
129.48525858063951
 30
0.0
 11
187.74203904945651
 21
129.48525858063951
 31
0.0
  0
LINE
  5
90
  8
0
 10
195.74203904945651
 20
132.9852585806394
 30
0.0
 11
195.74203904945651
 21
129.48525858063951
 31
0.0
  0
LINE
  5
91
  8
0
 10
201.49203904945659
 20
135.48525858063951
 30
0.0
 11
201.01902670709629
 21
135.48525858063951
 31
0.0
  0
LINE
  5
92
  8
3
 10
195.95800868881591
 20
150.48525858063951
 30
0.0
 11
190.45891785486899
 21
142.98525858063971
 31
0.0
  0
LINE
  5
93
  8
3
 10
187.52606941009719
 20
150.48525858063951
 30
0.0
 11
193.02516024404409
 21
142.98525858063971
 31
0.0
  0
LINE
  5
94
  8
0
 10
187.1594633545007
 20
138.48525858063951
 30
0.0
 11
187.1594633545007
 21
138.98525858064039
 31
0.0
  0
LINE
  5
95
  8
0
 10
196.3246147444124
 20
150.48525858063951
 30
0.0
 11
196.3246147444124
 21
142.98525858063971
 31
0.0
  0
LINE
  5
96
  8
0
 10
200.49203904945659
 20
132.9852585806394
 30
0.0
 11
182.99203904945651
 21
132.9852585806394
 31
0.0
  0
LINE
  5
97
  8
0
 10
201.74203904945659
 20
138.48525858063951
 30
0.0
 11
181.74203904945659
 21
138.48525858063951
 31
0.0
  0
LINE
  5
98
  8
0
 10
205.24203904945659
 20
150.48525858063951
 30
0.0
 11
205.24203904945659
 21
150.98525858063951
 31
0.0
  0
LINE
  5
99
  8
0
 10
178.24203904945651
 20
150.48525858063951
 30
0.0
 11
178.24203904945651
 21
150.98525858063951
 31
0.0
  0
LINE
  5
9A
  8
0
 10
205.24203904945659
 20
150.48525858063951
 30
0.0
 11
178.24203904945651
 21
150.48525858063951
 31
0.0
  0
LINE
  5
9B
  8
0
 10
205.74203904945659
 20
152.48525858063951
 30
0.0
 11
177.74203904945659
 21
152.48525858063951
 31
0.0
  0
LINE
  5
9C
  8
0
 10
205.74203904945659
 20
152.48525858063951
 30
0.0
 11
202.74203904945651
 21
155.4852585806392
 31
0.0
  0
LINE
  5
9D
  8
0
 10
205.74203904945659
 20
150.98525858063951
 30
0.0
 11
205.74203904945659
 21
152.48525858063951
 31
0.0
  0
LINE
  5
9E
  8
0
 10
177.74203904945659
 20
150.98525858063951
 30
0.0
 11
205.74203904945659
 21
150.98525858063951
 31
0.0
  0
LINE
  5
9F
  8
0
 10
177.74203904945659
 20
152.48525858063951
 30
0.0
 11
177.74203904945659
 21
150.98525858063951
 31
0.0
  0
LINE
  5
A0
  8
0
 10
180.74203904945659
 20
155.4852585806392
 30
0.0
 11
177.74203904945659
 21
152.48525858063951
 31
0.0
  0
LINE
  5
A1
  8
0
 10
202.74203904945651
 20
155.4852585806392
 30
0.0
 11
180.74203904945659
 21
155.48525858063931
 31
0.0
  0
LINE
  5
A2
  8
0
 10
183.94781041539659
 20
76.168702256989022
 30
0.0
 11
199.53626768351629
 21
76.168702256988553
 31
0.0
  0
LINE
  5
A3
  8
0
 10
183.94781041539659
 20
49.168702256989022
 30
0.0
 11
199.53626768351629
 21
49.168702256988553
 31
0.0
  0
LINE
  5
A4
  8
0
 10
199.53626768351629
 20
76.168702256988553
 30
0.0
 11
207.33049631757649
 21
62.668702256988311
 31
0.0
  0
LINE
  5
A5
  8
0
 10
207.33049631757649
 20
62.668702256988311
 30
0.0
 11
199.53626768351629
 21
49.168702256988553
 31
0.0
  0
LINE
  5
A6
  8
0
 10
183.94781041539659
 20
76.168702256989022
 30
0.0
 11
176.1535817813367
 21
62.66870225698927
 31
0.0
  0
LINE
  5
A7
  8
0
 10
176.15358178133661
 20
62.66870225698927
 30
0.0
 11
183.94781041539659
 21
49.168702256989022
 31
0.0
  0
LINE
  5
A8
  8
0
 10
130.8953451255949
 20
112.1584636613961
 30
0.0
 11
130.8953451255949
 21
115.9272601188658
 31
0.0
  0
ARC
  5
A9
  8
0
 10
128.39534512559541
 20
122.7763704913083
 30
0.0
 40
7.2911119106689046
 50
249.947366318847
 51
290.05263368115288
  0
ARC
  5
AA
  8
0
 10
123.3953451255947
 20
122.7763704913083
 30
0.0
 40
7.2911119106689046
 50
249.9473663188472
 51
290.052633681153
  0
LINE
  5
AB
  8
0
 10
125.8953451255942
 20
113.49820962355091
 30
0.0
 11
125.8953451255942
 21
115.9272601188658
 31
0.0
  0
LINE
  5
AC
  8
0
 10
130.79534512559499
 20
111.9852585806388
 30
0.0
 11
130.8953451255949
 21
112.1584636613961
 31
0.0
  0
LINE
  5
AD
  8
0
 10
130.8953451255949
 20
115.4852585806395
 30
0.0
 11
132.6453451255949
 21
116.4852585806395
 31
0.0
  0
ARC
  5
AE
  8
0
 10
128.3953451255949
 20
115.16086839720531
 30
0.0
 40
3.0024047358092472
 50
213.62642913599839
 51
326.37357086400152
  0
ARC
  5
AF
  8
0
 10
123.3953451255949
 20
115.16086839720531
 30
0.0
 40
3.0024047358092472
 50
213.62642913599859
 51
326.37357086400158
  0
LINE
  5
B0
  8
0
 10
120.8953451255951
 20
115.4852585806395
 30
0.0
 11
119.1453451255952
 21
116.4852585806395
 31
0.0
  0
LINE
  5
B1
  8
0
 10
120.8953451255951
 20
112.1584636613961
 30
0.0
 11
120.8953451255949
 21
115.9272601188658
 31
0.0
  0
LINE
  5
B2
  8
0
 10
120.99534512559499
 20
111.9852585806388
 30
0.0
 11
120.8953451255951
 21
112.1584636613961
 31
0.0
  0
LINE
  5
B3
  8
0
 10
132.6453451255951
 20
116.9852585806395
 30
0.0
 11
119.1453451255952
 21
116.9852585806395
 31
0.0
  0
LINE
  5
B4
  8
0
 10
119.1453451255952
 20
116.9852585806395
 30
0.0
 11
119.1453451255952
 21
116.4852585806395
 31
0.0
  0
LINE
  5
B5
  8
0
 10
119.1453451255952
 20
116.4852585806395
 30
0.0
 11
132.6453451255951
 21
116.4852585806395
 31
0.0
  0
LINE
  5
B6
  8
0
 10
120.99534512559499
 20
111.9852585806388
 30
0.0
 11
130.79534512559451
 21
111.9852585806395
 31
0.0
  0
LINE
  5
B7
  8
0
 10
132.6453451255951
 20
116.4852585806395
 30
0.0
 11
132.6453451255951
 21
116.9852585806395
 31
0.0
  0
LINE
  5
B8
  8
1
 10
211.2420390494562
 20
215.89843760612811
 30
0.0
 11
172.24203904945679
 21
215.89843760612811
 31
0.0
  0
LINE
  5
B9
  8
1
 10
191.74203904945659
 20
235.39843760612811
 30
0.0
 11
191.74203904945659
 21
196.39843760612811
 31
0.0
  0
LINE
  5
BA
  8
1
 10
211.24203904945659
 20
62.668702256988787
 30
0.0
 11
172.24203904945651
 21
62.668702256988787
 31
0.0
  0
LINE
  5
BB
  8
1
 10
191.74203904945659
 20
82.168702256988794
 30
0.0
 11
191.74203904945659
 21
43.168702256988787
 31
0.0
  0
LINE
  5
BC
  8
0
 10
181.74203904945659
 20
58.08612656203298
 30
0.0
 11
181.74203904945659
 21
67.251277951944601
 31
0.0
  0
LINE
  5
BD
  8
0
 10
201.74203904945659
 20
58.08612656203298
 30
0.0
 11
201.74203904945659
 21
67.251277951944601
 31
0.0
  0
ARC
  5
BE
  8
0
 10
191.74203904945659
 20
62.668702256988787
 30
0.0
 40
10.188000000000001
 50
78.97592404213691
 51
101.0240759578632
  0
ARC
  5
BF
  8
3
 10
191.74203904945659
 20
62.668702256988787
 30
0.0
 40
11.0
 50
65.380022671342914
 51
114.619977328657
  0
LINE
  5
C0
  8
0
 10
196.3246147444124
 20
52.668702256988787
 30
0.0
 11
187.15946335450079
 21
52.668702256988787
 31
0.0
  0
LINE
  5
C1
  8
0
 10
196.3246147444124
 20
72.668702256988794
 30
0.0
 11
187.15946335450079
 21
72.668702256988794
 31
0.0
  0
ARC
  5
C2
  8
0
 10
191.74203904945659
 20
62.668702256988787
 30
0.0
 40
11.0
 50
294.61997732865711
 51
335.38002267134311
  0
ARC
  5
C3
  8
3
 10
191.74203904945659
 20
62.668702256988787
 30
0.0
 40
10.188000000000001
 50
281.02407595786309
 51
348.97592404213771
  0
ARC
  5
C4
  8
3
 10
191.74203904945639
 20
62.668702256988951
 30
0.0
 40
11.0
 50
155.38002267134291
 51
204.61997732865709
  0
ARC
  5
C5
  8
0
 10
191.74203904945639
 20
62.668702256988922
 30
0.0
 40
10.188000000000001
 50
168.97592404213691
 51
191.0240759578632
  0
ARC
  5
C6
  8
3
 10
191.74203904945639
 20
62.668702256988922
 30
0.0
 40
10.188000000000001
 50
11.02407595786309
 51
78.975924042137692
  0
ARC
  5
C7
  8
0
 10
191.74203904945639
 20
62.668702256988951
 30
0.0
 40
11.0
 50
24.619977328657068
 51
65.380022671343056
  0
ARC
  5
C8
  8
3
 10
191.74203904945631
 20
62.668702256988823
 30
0.0
 40
11.0
 50
245.38002267134291
 51
294.61997732865711
  0
ARC
  5
C9
  8
0
 10
191.74203904945631
 20
62.668702256988823
 30
0.0
 40
10.188000000000001
 50
258.97592404213691
 51
281.02407595786332
  0
ARC
  5
CA
  8
3
 10
191.74203904945631
 20
62.668702256988823
 30
0.0
 40
10.188000000000001
 50
101.024075957863
 51
168.97592404213759
  0
ARC
  5
CB
  8
0
 10
191.74203904945631
 20
62.668702256988823
 30
0.0
 40
11.0
 50
114.619977328657
 51
155.380022671343
  0
ARC
  5
CC
  8
3
 10
191.74203904945639
 20
62.668702256988681
 30
0.0
 40
11.0
 50
335.38002267134289
 51
24.619977328657068
  0
ARC
  5
CD
  8
0
 10
191.74203904945639
 20
62.668702256988709
 30
0.0
 40
10.188000000000001
 50
348.97592404213691
 51
11.024075957863239
  0
ARC
  5
CE
  8
3
 10
191.74203904945639
 20
62.668702256988709
 30
0.0
 40
10.188000000000001
 50
191.02407595786309
 51
258.97592404213782
  0
ARC
  5
CF
  8
0
 10
191.74203904945639
 20
62.668702256988681
 30
0.0
 40
11.0
 50
204.61997732865709
 51
245.38002267134311
  0
CIRCLE
  5
D0
  8
0
 10
191.74203904945659
 20
62.668702256988787
 30
0.0
 40
5.0
  0
CIRCLE
  5
D1
  8
3
 10
191.74203904945659
 20
62.668702256988787
 30
0.0
 40
3.0
  0
CIRCLE
  5
D2
  8
0
 10
191.74203904945659
 20
62.668702256988787
 30
0.0
 40
2.458499999999999
  0
LINE
  5
D3
  8
0
 10
187.74203904945651
 20
59.66870225698888
 30
0.0
 11
187.74203904945651
 21
65.668702256988695
 31
0.0
  0
LINE
  5
D4
  8
0
 10
188.74203904945651
 20
66.668702256988794
 30
0.0
 11
194.74203904945651
 21
66.668702256988794
 31
0.0
  0
LINE
  5
D5
  8
0
 10
195.74203904945651
 20
65.668702256988695
 30
0.0
 11
195.74203904945651
 21
59.66870225698888
 31
0.0
  0
LINE
  5
D6
  8
0
 10
194.74203904945651
 20
58.668702256988787
 30
0.0
 11
188.74203904945651
 21
58.668702256988787
 31
0.0
  0
LINE
  5
D7
  8
0
 10
195.74203904945651
 20
65.668702256988794
 30
0.0
 11
201.01902670709629
 21
65.668702256988794
 31
0.0
  0
CIRCLE
  5
D8
  8
0
 10
191.74203904945659
 20
62.668702256988787
 30
0.0
 40
9.75
  0
LINE
  5
D9
  8
0
 10
188.74203904945651
 20
58.66870225698932
 30
0.0
 11
188.74203904945651
 21
53.39171459934888
 31
0.0
  0
LINE
  5
DA
  8
0
 10
181.99203904945651
 20
133.9852585806394
 30
0.0
 11
181.99203904945659
 21
138.48525858063951
 31
0.0
  0
ARC
  5
DB
  8
0
 10
182.99203904945651
 20
133.9852585806394
 30
0.0
 40
1.0
 50
179.9999999999998
 51
270.0
  0
LINE
  5
DC
  8
0
 10
201.49203904945659
 20
135.48525858063951
 30
0.0
 11
201.49203904945659
 21
138.48525858063951
 31
0.0
  0
LINE
  5
DD
  8
0
 10
201.01902670709629
 20
133.9852585806394
 30
0.0
 11
201.01902670709629
 21
135.48525858063951
 31
0.0
  0
POLYLINE
  5
DE
  8
0
 66
     1
 10
0.0
 20
0.0
 30
0.0
  0
VERTEX
  5
DF
  8
0
 10
200.49203904945659
 20
132.9852585806394
 30
0.0
 42
0.1680937180862847
  0
VERTEX
  5
E0
  8
0
 10
200.67262758133691
 20
133.0477354924345
 30
0.0
 42
0.1052978660959511
  0
VERTEX
  5
E1
  8
0
 10
200.8646755957752
 20
133.2781517994529
 30
0.0
 42
0.0676252060446964
 70
     2
 50
62.211322907475832
  0
VERTEX
  5
E2
  8
0
 10
200.9890653468297
 20
133.6189623000804
 30
0.0
 42
0.0667491529464663
 50
62.211322907475832
  0
VERTEX
  5
E3
  8
0
 10
201.01902670709629
 20
133.9852585806394
 30
0.0
 42
0.0537803369482067
  0
SEQEND
  5
E4
  8
0
  0
POLYLINE
  5
E5
  8
0
 66
     1
 10
0.0
 20
0.0
 30
0.0
  0
VERTEX
  5
E6
  8
0
 10
117.1453451255951
 20
132.9852585806394
 30
0.0
 42
-0.1680937180862847
  0
VERTEX
  5
E7
  8
0
 10
116.9647565937148
 20
133.0477354924345
 30
0.0
 42
-0.1052978660959511
  0
VERTEX
  5
E8
  8
0
 10
116.7727085792765
 20
133.2781517994529
 30
0.0
 42
-0.0676252060446964
 70
     2
 50
117.7886770925242
  0
VERTEX
  5
E9
  8
0
 10
116.6483188282219
 20
133.6189623000804
 30
0.0
 42
-0.0667491529464663
  0
VERTEX
  5
EA
  8
0
 10
116.61835746795541
 20
133.9852585806394
 30
0.0
 42
-0.0537803369482067
  0
SEQEND
  5
EB
  8
0
  0
LINE
  5
EC
  8
0
 10
116.61835746795541
 20
133.9852585806394
 30
0.0
 11
116.61835746795541
 21
135.48525858063951
 31
0.0
  0
LINE
  5
ED
  8
0
 10
116.1453451255951
 20
135.48525858063951
 30
0.0
 11
116.1453451255952
 21
138.48525858063951
 31
0.0
  0
ARC
  5
EE
  8
0
 10
134.6453451255951
 20
133.9852585806394
 30
0.0
 40
1.0
 50
270.00000000000011
 51
0.0000000000001781
  0
LINE
  5
EF
  8
0
 10
135.6453451255951
 20
133.9852585806394
 30
0.0
 11
135.6453451255951
 21
138.48525858063951
 31
0.0
  0
LINE
  5
F0
  8
0
 10
117.1453451255951
 20
132.9852585806394
 30
0.0
 11
134.6453451255951
 21
132.9852585806394
 31
0.0
  0
LINE
  5
F1
  8
0
 10
116.1453451255951
 20
135.48525858063951
 30
0.0
 11
116.61835746795541
 21
135.48525858063951
 31
0.0
  0
LINE
  5
F2
  8
0
 10
129.8953451255951
 20
132.9852585806394
 30
0.0
 11
129.8953451255951
 21
129.48525858063951
 31
0.0
  0
LINE
  5
F3
  8
0
 10
129.8953451255951
 20
129.48525858063951
 30
0.0
 11
121.8953451255951
 21
129.48525858063951
 31
0.0
  0
LINE
  5
F4
  8
0
 10
128.8953451255951
 20
132.9852585806394
 30
0.0
 11
128.8953451255951
 21
129.48525858063951
 31
0.0
  0
LINE
  5
F5
  8
0
 10
122.8953451255951
 20
132.9852585806394
 30
0.0
 11
122.8953451255951
 21
129.48525858063951
 31
0.0
  0
LINE
  5
F6
  8
0
 10
121.8953451255951
 20
132.9852585806394
 30
0.0
 11
121.8953451255951
 21
129.48525858063951
 31
0.0
  0
LINE
  5
F7
  8
3
 10
128.8953451255951
 20
129.48525858063951
 30
0.0
 11
122.8953451255951
 21
132.9852585806394
 31
0.0
  0
LINE
  5
F8
  8
3
 10
128.8953451255951
 20
132.9852585806394
 30
0.0
 11
122.8953451255951
 21
129.48525858063951
 31
0.0
  0
LINE
  5
F9
  8
0
 10
125.8953451255951
 20
142.98525858063971
 30
0.0
 11
125.8953451255951
 21
138.98525858064039
 31
0.0
  0
LINE
  5
FA
  8
0
 10
139.39534512559479
 20
142.98525858063971
 30
0.0
 11
112.3953451255948
 21
142.98525858063971
 31
0.0
  0
LINE
  5
FB
  8
0
 10
112.3953451255949
 20
138.98525858064039
 30
0.0
 11
139.3953451255949
 21
138.98525858064039
 31
0.0
  0
POLYLINE
  5
FC
  8
0
 66
     1
 10
0.0
 20
0.0
 30
0.0
  0
VERTEX
  5
FD
  8
0
 10
55.830982061197062
 20
132.9852585806394
 30
0.0
 42
-0.1680937180862847
  0
VERTEX
  5
FE
  8
0
 10
55.650393529316801
 20
133.0477354924345
 30
0.0
 42
-0.1052978660959511
  0
VERTEX
  5
FF
  8
0
 10
55.458345514878431
 20
133.2781517994529
 30
0.0
 42
-0.0676252060446964
 70
     2
 50
117.7886770925242
  0
VERTEX
  5
100
  8
0
 10
55.333955763823923
 20
133.6189623000804
 30
0.0
 42
-0.0667491529464663
  0
VERTEX
  5
101
  8
0
 10
55.303994403557361
 20
133.9852585806394
 30
0.0
 42
-0.0537803369482067
  0
SEQEND
  5
102
  8
0
  0
LINE
  5
103
  8
0
 10
55.303994403557361
 20
133.9852585806394
 30
0.0
 11
55.303994403557361
 21
135.48525858063951
 31
0.0
  0
LINE
  5
104
  8
0
 10
54.830982061197062
 20
135.48525858063951
 30
0.0
 11
54.830982061197119
 21
138.48525858063951
 31
0.0
  0
ARC
  5
105
  8
0
 10
73.330982061197105
 20
133.9852585806394
 30
0.0
 40
1.0
 50
270.00000000000011
 51
0.0000000000001781
  0
LINE
  5
106
  8
0
 10
74.330982061197105
 20
133.9852585806394
 30
0.0
 11
74.330982061197076
 21
138.48525858063951
 31
0.0
  0
LINE
  5
107
  8
0
 10
55.830982061197062
 20
132.9852585806394
 30
0.0
 11
60.580982061197091
 21
132.9852585806394
 31
0.0
  0
LINE
  5
108
  8
0
 10
54.830982061197091
 20
135.48525858063951
 30
0.0
 11
67.580982061197318
 21
135.48525858063951
 31
0.0
  0
LINE
  5
109
  8
0
 10
60.580982061197091
 20
132.9852585806394
 30
0.0
 11
60.580982061197091
 21
129.48525858063951
 31
0.0
  0
LINE
  5
10A
  8
0
 10
60.580982061197091
 20
129.48525858063951
 30
0.0
 11
68.580982061197091
 21
129.48525858063951
 31
0.0
  0
LINE
  5
10B
  8
0
 10
61.580982061197091
 20
132.9852585806394
 30
0.0
 11
61.580982061197091
 21
129.48525858063951
 31
0.0
  0
LINE
  5
10C
  8
0
 10
67.580982061197091
 20
132.9852585806394
 30
0.0
 11
67.580982061197091
 21
129.48525858063951
 31
0.0
  0
LINE
  5
10D
  8
0
 10
68.580982061197091
 20
132.9852585806394
 30
0.0
 11
68.580982061197091
 21
129.48525858063951
 31
0.0
  0
ARC
  5
10E
  8
0
 10
64.580982061196295
 20
125.1330742051659
 30
0.0
 40
9.6478156245263698
 50
252.589662956251
 51
287.41033704375837
  0
LINE
  5
10F
  8
0
 10
70.35448475309326
 20
115.9272601188658
 30
0.0
 11
71.330982061197091
 21
116.4852585806395
 31
0.0
  0
ARC
  5
110
  8
0
 10
68.911109080119189
 20
118.0629630636053
 30
0.0
 40
2.5777044829658
 50
235.94792701550679
 51
304.05207298449301
  0
ARC
  5
111
  8
0
 10
60.250855042274992
 20
118.0629630636053
 30
0.0
 40
2.5777044829658
 50
235.9479270155071
 51
304.05207298449329
  0
LINE
  5
112
  8
0
 10
58.807479369300921
 20
115.9272601188658
 30
0.0
 11
57.830982061197091
 21
116.4852585806395
 31
0.0
  0
ARC
  5
113
  8
0
 10
64.580982061197773
 20
115.93837898211579
 30
0.0
 40
3.7799153207197551
 50
220.20781872204341
 51
319.79218127792501
  0
LINE
  5
114
  8
0
 10
67.467733407145104
 20
115.9272601188658
 30
0.0
 11
67.467733407145104
 21
113.4982096235514
 31
0.0
  0
ARC
  5
115
  8
0
 10
68.911109080119189
 20
113.6058472273839
 30
0.0
 40
1.4473835659880101
 50
184.26485370328189
 51
304.26485370329863
  0
LINE
  5
116
  8
0
 10
69.480982061197295
 20
111.9852585806395
 30
0.0
 11
70.35448475309326
 21
113.4982096235514
 31
0.0
  0
LINE
  5
117
  8
0
 10
70.354484753092919
 20
115.9272601188658
 30
0.0
 11
70.35448475309326
 21
113.4982096235514
 31
0.0
  0
ARC
  5
118
  8
0
 10
60.250855042274992
 20
113.6058472273839
 30
0.0
 40
1.4473835659880101
 50
184.26485370328299
 51
184.26485370338099
  0
ARC
  5
119
  8
0
 10
60.250855042274992
 20
113.6058472273839
 30
0.0
 40
1.4473835659880101
 50
235.7351462967014
 51
355.7351462967182
  0
LINE
  5
11A
  8
0
 10
61.694230715249063
 20
115.9272601188658
 30
0.0
 11
61.694230715249063
 21
113.4982096235514
 31
0.0
  0
LINE
  5
11B
  8
0
 10
59.680982061196879
 20
111.9852585806395
 30
0.0
 11
58.807479369300921
 21
113.4982096235514
 31
0.0
  0
LINE
  5
11C
  8
0
 10
59.680982061197113
 20
111.9852585806388
 30
0.0
 11
69.480982061196727
 21
111.9852585806395
 31
0.0
  0
LINE
  5
11D
  8
0
 10
58.807479369300921
 20
115.9272601188658
 30
0.0
 11
58.807479369300921
 21
113.4982096235514
 31
0.0
  0
LINE
  5
11E
  8
0
 10
57.830982061197091
 20
116.4852585806395
 30
0.0
 11
71.330982061197091
 21
116.4852585806395
 31
0.0
  0
LINE
  5
11F
  8
0
 10
57.830982061197091
 20
116.9852585806395
 30
0.0
 11
57.830982061197091
 21
116.4852585806394
 31
0.0
  0
LINE
  5
120
  8
0
 10
71.330982061197091
 20
116.9852585806395
 30
0.0
 11
57.830982061197091
 21
116.9852585806395
 31
0.0
  0
LINE
  5
121
  8
0
 10
71.330982061197091
 20
116.9852585806395
 30
0.0
 11
71.330982061197091
 21
116.4852585806394
 31
0.0
  0
LINE
  5
122
  8
3
 10
61.580982061197091
 20
129.48525858063951
 30
0.0
 11
67.580982061197091
 21
132.9852585806394
 31
0.0
  0
LINE
  5
123
  8
3
 10
61.580982061197091
 20
132.9852585806394
 30
0.0
 11
67.580982061197091
 21
129.48525858063951
 31
0.0
  0
LINE
  5
124
  8
0
 10
48.992524793077187
 20
142.98525858063971
 30
0.0
 11
48.992524793077187
 21
138.98525858064039
 31
0.0
  0
LINE
  5
125
  8
0
 10
56.786753427137199
 20
142.98525858063971
 30
0.0
 11
56.786753427137199
 21
138.98525858064039
 31
0.0
  0
LINE
  5
126
  8
0
 10
80.169439329316987
 20
142.98525858063971
 30
0.0
 11
80.169439329316987
 21
138.98525858064039
 31
0.0
  0
LINE
  5
127
  8
0
 10
72.375210695256868
 20
142.98525858063971
 30
0.0
 11
72.375210695256868
 21
138.98525858064039
 31
0.0
  0
LINE
  5
128
  8
0
 10
48.992524793077187
 20
142.98525858063971
 30
0.0
 11
80.169439329316987
 21
142.98525858063971
 31
0.0
  0
LINE
  5
129
  8
0
 10
80.169439329316987
 20
138.98525858064039
 30
0.0
 11
48.992524793077187
 21
138.98525858064039
 31
0.0
  0
LINE
  5
12A
  8
0
 10
139.39534512559479
 20
142.98525858063971
 30
0.0
 11
139.3953451255949
 21
138.98525858064039
 31
0.0
  0
LINE
  5
12B
  8
0
 10
112.3953451255948
 20
142.98525858063971
 30
0.0
 11
112.3953451255949
 21
138.98525858064039
 31
0.0
  0
LINE
  5
12C
  8
0
 10
67.580982061197318
 20
132.9852585806394
 30
0.0
 11
67.580982061197318
 21
135.48525858063951
 31
0.0
  0
LINE
  5
12D
  8
0
 10
59.580982061197091
 20
135.48525858063951
 30
0.0
 11
59.580982061197091
 21
132.9852585806394
 31
0.0
  0
LINE
  5
12E
  8
0
 10
61.580982061197091
 20
132.9852585806394
 30
0.0
 11
73.330982061197105
 21
132.9852585806394
 31
0.0
  0
LINE
  5
12F
  8
0
 10
271.99250132922322
 20
142.98525858063971
 30
0.0
 11
271.99250132922299
 21
138.98525858064039
 31
0.0
  0
LINE
  5
130
  8
0
 10
244.99250132922319
 20
142.98525858063971
 30
0.0
 11
244.99250132922299
 21
138.98525858064039
 31
0.0
  0
LINE
  5
131
  8
0
 10
271.99250132922299
 20
138.98525858064039
 30
0.0
 11
244.99250132922299
 21
138.98525858064039
 31
0.0
  0
LINE
  5
132
  8
0
 10
244.99250132922319
 20
142.98525858063971
 30
0.0
 11
271.99250132922322
 21
142.98525858063971
 31
0.0
  0
LINE
  5
133
  8
0
 10
258.49250132922288
 20
142.98525858063971
 30
0.0
 11
258.49250132922288
 21
138.98525858064039
 31
0.0
  0
LINE
  5
134
  8
3
 10
255.49250132922279
 20
132.9852585806394
 30
0.0
 11
261.49250132922282
 21
129.48525858063951
 31
0.0
  0
LINE
  5
135
  8
3
 10
255.49250132922279
 20
129.48525858063951
 30
0.0
 11
261.49250132922282
 21
132.9852585806394
 31
0.0
  0
LINE
  5
136
  8
0
 10
262.49250132922282
 20
132.9852585806394
 30
0.0
 11
262.49250132922282
 21
129.48525858063951
 31
0.0
  0
LINE
  5
137
  8
0
 10
261.49250132922282
 20
132.9852585806394
 30
0.0
 11
261.49250132922282
 21
129.48525858063951
 31
0.0
  0
LINE
  5
138
  8
0
 10
255.49250132922279
 20
132.9852585806394
 30
0.0
 11
255.49250132922279
 21
129.48525858063951
 31
0.0
  0
LINE
  5
139
  8
0
 10
254.49250132922279
 20
129.48525858063951
 30
0.0
 11
262.49250132922282
 21
129.48525858063951
 31
0.0
  0
LINE
  5
13A
  8
0
 10
254.49250132922279
 20
132.9852585806394
 30
0.0
 11
254.49250132922279
 21
129.48525858063951
 31
0.0
  0
LINE
  5
13B
  8
1
 10
258.49250132922282
 20
106.9852585806391
 30
0.0
 11
258.49250132922282
 21
160.4852585806392
 31
0.0
  0
LINE
  5
13C
  8
0
 10
251.74250132922279
 20
116.4852585806395
 30
0.0
 11
251.74250132922279
 21
116.9852585806395
 31
0.0
  0
LINE
  5
13D
  8
0
 10
263.39250132922291
 20
111.9852585806388
 30
0.0
 11
253.59250132922341
 21
111.9852585806395
 31
0.0
  0
LINE
  5
13E
  8
0
 10
265.24250132922282
 20
116.4852585806395
 30
0.0
 11
251.74250132922279
 21
116.4852585806395
 31
0.0
  0
LINE
  5
13F
  8
0
 10
265.24250132922282
 20
116.9852585806395
 30
0.0
 11
265.24250132922282
 21
116.4852585806395
 31
0.0
  0
LINE
  5
140
  8
0
 10
251.74250132922279
 20
116.9852585806395
 30
0.0
 11
265.24250132922282
 21
116.9852585806395
 31
0.0
  0
LINE
  5
141
  8
0
 10
263.39250132922291
 20
111.9852585806388
 30
0.0
 11
263.49250132922282
 21
112.1584636613961
 31
0.0
  0
LINE
  5
142
  8
0
 10
263.49250132922282
 20
112.1584636613961
 30
0.0
 11
263.49250132922299
 21
115.9272601188658
 31
0.0
  0
LINE
  5
143
  8
0
 10
263.49250132922282
 20
115.4852585806395
 30
0.0
 11
265.24250132922282
 21
116.4852585806395
 31
0.0
  0
ARC
  5
144
  8
0
 10
260.99250132922299
 20
115.16086839720531
 30
0.0
 40
3.0024047358092472
 50
213.62642913599839
 51
326.37357086400141
  0
ARC
  5
145
  8
0
 10
255.9925013292231
 20
115.16086839720531
 30
0.0
 40
3.0024047358092472
 50
213.62642913599859
 51
326.37357086400158
  0
LINE
  5
146
  8
0
 10
253.49250132922299
 20
115.4852585806395
 30
0.0
 11
251.7425013292231
 21
116.4852585806395
 31
0.0
  0
LINE
  5
147
  8
0
 10
253.59250132922301
 20
111.9852585806388
 30
0.0
 11
253.49250132922299
 21
112.1584636613961
 31
0.0
  0
LINE
  5
148
  8
0
 10
258.49250132922373
 20
113.49820962355091
 30
0.0
 11
258.49250132922373
 21
115.9272601188658
 31
0.0
  0
ARC
  5
149
  8
0
 10
260.99250132922327
 20
122.7763704913083
 30
0.0
 40
7.2911119106689046
 50
249.94736631884689
 51
290.05263368115283
  0
ARC
  5
14A
  8
0
 10
255.99250132922259
 20
122.7763704913083
 30
0.0
 40
7.2911119106689046
 50
249.94736631884709
 51
290.05263368115288
  0
LINE
  5
14B
  8
0
 10
253.49250132922299
 20
112.1584636613961
 30
0.0
 11
253.49250132922299
 21
115.9272601188658
 31
0.0
  0
LINE
  5
14C
  8
0
 10
261.49250132922282
 20
132.9852585806394
 30
0.0
 11
249.74250132922279
 21
132.9852585806394
 31
0.0
  0
LINE
  5
14D
  8
0
 10
263.49250132922282
 20
135.48525858063951
 30
0.0
 11
263.49250132922282
 21
132.9852585806394
 31
0.0
  0
LINE
  5
14E
  8
0
 10
255.49250132922259
 20
132.9852585806394
 30
0.0
 11
255.49250132922259
 21
135.48525858063951
 31
0.0
  0
LINE
  5
14F
  8
0
 10
268.24250132922282
 20
135.48525858063951
 30
0.0
 11
255.49250132922259
 21
135.48525858063951
 31
0.0
  0
LINE
  5
150
  8
0
 10
267.24250132922288
 20
132.9852585806394
 30
0.0
 11
262.49250132922282
 21
132.9852585806394
 31
0.0
  0
LINE
  5
151
  8
0
 10
248.74250132922279
 20
133.9852585806394
 30
0.0
 11
248.7425013292229
 21
138.48525858063951
 31
0.0
  0
ARC
  5
152
  8
0
 10
249.74250132922279
 20
133.9852585806394
 30
0.0
 40
1.0
 50
179.9999999999998
 51
270.0
  0
LINE
  5
153
  8
0
 10
268.24250132922288
 20
135.48525858063951
 30
0.0
 11
268.24250132922282
 21
138.48525858063951
 31
0.0
  0
LINE
  5
154
  8
0
 10
267.7694889868626
 20
133.9852585806394
 30
0.0
 11
267.7694889868626
 21
135.48525858063951
 31
0.0
  0
POLYLINE
  5
155
  8
0
 66
     1
 10
0.0
 20
0.0
 30
0.0
  0
VERTEX
  5
156
  8
0
 10
267.24250132922288
 20
132.9852585806394
 30
0.0
 42
0.1680937180862847
  0
VERTEX
  5
157
  8
0
 10
267.42308986110311
 20
133.0477354924345
 30
0.0
 42
0.1052978660959511
  0
VERTEX
  5
158
  8
0
 10
267.61513787554151
 20
133.2781517994529
 30
0.0
 42
0.0676252060446964
 70
     2
 50
62.211322907475818
  0
VERTEX
  5
159
  8
0
 10
267.73952762659599
 20
133.6189623000804
 30
0.0
 42
0.0667491529464663
  0
VERTEX
  5
15A
  8
0
 10
267.7694889868626
 20
133.9852585806394
 30
0.0
 42
0.0537803369482067
  0
SEQEND
  5
15B
  8
0
  0
LINE
  5
15C
  8
0
 10
261.49250132922282
 20
117.9852585806394
 30
0.0
 11
255.4925013292229
 21
117.9852585806395
 31
0.0
  0
LINE
  5
15D
  8
0
 10
261.49250132922282
 20
123.9852585806394
 30
0.0
 11
255.49250132922279
 21
123.9852585806395
 31
0.0
  0
LINE
  5
15E
  8
0
 10
260.49250132922282
 20
124.9852585806394
 30
0.0
 11
261.49250132922282
 21
123.9852585806394
 31
0.0
  0
LINE
  5
15F
  8
0
 10
255.49250132922279
 20
123.9852585806395
 30
0.0
 11
256.49250132922282
 21
124.9852585806395
 31
0.0
  0
LINE
  5
160
  8
0
 10
255.49250132922279
 20
116.9852585806395
 30
0.0
 11
255.49250132922279
 21
123.9852585806395
 31
0.0
  0
LINE
  5
161
  8
3
 10
256.03400132922269
 20
117.9852585806395
 30
0.0
 11
256.03400132922269
 21
124.5267585806394
 31
0.0
  0
LINE
  5
162
  8
3
 10
260.95100132922289
 20
117.9852585806394
 30
0.0
 11
260.95100132922289
 21
124.5267585806393
 31
0.0
  0
LINE
  5
163
  8
0
 10
261.49250132922282
 20
116.9852585806395
 30
0.0
 11
261.49250132922282
 21
123.9852585806394
 31
0.0
  0
LINE
  5
164
  8
0
 10
256.49250132922282
 20
124.9852585806395
 30
0.0
 11
260.49250132922282
 21
124.9852585806394
 31
0.0
  0
LINE
  5
165
  8
0
 10
193.74203904945651
 20
124.9852585806395
 30
0.0
 11
189.74203904945651
 21
124.9852585806394
 31
0.0
  0
LINE
  5
166
  8
0
 10
188.74203904945651
 20
116.9852585806395
 30
0.0
 11
188.74203904945651
 21
123.9852585806394
 31
0.0
  0
LINE
  5
167
  8
3
 10
189.28353904945649
 20
117.9852585806394
 30
0.0
 11
189.28353904945649
 21
124.5267585806393
 31
0.0
  0
LINE
  5
168
  8
3
 10
194.20053904945661
 20
117.9852585806395
 30
0.0
 11
194.20053904945661
 21
124.5267585806394
 31
0.0
  0
LINE
  5
169
  8
0
 10
194.74203904945659
 20
116.9852585806395
 30
0.0
 11
194.74203904945651
 21
123.9852585806395
 31
0.0
  0
LINE
  5
16A
  8
0
 10
194.74203904945651
 20
123.9852585806395
 30
0.0
 11
193.74203904945651
 21
124.9852585806395
 31
0.0
  0
LINE
  5
16B
  8
0
 10
189.74203904945651
 20
124.9852585806394
 30
0.0
 11
188.74203904945651
 21
123.9852585806394
 31
0.0
  0
LINE
  5
16C
  8
0
 10
188.74203904945651
 20
123.9852585806394
 30
0.0
 11
194.74203904945651
 21
123.9852585806395
 31
0.0
  0
LINE
  5
16D
  8
0
 10
188.74203904945651
 20
117.9852585806394
 30
0.0
 11
194.74203904945651
 21
117.9852585806395
 31
0.0
  0
LINE
  5
16E
  8
0
 10
127.8953451255951
 20
124.9852585806395
 30
0.0
 11
123.8953451255951
 21
124.9852585806394
 31
0.0
  0
LINE
  5
16F
  8
0
 10
122.8953451255951
 20
116.9852585806395
 30
0.0
 11
122.8953451255951
 21
123.9852585806394
 31
0.0
  0
LINE
  5
170
  8
3
 10
123.436845125595
 20
117.9852585806394
 30
0.0
 11
123.436845125595
 21
124.5267585806393
 31
0.0
  0
LINE
  5
171
  8
3
 10
128.3538451255952
 20
117.9852585806395
 30
0.0
 11
128.3538451255952
 21
124.5267585806394
 31
0.0
  0
LINE
  5
172
  8
0
 10
128.8953451255951
 20
116.9852585806395
 30
0.0
 11
128.8953451255951
 21
123.9852585806395
 31
0.0
  0
LINE
  5
173
  8
0
 10
128.8953451255951
 20
123.9852585806395
 30
0.0
 11
127.8953451255951
 21
124.9852585806395
 31
0.0
  0
LINE
  5
174
  8
0
 10
123.8953451255951
 20
124.9852585806394
 30
0.0
 11
122.8953451255951
 21
123.9852585806394
 31
0.0
  0
LINE
  5
175
  8
0
 10
122.8953451255951
 20
123.9852585806394
 30
0.0
 11
128.8953451255951
 21
123.9852585806395
 31
0.0
  0
LINE
  5
176
  8
0
 10
122.8953451255951
 20
117.9852585806394
 30
0.0
 11
128.8953451255951
 21
117.9852585806395
 31
0.0
  0
LINE
  5
177
  8
0
 10
66.580982061197062
 20
124.9852585806395
 30
0.0
 11
62.580982061197062
 21
124.9852585806394
 31
0.0
  0
LINE
  5
178
  8
0
 10
61.580982061197062
 20
116.9852585806395
 30
0.0
 11
61.580982061197062
 21
123.9852585806394
 31
0.0
  0
LINE
  5
179
  8
3
 10
62.12248206119699
 20
117.9852585806394
 30
0.0
 11
62.12248206119699
 21
124.5267585806393
 31
0.0
  0
LINE
  5
17A
  8
3
 10
67.039482061197191
 20
117.9852585806395
 30
0.0
 11
67.039482061197191
 21
124.5267585806394
 31
0.0
  0
LINE
  5
17B
  8
0
 10
67.580982061197105
 20
116.9852585806395
 30
0.0
 11
67.580982061197062
 21
123.9852585806395
 31
0.0
  0
LINE
  5
17C
  8
0
 10
67.580982061197062
 20
123.9852585806395
 30
0.0
 11
66.580982061197062
 21
124.9852585806395
 31
0.0
  0
LINE
  5
17D
  8
0
 10
62.580982061197062
 20
124.9852585806394
 30
0.0
 11
61.580982061197062
 21
123.9852585806394
 31
0.0
  0
LINE
  5
17E
  8
0
 10
61.580982061197062
 20
123.9852585806394
 30
0.0
 11
67.580982061197062
 21
123.9852585806395
 31
0.0
  0
LINE
  5
17F
  8
0
 10
61.580982061197062
 20
117.9852585806394
 30
0.0
 11
67.580982061197062
 21
117.9852585806395
 31
0.0
  0
LINE
  5
180
  8
0
 10
181.74203904945659
 20
138.48525858063951
 30
0.0
 11
181.74203904945659
 21
138.98525858064031
 31
0.0
  0
LINE
  5
181
  8
0
 10
201.74203904945659
 20
138.48525858063951
 30
0.0
 11
201.74203904945659
 21
138.98525858064039
 31
0.0
  0
LINE
  5
182
  8
0
 10
201.74203904945659
 20
142.98525858063971
 30
0.0
 11
201.74203904945659
 21
150.48525858063951
 31
0.0
  0
LINE
  5
183
  8
0
 10
181.74203904945659
 20
142.98525858063971
 30
0.0
 11
181.74203904945659
 21
150.48525858063951
 31
0.0
  0
LINE
  5
184
  8
0
 10
248.4925013292229
 20
142.98525858063971
 30
0.0
 11
248.4925013292229
 21
150.48525858063951
 31
0.0
  0
LINE
  5
185
  8
0
 10
268.49250132922288
 20
142.98525858063971
 30
0.0
 11
268.49250132922288
 21
150.48525858063951
 31
0.0
  0
LINE
  5
186
  8
0
 10
268.49250132922288
 20
138.48525858063951
 30
0.0
 11
268.49250132922288
 21
138.98525858064039
 31
0.0
  0
LINE
  5
187
  8
0
 10
248.4925013292229
 20
138.48525858063951
 30
0.0
 11
248.4925013292229
 21
138.98525858064031
 31
0.0
  0
LINE
  5
188
  8
0
 10
268.49250132922288
 20
138.48525858063951
 30
0.0
 11
248.4925013292229
 21
138.48525858063951
 31
0.0
  0
LINE
  5
189
  8
0
 10
263.07507702417871
 20
150.48525858063951
 30
0.0
 11
263.07507702417871
 21
142.98525858063971
 31
0.0
  0
LINE
  5
18A
  8
0
 10
253.90992563426701
 20
138.48525858063951
 30
0.0
 11
253.90992563426701
 21
138.98525858064039
 31
0.0
  0
LINE
  5
18B
  8
3
 10
254.27653168986339
 20
150.48525858063951
 30
0.0
 11
259.7756225238104
 21
142.98525858063971
 31
0.0
  0
LINE
  5
18C
  8
3
 10
262.70847096858222
 20
150.48525858063951
 30
0.0
 11
257.2093801346353
 21
142.98525858063971
 31
0.0
  0
LINE
  5
18D
  8
0
 10
263.07507702417871
 20
138.98525858064039
 30
0.0
 11
263.07507702417871
 21
138.48525858063951
 31
0.0
  0
LINE
  5
18E
  8
3
 10
262.70847096858148
 20
138.98525858064039
 30
0.0
 11
263.07507702417871
 21
138.48525858063951
 31
0.0
  0
LINE
  5
18F
  8
3
 10
254.2765316898641
 20
138.98525858064039
 30
0.0
 11
253.90992563426701
 21
138.48525858063951
 31
0.0
  0
LINE
  5
190
  8
0
 10
253.90992563426701
 20
142.98525858063971
 30
0.0
 11
253.90992563426701
 21
150.48525858063951
 31
0.0
  0
LINE
  5
191
  8
0
 10
115.8953451255952
 20
142.98525858063971
 30
0.0
 11
115.8953451255952
 21
150.48525858063951
 31
0.0
  0
LINE
  5
192
  8
0
 10
135.89534512559521
 20
142.98525858063971
 30
0.0
 11
135.89534512559521
 21
150.48525858063951
 31
0.0
  0
LINE
  5
193
  8
0
 10
135.8953451255951
 20
138.48525858063951
 30
0.0
 11
135.8953451255951
 21
138.98525858064039
 31
0.0
  0
LINE
  5
194
  8
0
 10
115.8953451255952
 20
138.48525858063951
 30
0.0
 11
115.8953451255952
 21
138.98525858064031
 31
0.0
  0
LINE
  5
195
  8
0
 10
135.8953451255951
 20
138.48525858063951
 30
0.0
 11
115.8953451255952
 21
138.48525858063951
 31
0.0
  0
LINE
  5
196
  8
0
 10
130.47792082055099
 20
150.48525858063951
 30
0.0
 11
130.47792082055099
 21
142.98525858063971
 31
0.0
  0
LINE
  5
197
  8
0
 10
121.31276943063931
 20
138.48525858063951
 30
0.0
 11
121.31276943063931
 21
138.98525858064039
 31
0.0
  0
LINE
  5
198
  8
3
 10
121.6793754862357
 20
150.48525858063951
 30
0.0
 11
127.17846632018269
 21
142.98525858063971
 31
0.0
  0
LINE
  5
199
  8
3
 10
130.1113147649545
 20
150.48525858063951
 30
0.0
 11
124.61222393100751
 21
142.98525858063971
 31
0.0
  0
LINE
  5
19A
  8
0
 10
130.47792082055099
 20
138.98525858064039
 30
0.0
 11
130.47792082055099
 21
138.48525858063951
 31
0.0
  0
LINE
  5
19B
  8
3
 10
130.1113147649539
 20
138.98525858064039
 30
0.0
 11
130.47792082055099
 21
138.48525858063951
 31
0.0
  0
LINE
  5
19C
  8
3
 10
121.6793754862364
 20
138.98525858064039
 30
0.0
 11
121.31276943063931
 21
138.48525858063951
 31
0.0
  0
LINE
  5
19D
  8
0
 10
121.31276943063931
 20
142.98525858063971
 30
0.0
 11
121.31276943063931
 21
150.48525858063951
 31
0.0
  0
LINE
  5
19E
  8
0
 10
59.998406366241248
 20
142.98525858063971
 30
0.0
 11
59.998406366241248
 21
150.48525858063951
 31
0.0
  0
LINE
  5
19F
  8
3
 10
60.365012421838372
 20
138.98525858064039
 30
0.0
 11
59.998406366241248
 21
138.48525858063951
 31
0.0
  0
LINE
  5
1A0
  8
3
 10
68.796951700555809
 20
138.98525858064039
 30
0.0
 11
69.163557756152926
 21
138.48525858063951
 31
0.0
  0
LINE
  5
1A1
  8
0
 10
69.163557756152926
 20
138.98525858064039
 30
0.0
 11
69.163557756152926
 21
138.48525858063951
 31
0.0
  0
LINE
  5
1A2
  8
3
 10
68.796951700556491
 20
150.48525858063951
 30
0.0
 11
63.297860866609511
 21
142.98525858063971
 31
0.0
  0
LINE
  5
1A3
  8
3
 10
60.36501242183769
 20
150.48525858063951
 30
0.0
 11
65.86410325578467
 21
142.98525858063971
 31
0.0
  0
LINE
  5
1A4
  8
0
 10
59.998406366241248
 20
138.48525858063951
 30
0.0
 11
59.998406366241248
 21
138.98525858064039
 31
0.0
  0
LINE
  5
1A5
  8
0
 10
69.163557756152926
 20
150.48525858063951
 30
0.0
 11
69.163557756152926
 21
142.98525858063971
 31
0.0
  0
LINE
  5
1A6
  8
0
 10
74.580982061197119
 20
138.48525858063951
 30
0.0
 11
54.580982061197119
 21
138.48525858063951
 31
0.0
  0
LINE
  5
1A7
  8
0
 10
54.580982061197119
 20
138.48525858063951
 30
0.0
 11
54.580982061197119
 21
138.98525858064031
 31
0.0
  0
LINE
  5
1A8
  8
0
 10
74.580982061197119
 20
138.48525858063951
 30
0.0
 11
74.580982061197119
 21
138.98525858064039
 31
0.0
  0
LINE
  5
1A9
  8
0
 10
74.580982061197133
 20
142.98525858063971
 30
0.0
 11
74.580982061197133
 21
150.48525858063951
 31
0.0
  0
LINE
  5
1AA
  8
0
 10
54.580982061197119
 20
142.98525858063971
 30
0.0
 11
54.580982061197119
 21
150.48525858063951
 31
0.0
  0
LINE
  5
1AB
  8
0
 10
329.59661105249347
 20
129.48525858063911
 30
0.0
 11
329.59661105249347
 21
132.98525858063911
 31
0.0
  0
LINE
  5
1AC
  8
0
 10
321.69661105249338
 20
129.48525858063911
 30
0.0
 11
321.69661105249338
 21
132.98525858063911
 31
0.0
  0
LINE
  5
1AD
  8
0
 10
321.69661105249338
 20
129.48525858063911
 30
0.0
 11
329.59661105249347
 21
129.48525858063911
 31
0.0
  0
LINE
  5
1AE
  8
0
 10
320.74661105249339
 20
132.98525858063911
 30
0.0
 11
321.69661105249338
 21
132.98525858063911
 31
0.0
  0
LINE
  5
1AF
  8
0
 10
333.54661105249357
 20
140.48525858063911
 30
0.0
 11
333.54661105249357
 21
142.48525858063911
 31
0.0
  0
LINE
  5
1B0
  8
0
 10
332.44661105249338
 20
142.48525858063911
 30
0.0
 11
332.44661105249338
 21
144.48525858063911
 31
0.0
  0
LINE
  5
1B1
  8
0
 10
333.54661105249357
 20
140.48525858063911
 30
0.0
 11
333.54661105249357
 21
142.48525858063911
 31
0.0
  0
LINE
  5
1B2
  8
0
 10
317.74661105249328
 20
140.48525858063911
 30
0.0
 11
317.74661105249328
 21
142.48525858063911
 31
0.0
  0
LINE
  5
1B3
  8
0
 10
318.84661105249347
 20
142.48525858063911
 30
0.0
 11
318.84661105249347
 21
144.48525858063911
 31
0.0
  0
LINE
  5
1B4
  8
0
 10
317.74661105249339
 20
140.48525858063911
 30
0.0
 11
317.74661105249339
 21
142.48525858063911
 31
0.0
  0
LINE
  5
1B5
  8
0
 10
317.74661105249339
 20
140.48525858063911
 30
0.0
 11
333.54661105249357
 21
140.48525858063911
 31
0.0
  0
LINE
  5
1B6
  8
0
 10
333.54661105249357
 20
142.48525858063911
 30
0.0
 11
317.74661105249339
 21
142.48525858063911
 31
0.0
  0
LINE
  5
1B7
  8
0
 10
317.74661105249339
 20
144.48525858063911
 30
0.0
 11
333.54661105249357
 21
144.48525858063911
 31
0.0
  0
LINE
  5
1B8
  8
1
 10
325.64661105249348
 20
160.4852585806392
 30
0.0
 11
325.64661105249348
 21
118.9852585806388
 31
0.0
  0
LINE
  5
1B9
  8
0
 10
328.61309044733167
 20
129.48525858063911
 30
0.0
 11
328.61309044733167
 21
132.98525858063911
 31
0.0
  0
LINE
  5
1BA
  8
0
 10
329.59661105249347
 20
132.98525858063911
 30
0.0
 11
330.54661105249357
 21
132.98525858063911
 31
0.0
  0
LINE
  5
1BB
  8
0
 10
322.68013165765529
 20
129.48525858063911
 30
0.0
 11
322.68013165765529
 21
132.98525858063911
 31
0.0
  0
LINE
  5
1BC
  8
0
 10
322.68013165765529
 20
132.98525858063911
 30
0.0
 11
328.61309044733167
 21
132.98525858063911
 31
0.0
  0
LINE
  5
1BD
  8
3
 10
328.61309044733167
 20
132.98525858063911
 30
0.0
 11
322.68013165765529
 21
129.48525858063911
 31
0.0
  0
LINE
  5
1BE
  8
3
 10
322.68013165765529
 20
132.98525858063911
 30
0.0
 11
328.6130904473319
 21
129.48525858063911
 31
0.0
  0
LINE
  5
1BF
  8
0
 10
333.14661105249348
 20
139.485258580639
 30
0.0
 11
333.14661105249348
 21
140.08525858063899
 31
0.0
  0
LINE
  5
1C0
  8
0
 10
318.14661105249348
 20
139.485258580639
 30
0.0
 11
318.14661105249348
 21
140.08525858063899
 31
0.0
  0
LINE
  5
1C1
  8
0
 10
330.54661105249357
 20
140.48525858063911
 30
0.0
 11
330.54661105249357
 21
140.31479904187401
 31
0.0
  0
LINE
  5
1C2
  8
0
 10
320.74661105249339
 20
140.48525858063911
 30
0.0
 11
320.74661105249339
 21
140.31479904187401
 31
0.0
  0
ARC
  5
1C3
  8
0
 10
325.64661105249348
 20
69.37275858064173
 30
0.0
 40
70.512499999997488
 50
83.894234970414942
 51
96.105765029585058
  0
ARC
  5
1C4
  8
0
 10
325.64661105249348
 20
69.972758580641624
 30
0.0
 40
70.512499999997488
 50
83.894234970414942
 51
96.105765029585058
  0
LINE
  5
1C5
  8
0
 10
330.54661105249357
 20
139.7147990418741
 30
0.0
 11
330.54661105249357
 21
132.98525858063911
 31
0.0
  0
LINE
  5
1C6
  8
0
 10
320.74661105249339
 20
139.7147990418741
 30
0.0
 11
320.74661105249339
 21
132.98525858063911
 31
0.0
  0
LINE
  5
1C7
  8
0
 10
315.64661105249348
 20
138.48525858063951
 30
0.0
 11
315.64661105249348
 21
150.98525858063951
 31
0.0
  0
LINE
  5
1C8
  8
0
 10
335.6466110524936
 20
138.48525858063951
 30
0.0
 11
335.64661105249348
 21
150.98525858063951
 31
0.0
  0
LINE
  5
1C9
  8
0
 10
335.64661105249348
 20
138.48525858063951
 30
0.0
 11
335.39661105249343
 21
138.48525858063951
 31
0.0
  0
LINE
  5
1CA
  8
0
 10
330.4919508180493
 20
132.9852585806394
 30
0.0
 11
334.39661105249348
 21
132.9852585806394
 31
0.0
  0
LINE
  5
1CB
  8
0
 10
320.64661105249348
 20
135.48525858063951
 30
0.0
 11
320.64661105249348
 21
132.9852585806394
 31
0.0
  0
LINE
  5
1CC
  8
0
 10
341.23506832061338
 20
138.98525858064039
 30
0.0
 11
335.6466110524936
 21
138.98525858064039
 31
0.0
  0
LINE
  5
1CD
  8
0
 10
310.05815378437359
 20
142.98525858063971
 30
0.0
 11
315.64661105249348
 21
142.98525858063971
 31
0.0
  0
LINE
  5
1CE
  8
0
 10
341.23506832061338
 20
142.98525858063971
 30
0.0
 11
341.23506832061338
 21
138.98525858064039
 31
0.0
  0
LINE
  5
1CF
  8
0
 10
310.05815378437359
 20
142.98525858063971
 30
0.0
 11
310.05815378437359
 21
138.98525858064039
 31
0.0
  0
LINE
  5
1D0
  8
0
 10
315.89661105249348
 20
135.48525858063951
 30
0.0
 11
320.74661105249339
 21
135.48525858063951
 31
0.0
  0
LINE
  5
1D1
  8
0
 10
316.89661105249343
 20
132.9852585806394
 30
0.0
 11
320.64661105249348
 21
132.9852585806394
 31
0.0
  0
LINE
  5
1D2
  8
0
 10
312.14661105249348
 20
150.48525858063951
 30
0.0
 11
312.14661105249348
 21
150.98525858063951
 31
0.0
  0
LINE
  5
1D3
  8
0
 10
339.14661105249348
 20
150.48525858063951
 30
0.0
 11
339.14661105249348
 21
150.98525858063951
 31
0.0
  0
LINE
  5
1D4
  8
0
 10
312.14661105249348
 20
150.48525858063951
 30
0.0
 11
315.64661105249348
 21
150.48525858063951
 31
0.0
  0
LINE
  5
1D5
  8
0
 10
335.39661105249348
 20
133.9852585806394
 30
0.0
 11
335.39661105249343
 21
138.48525858063951
 31
0.0
  0
ARC
  5
1D6
  8
0
 10
334.39661105249348
 20
133.9852585806394
 30
0.0
 40
1.0
 50
270.00000000000011
 51
0.0000000000001781
  0
LINE
  5
1D7
  8
0
 10
315.89661105249343
 20
135.48525858063951
 30
0.0
 11
315.89661105249348
 21
138.48525858063951
 31
0.0
  0
LINE
  5
1D8
  8
0
 10
316.3696233948537
 20
133.9852585806394
 30
0.0
 11
316.3696233948537
 21
135.48525858063951
 31
0.0
  0
POLYLINE
  5
1D9
  8
0
 66
     1
 10
0.0
 20
0.0
 30
0.0
  0
VERTEX
  5
1DA
  8
0
 10
316.89661105249343
 20
132.9852585806394
 30
0.0
 42
-0.1680937180862847
  0
VERTEX
  5
1DB
  8
0
 10
316.71602252061319
 20
133.0477354924345
 30
0.0
 42
-0.1052978660959511
  0
VERTEX
  5
1DC
  8
0
 10
316.5239745061748
 20
133.2781517994529
 30
0.0
 42
-0.0676252060446964
 70
     2
 50
117.7886770925242
  0
VERTEX
  5
1DD
  8
0
 10
316.39958475512032
 20
133.6189623000804
 30
0.0
 42
-0.0667491529464663
  0
VERTEX
  5
1DE
  8
0
 10
316.3696233948537
 20
133.9852585806394
 30
0.0
 42
-0.0537803369482067
  0
SEQEND
  5
1DF
  8
0
  0
LINE
  5
1E0
  8
0
 10
314.64661105249348
 20
150.48525858063951
 30
0.0
 11
314.64661105249348
 21
150.98525858063951
 31
0.0
  0
LINE
  5
1E1
  8
0
 10
336.64661105249348
 20
150.48525858063951
 30
0.0
 11
336.64661105249348
 21
150.98525858063951
 31
0.0
  0
LINE
  5
1E2
  8
0
 10
335.6466110524936
 20
150.48525858063951
 30
0.0
 11
339.14661105249348
 21
150.48525858063951
 31
0.0
  0
LINE
  5
1E3
  8
0
 10
335.6466110524936
 20
142.98525858063971
 30
0.0
 11
341.23506832061338
 21
142.98525858063971
 31
0.0
  0
LINE
  5
1E4
  8
0
 10
315.64661105249348
 20
138.98525858064039
 30
0.0
 11
310.05815378437359
 21
138.98525858064039
 31
0.0
  0
LINE
  5
1E5
  8
3
 10
314.64661105249343
 20
138.98525858064039
 30
0.0
 11
314.64661105249343
 21
142.98525858063971
 31
0.0
  0
LINE
  5
1E6
  8
0
 10
315.45861105249338
 20
138.98525858064039
 30
0.0
 11
315.45861105249338
 21
142.98525858063971
 31
0.0
  0
LINE
  5
1E7
  8
3
 10
336.6466110524936
 20
138.98525858064039
 30
0.0
 11
336.6466110524936
 21
142.98525858063971
 31
0.0
  0
LINE
  5
1E8
  8
0
 10
335.83461105249359
 20
138.98525858064039
 30
0.0
 11
335.83461105249359
 21
142.98525858063971
 31
0.0
  0
LINE
  5
1E9
  8
0
 10
317.64661105249348
 20
139.4852585806392
 30
0.0
 11
320.74661105249339
 21
139.4852585806392
 31
0.0
  0
LINE
  5
1EA
  8
0
 10
315.89661105249348
 20
138.48525858063951
 30
0.0
 11
315.64661105249348
 21
138.48525858063951
 31
0.0
  0
LINE
  5
1EB
  8
0
 10
330.54661105249357
 20
139.4852585806392
 30
0.0
 11
333.64661105249343
 21
139.4852585806392
 31
0.0
  0
LINE
  5
1EC
  8
0
 10
317.64661105249348
 20
139.4852585806392
 30
0.0
 11
317.64661105249348
 21
155.48525858063931
 31
0.0
  0
LINE
  5
1ED
  8
0
 10
317.74661105249339
 20
144.48525858063911
 30
0.0
 11
317.74661105249351
 21
154.4852585806392
 31
0.0
  0
LINE
  5
1EE
  8
0
 10
333.54661105249352
 20
144.48525858063911
 30
0.0
 11
333.54661105249329
 21
154.48525858063911
 31
0.0
  0
LINE
  5
1EF
  8
0
 10
333.64661105249343
 20
139.4852585806392
 30
0.0
 11
333.64661105249343
 21
155.48525858063931
 31
0.0
  0
ARC
  5
1F0
  8
0
 10
325.64661105249422
 20
137.1330742051656
 30
0.0
 40
9.6478156245263698
 50
252.5896629562416
 51
287.410337043749
  0
LINE
  5
1F1
  8
0
 10
319.87310836059731
 20
127.9272601188655
 30
0.0
 11
318.89661105249343
 21
128.48525858063911
 31
0.0
  0
ARC
  5
1F2
  8
0
 10
321.31648403357133
 20
130.062963063605
 30
0.0
 40
2.5777044829658
 50
235.94792701550699
 51
304.05207298449318
  0
ARC
  5
1F3
  8
0
 10
329.97673807141553
 20
130.062963063605
 30
0.0
 40
2.5777044829658
 50
235.94792701550671
 51
304.05207298449301
  0
LINE
  5
1F4
  8
0
 10
331.4201137443896
 20
127.9272601188655
 30
0.0
 11
332.39661105249343
 21
128.48525858063911
 31
0.0
  0
ARC
  5
1F5
  8
0
 10
325.64661105249269
 20
127.93837898211549
 30
0.0
 40
3.7799153207197551
 50
220.2078187220751
 51
319.79218127795662
  0
LINE
  5
1F6
  8
0
 10
322.7598597065454
 20
127.9272601188655
 30
0.0
 11
322.7598597065454
 21
125.49820962355111
 31
0.0
  0
ARC
  5
1F7
  8
0
 10
321.31648403357133
 20
125.60584722738351
 30
0.0
 40
1.4473835659880101
 50
235.7351462967014
 51
355.7351462967182
  0
LINE
  5
1F8
  8
0
 10
320.74661105249322
 20
123.9852585806392
 30
0.0
 11
319.87310836059731
 21
125.49820962355111
 31
0.0
  0
LINE
  5
1F9
  8
0
 10
319.8731083605976
 20
127.9272601188655
 30
0.0
 11
319.87310836059731
 21
125.49820962355111
 31
0.0
  0
ARC
  5
1FA
  8
0
 10
329.97673807141553
 20
125.60584722738351
 30
0.0
 40
1.4473835659880101
 50
355.73514629661901
 51
355.73514629671701
  0
ARC
  5
1FB
  8
0
 10
329.97673807141553
 20
125.60584722738351
 30
0.0
 40
1.4473835659880101
 50
184.2648537032818
 51
304.26485370329863
  0
LINE
  5
1FC
  8
0
 10
328.5333623984414
 20
127.9272601188655
 30
0.0
 11
328.5333623984414
 21
125.49820962355111
 31
0.0
  0
LINE
  5
1FD
  8
0
 10
330.54661105249357
 20
123.9852585806392
 30
0.0
 11
331.4201137443896
 21
125.49820962355111
 31
0.0
  0
LINE
  5
1FE
  8
0
 10
330.5466110524934
 20
123.9852585806385
 30
0.0
 11
320.74661105249379
 21
123.9852585806392
 31
0.0
  0
LINE
  5
1FF
  8
0
 10
331.4201137443896
 20
127.9272601188655
 30
0.0
 11
331.4201137443896
 21
125.49820962355111
 31
0.0
  0
LINE
  5
200
  8
0
 10
332.39661105249343
 20
128.48525858063911
 30
0.0
 11
318.89661105249343
 21
128.48525858063911
 31
0.0
  0
LINE
  5
201
  8
0
 10
332.39661105249343
 20
128.98525858063911
 30
0.0
 11
332.39661105249343
 21
128.48525858063911
 31
0.0
  0
LINE
  5
202
  8
0
 10
318.89661105249343
 20
128.98525858063911
 30
0.0
 11
332.39661105249343
 21
128.98525858063911
 31
0.0
  0
LINE
  5
203
  8
0
 10
318.89661105249343
 20
128.98525858063911
 30
0.0
 11
318.89661105249343
 21
128.48525858063911
 31
0.0
  0
LINE
  5
204
  8
0
 10
328.64661105249348
 20
128.98525858063911
 30
0.0
 11
328.64661105249348
 21
129.48525858063911
 31
0.0
  0
LINE
  5
205
  8
0
 10
322.64661105249343
 20
128.98525858063911
 30
0.0
 11
322.64661105249343
 21
129.48525858063911
 31
0.0
  0
POLYLINE
  5
206
  8
0
 66
     1
 10
0.0
 20
0.0
 30
0.0
 70
     1
  0
VERTEX
  5
207
  8
0
 10
317.64661105249348
 20
143.48525858063911
 30
0.0
 42
0.0609736195238384
  0
VERTEX
  5
208
  8
0
 10
317.69564918385771
 20
143.0846277943248
 30
0.0
 42
0.0743431597850084
  0
VERTEX
  5
209
  8
0
 10
317.82234698378147
 20
142.77815179945259
 30
0.0
 42
0.1069431103830217
 70
     2
 50
300.96375653207451
  0
VERTEX
  5
20A
  8
0
 10
318.04882571869138
 20
142.53674126127771
 30
0.0
 42
0.1765915526448065
 50
300.96375653207451
  0
VERTEX
  5
20B
  8
0
 10
318.24661105249351
 20
142.48525858063911
 30
0.0
 42
0.1522155302173621
  0
VERTEX
  5
20C
  8
0
 10
318.45786289274048
 20
142.5510956180764
 30
0.0
 42
0.1069431103829728
  0
VERTEX
  5
20D
  8
0
 10
318.67087512120543
 20
142.77815179945259
 30
0.0
 42
0.0743431597850744
 70
     2
 50
59.036243467925509
  0
VERTEX
  5
20E
  8
0
 10
318.79757292112919
 20
143.084627794325
 30
0.0
 42
0.0609736195238556
 50
59.036243467925509
  0
VERTEX
  5
20F
  8
0
 10
318.84661105249347
 20
143.48525858063911
 30
0.0
 42
0.060973619523877
  0
VERTEX
  5
210
  8
0
 10
318.79757292112919
 20
143.88588936695319
 30
0.0
 42
0.0743431597851559
  0
VERTEX
  5
211
  8
0
 10
318.67087512120543
 20
144.19236536182569
 30
0.0
 42
0.106943110382944
 70
     2
 50
120.9637565320744
  0
VERTEX
  5
212
  8
0
 10
318.45786289274048
 20
144.41942154320199
 30
0.0
 42
0.1522155302172562
 50
120.9637565320744
  0
VERTEX
  5
213
  8
0
 10
318.24661105249351
 20
144.48525858063911
 30
0.0
 42
0.1522155302174248
  0
VERTEX
  5
214
  8
0
 10
318.03535921224642
 20
144.41942154320191
 30
0.0
 42
0.1069431103830043
  0
VERTEX
  5
215
  8
0
 10
317.82234698378147
 20
144.19236536182569
 30
0.0
 42
0.0743431597849714
 70
     2
 50
239.03624346792549
  0
VERTEX
  5
216
  8
0
 10
317.6956491838576
 20
143.88588936695331
 30
0.0
 42
0.0609736195237546
 50
239.03624346792549
  0
SEQEND
  5
217
  8
0
  0
POLYLINE
  5
218
  8
0
 66
     1
 10
0.0
 20
0.0
 30
0.0
 70
     1
  0
VERTEX
  5
219
  8
0
 10
333.64661105249348
 20
143.48525858063911
 30
0.0
 42
-0.0609736195238384
  0
VERTEX
  5
21A
  8
0
 10
333.59757292112931
 20
143.0846277943248
 30
0.0
 42
-0.0743431597850084
  0
VERTEX
  5
21B
  8
0
 10
333.47087512120538
 20
142.77815179945259
 30
0.0
 42
-0.1069431103830217
 70
     2
 50
239.0362434679256
  0
VERTEX
  5
21C
  8
0
 10
333.24439638629548
 20
142.53674126127771
 30
0.0
 42
-0.1765915526448065
  0
VERTEX
  5
21D
  8
0
 10
333.0466110524934
 20
142.48525858063911
 30
0.0
 42
-0.1522155302173621
  0
VERTEX
  5
21E
  8
0
 10
332.83535921224637
 20
142.5510956180764
 30
0.0
 42
-0.1069431103829728
  0
VERTEX
  5
21F
  8
0
 10
332.62234698378148
 20
142.77815179945259
 30
0.0
 42
-0.0743431597850744
 70
     2
 50
120.9637565320745
  0
VERTEX
  5
220
  8
0
 10
332.49564918385772
 20
143.084627794325
 30
0.0
 42
-0.0609736195238556
  0
VERTEX
  5
221
  8
0
 10
332.44661105249338
 20
143.48525858063911
 30
0.0
 42
-0.060973619523877
  0
VERTEX
  5
222
  8
0
 10
332.49564918385772
 20
143.88588936695319
 30
0.0
 42
-0.0743431597851559
  0
VERTEX
  5
223
  8
0
 10
332.62234698378148
 20
144.19236536182569
 30
0.0
 42
-0.106943110382944
 70
     2
 50
59.036243467925608
  0
VERTEX
  5
224
  8
0
 10
332.83535921224649
 20
144.41942154320199
 30
0.0
 42
-0.1522155302172562
  0
VERTEX
  5
225
  8
0
 10
333.0466110524934
 20
144.48525858063911
 30
0.0
 42
-0.1522155302174248
  0
VERTEX
  5
226
  8
0
 10
333.25786289274049
 20
144.41942154320191
 30
0.0
 42
-0.1069431103830043
  0
VERTEX
  5
227
  8
0
 10
333.47087512120538
 20
144.19236536182569
 30
0.0
 42
-0.0743431597849714
 70
     2
 50
300.96375653207451
  0
VERTEX
  5
228
  8
0
 10
333.59757292112943
 20
143.88588936695331
 30
0.0
 42
-0.0609736195237546
  0
SEQEND
  5
229
  8
0
  0
LINE
  5
22A
  8
1
 10
125.8953451255951
 20
106.9852585806391
 30
0.0
 11
125.8953451255951
 21
160.4852585806392
 31
0.0
  0
LINE
  5
22B
  8
1
 10
191.74203904945659
 20
160.48525858063931
 30
0.0
 11
191.74203904945659
 21
106.9852585806391
 31
0.0
  0
LINE
  5
22C
  8
1
 10
64.580982061197091
 20
160.48525858063931
 30
0.0
 11
64.580982061197091
 21
106.9852585806391
 31
0.0
  0
INSERT
  5
22D
  8
3
  2
*X1
 10
104.3650114871072
 20
101.8687549960032
 30
0.0
  0
INSERT
  5
22E
  8
3
  2
*X0
 10
104.3650114871072
 20
101.8687549960032
 30
0.0
  0
INSERT
  5
22F
  8
3
  2
*X2
 10
104.3650114871072
 20
101.8687549960032
 30
0.0
  0
LINE
  5
230
  8
0
 10
317.74661105249351
 20
154.4852585806392
 30
0.0
 11
333.54661105249329
 21
154.48525858063911
 31
0.0
  0
LINE
  5
231
  8
2
 10
317.74661105249351
 20
147.4852585806392
 30
0.0
 11
333.54661105249329
 21
147.48525858063911
 31
0.0
  0
LINE
  5
232
  8
2
 10
323.14661105249343
 20
147.4852585806392
 30
0.0
 11
323.14661105249343
 21
154.4852585806392
 31
0.0
  0
LINE
  5
233
  8
2
 10
328.14661105249343
 20
154.4852585806392
 30
0.0
 11
328.14661105249343
 21
147.4852585806392
 31
0.0
  0
LINE
  5
234
  8
0
 10
205.2874316223205
 20
212.35974575079459
 30
0.0
 11
207.3304963175764
 21
215.89843760612811
 31
0.0
  0
LINE
  5
235
  8
0
 10
207.3304963175764
 20
215.89843760612811
 30
0.0
 11
205.28743162231939
 21
219.43712946146351
 31
0.0
  0
LINE
  5
236
  8
0
 10
178.19664647659269
 20
219.4371294614624
 30
0.0
 11
176.1535817813365
 21
215.89843760612831
 31
0.0
  0
LINE
  5
237
  8
0
 10
176.1535817813365
 20
215.89843760612831
 30
0.0
 11
178.19664647659241
 21
212.35974575079479
 31
0.0
  0
CIRCLE
  5
238
  8
0
 10
191.74203904945659
 20
215.89843760612811
 30
0.0
 40
7.9999999999999432
  0
CIRCLE
  5
239
  8
0
 10
191.74203904945659
 20
215.89843760612811
 30
0.0
 40
2.5
  0
ARC
  5
23A
  8
0
 10
191.74203904945659
 20
215.89843760612811
 30
0.0
 40
5.0
 50
197.45760312372479
 51
342.54239687627671
  0
LINE
  5
23B
  8
0
 10
183.98575127759111
 20
214.39843760612811
 30
0.0
 11
186.97234304237301
 21
214.39843760612811
 31
0.0
  0
LINE
  5
23C
  8
0
 10
183.9857512775904
 20
217.3984376061282
 30
0.0
 11
186.97234304237179
 21
217.3984376061282
 31
0.0
  0
LINE
  5
23D
  8
0
 10
196.51173505654009
 20
214.39843760612811
 30
0.0
 11
199.49832682132219
 21
214.39843760612811
 31
0.0
  0
LINE
  5
23E
  8
0
 10
196.51173505654131
 20
217.3984376061282
 30
0.0
 11
199.49832682132219
 21
217.3984376061282
 31
0.0
  0
ARC
  5
23F
  8
0
 10
191.74203904945659
 20
215.89843760612811
 30
0.0
 40
5.0
 50
17.457603123723398
 51
162.54239687627921
  0
CIRCLE
  5
240
  8
0
 10
191.74203904945659
 20
215.89843760612811
 30
0.0
 40
7.8999999999998627
  0
LINE
  5
241
  8
2
 10
320.87691504540948
 20
154.4852585806392
 30
0.0
 11
320.87691504540948
 21
147.4852585806392
 31
0.0
  0
LINE
  5
242
  8
2
 10
330.41630705957863
 20
154.48525858063911
 30
0.0
 11
330.41630705957863
 21
147.48525858063911
 31
0.0
  0
CIRCLE
  5
246
  8
0
 10
191.74203904945659
 20
215.89843760612811
 30
0.0
 40
14.0
  0
ARC
  5
247
  8
0
 10
191.74203904945659
 20
62.668702256988787
 30
0.0
 40
14.0
 50
74.641114419177526
 51
105.35888558081901
  0
ARC
  5
248
  8
0
 10
191.74203904945659
 20
62.668702256988787
 30
0.0
 40
14.0
 50
134.64111441917851
 51
165.3588855808207
  0
ARC
  5
249
  8
0
 10
191.74203904945659
 20
62.668702256988787
 30
0.0
 40
14.0
 50
194.6411144191739
 51
225.35888558082519
  0
ARC
  5
24A
  8
0
 10
191.74203904945659
 20
62.668702256988787
 30
0.0
 40
14.0
 50
254.64111441917379
 51
285.35888558082303
  0
ARC
  5
24B
  8
0
 10
191.74203904945659
 20
62.668702256988787
 30
0.0
 40
14.0
 50
314.64111441917947
 51
345.3588855808182
  0
ARC
  5
24C
  8
0
 10
191.74203904945659
 20
62.668702256988787
 30
0.0
 40
14.0
 50
14.641114419172171
 51
45.35888558082803
  0
CIRCLE
  5
24D
  8
0
 10
191.74203904945659
 20
215.89843760612811
 30
0.0
 40
10.99999999999997
  0
LINE
  5
24E
  8
0
 10
269.4925013292227
 20
155.48525858063931
 30
0.0
 11
247.49250132922279
 21
155.48525858063931
 31
0.0
  0
LINE
  5
24F
  8
0
 10
247.49250132922279
 20
155.48525858063931
 30
0.0
 11
244.49250132922279
 21
152.48525858063951
 31
0.0
  0
LINE
  5
250
  8
0
 10
244.49250132922279
 20
152.48525858063951
 30
0.0
 11
244.49250132922279
 21
150.98525858063951
 31
0.0
  0
LINE
  5
251
  8
0
 10
244.49250132922279
 20
150.98525858063951
 30
0.0
 11
272.49250132922282
 21
150.98525858063951
 31
0.0
  0
LINE
  5
252
  8
0
 10
272.49250132922282
 20
150.98525858063951
 30
0.0
 11
272.49250132922282
 21
152.48525858063951
 31
0.0
  0
LINE
  5
253
  8
0
 10
272.49250132922282
 20
152.48525858063951
 30
0.0
 11
269.49250132922282
 21
155.48525858063931
 31
0.0
  0
LINE
  5
254
  8
0
 10
272.49250132922282
 20
152.48525858063951
 30
0.0
 11
244.49250132922279
 21
152.48525858063951
 31
0.0
  0
LINE
  5
255
  8
0
 10
271.99250132922282
 20
150.48525858063951
 30
0.0
 11
244.99250132922279
 21
150.48525858063951
 31
0.0
  0
LINE
  5
256
  8
0
 10
244.99250132922279
 20
150.48525858063951
 30
0.0
 11
244.99250132922279
 21
150.98525858063951
 31
0.0
  0
LINE
  5
257
  8
0
 10
271.99250132922282
 20
150.48525858063951
 30
0.0
 11
271.99250132922282
 21
150.98525858063951
 31
0.0
  0
LINE
  5
258
  8
0
 10
136.89534512559499
 20
155.4852585806392
 30
0.0
 11
114.8953451255951
 21
155.4852585806392
 31
0.0
  0
LINE
  5
259
  8
0
 10
114.8953451255951
 20
155.4852585806392
 30
0.0
 11
111.8953451255951
 21
152.4852585806394
 31
0.0
  0
LINE
  5
25A
  8
0
 10
111.8953451255951
 20
152.4852585806394
 30
0.0
 11
111.8953451255951
 21
150.9852585806394
 31
0.0
  0
LINE
  5
25B
  8
0
 10
111.8953451255951
 20
150.9852585806394
 30
0.0
 11
139.8953451255951
 21
150.9852585806394
 31
0.0
  0
LINE
  5
25C
  8
0
 10
139.8953451255951
 20
150.9852585806394
 30
0.0
 11
139.8953451255951
 21
152.4852585806394
 31
0.0
  0
LINE
  5
25D
  8
0
 10
139.8953451255951
 20
152.4852585806394
 30
0.0
 11
136.8953451255951
 21
155.4852585806392
 31
0.0
  0
LINE
  5
25E
  8
0
 10
139.8953451255951
 20
152.4852585806394
 30
0.0
 11
111.8953451255951
 21
152.4852585806394
 31
0.0
  0
LINE
  5
25F
  8
0
 10
139.3953451255951
 20
150.4852585806394
 30
0.0
 11
112.3953451255951
 21
150.4852585806394
 31
0.0
  0
LINE
  5
260
  8
0
 10
112.3953451255951
 20
150.4852585806394
 30
0.0
 11
112.3953451255951
 21
150.9852585806394
 31
0.0
  0
LINE
  5
261
  8
0
 10
139.3953451255951
 20
150.4852585806394
 30
0.0
 11
139.3953451255951
 21
150.9852585806394
 31
0.0
  0
LINE
  5
262
  8
0
 10
78.080982061197091
 20
150.4852585806394
 30
0.0
 11
78.080982061197091
 21
150.9852585806394
 31
0.0
  0
LINE
  5
263
  8
0
 10
51.080982061197091
 20
150.4852585806394
 30
0.0
 11
51.080982061197091
 21
150.9852585806394
 31
0.0
  0
LINE
  5
264
  8
0
 10
78.080982061197091
 20
150.4852585806394
 30
0.0
 11
51.080982061197091
 21
150.4852585806394
 31
0.0
  0
LINE
  5
265
  8
0
 10
78.580982061197091
 20
152.4852585806394
 30
0.0
 11
50.580982061197098
 21
152.4852585806394
 31
0.0
  0
LINE
  5
266
  8
0
 10
78.580982061197062
 20
152.4852585806394
 30
0.0
 11
75.580982061197062
 21
155.4852585806392
 31
0.0
  0
LINE
  5
267
  8
0
 10
78.580982061197091
 20
150.9852585806394
 30
0.0
 11
78.580982061197091
 21
152.4852585806394
 31
0.0
  0
LINE
  5
268
  8
0
 10
50.580982061197098
 20
150.9852585806394
 30
0.0
 11
78.580982061197091
 21
150.9852585806394
 31
0.0
  0
LINE
  5
269
  8
0
 10
50.580982061197098
 20
152.4852585806394
 30
0.0
 11
50.580982061197098
 21
150.9852585806394
 31
0.0
  0
LINE
  5
26A
  8
0
 10
53.580982061197098
 20
155.4852585806392
 30
0.0
 11
50.580982061197098
 21
152.4852585806394
 31
0.0
  0
LINE
  5
26B
  8
0
 10
75.580982061197034
 20
155.4852585806392
 30
0.0
 11
53.580982061197098
 21
155.4852585806392
 31
0.0
  0
LINE
  5
26C
  8
0
 10
339.64661105249348
 20
150.98525858063951
 30
0.0
 11
339.64661105249348
 21
152.48525858063951
 31
0.0
  0
LINE
  5
26D
  8
0
 10
311.64661105249348
 20
150.98525858063951
 30
0.0
 11
315.64661105249348
 21
150.98525858063951
 31
0.0
  0
LINE
  5
26E
  8
0
 10
339.64661105249343
 20
152.48525858063951
 30
0.0
 11
336.64661105249343
 21
155.48525858063931
 31
0.0
  0
LINE
  5
26F
  8
0
 10
336.64661105249343
 20
155.48525858063931
 30
0.0
 11
314.64661105249348
 21
155.48525858063931
 31
0.0
  0
LINE
  5
270
  8
0
 10
314.64661105249348
 20
155.48525858063931
 30
0.0
 11
311.64661105249348
 21
152.48525858063951
 31
0.0
  0
LINE
  5
271
  8
0
 10
311.64661105249348
 20
152.48525858063951
 30
0.0
 11
311.64661105249348
 21
150.98525858063951
 31
0.0
  0
LINE
  5
272
  8
0
 10
335.64661105249348
 20
150.98525858063951
 30
0.0
 11
339.64661105249348
 21
150.98525858063951
 31
0.0
  0
INSERT
  5
273
  8
3
  2
*X3
 10
70.372530041132052
 20
47.198741007193803
 30
0.0
  0
TEXT
  5
3D6
  8
0
 62
     3
 10
0.0
 20
0.0
 30
0.0
 40
10.0
  1
MTL28W5
  7
STANDARD1
  0
ENDSEC
  0
EOF
