  0
SECTION
  2
HEADER
  9
$ACADVER
  1
AC1009
  9
$INSBASE
 10
0.0
 20
0.0
 30
0.0
  9
$EXTMIN
 10
0.0
 20
-2.960436562073669
 30
0.0
  9
$EXTMAX
 10
223.44834431020149
 20
176.9100785087241
 30
0.0
  9
$LIMMIN
 10
0.0
 20
0.0
  9
$LIMMAX
 10
187.5
 20
135.0
  9
$ORTHOMODE
 70
     0
  9
$REGENMODE
 70
     1
  9
$FILLMODE
 70
     1
  9
$QTEXTMODE
 70
     0
  9
$MIRRTEXT
 70
     0
  9
$DRAGMODE
 70
     2
  9
$LTSCALE
 40
5.0
  9
$OSMODE
 70
  3071
  9
$ATTMODE
 70
     1
  9
$TEXTSIZE
 40
0.2
  9
$TRACEWID
 40
0.05
  9
$TEXTSTYLE
  7
STANDARD
  9
$CLAYER
  8
0
  9
$CELTYPE
  6
BYLAYER
  9
$CECOLOR
 62
   256
  9
$DIMSCALE
 40
0.5
  9
$DIMASZ
 40
3.0
  9
$DIMEXO
 40
2.0
  9
$DIMDLI
 40
0.38
  9
$DIMRND
 40
0.0
  9
$DIMDLE
 40
0.0
  9
$DIMEXE
 40
2.0
  9
$DIMTP
 40
0.0
  9
$DIMTM
 40
0.0
  9
$DIMTXT
 40
3.2000000000000002
  9
$DIMCEN
 40
0.0
  9
$DIMTSZ
 40
0.0
  9
$DIMTOL
 70
     0
  9
$DIMLIM
 70
     0
  9
$DIMTIH
 70
     0
  9
$DIMTOH
 70
     0
  9
$DIMSE1
 70
     0
  9
$DIMSE2
 70
     0
  9
$DIMTAD
 70
     1
  9
$DIMZIN
 70
     0
  9
$DIMBLK
  1

  9
$DIMASO
 70
     0
  9
$DIMSHO
 70
     0
  9
$DIMPOST
  1

  9
$DIMAPOST
  1

  9
$DIMALT
 70
     0
  9
$DIMALTD
 70
     2
  9
$DIMALTF
 40
25.399999999999999
  9
$DIMLFAC
 40
1.0
  9
$DIMTOFL
 70
     1
  9
$DIMTVP
 40
1.6000000000000001
  9
$DIMTIX
 70
     1
  9
$DIMSOXD
 70
     0
  9
$DIMSAH
 70
     0
  9
$DIMBLK1
  1

  9
$DIMBLK2
  1

  9
$DIMSTYLE
  2
STANDARD
  9
$DIMCLRD
 70
     0
  9
$DIMCLRE
 70
     0
  9
$DIMCLRT
 70
     0
  9
$DIMTFAC
 40
1.0
  9
$DIMGAP
 40
0.09
  9
$LUNITS
 70
     2
  9
$LUPREC
 70
     4
  9
$SKETCHINC
 40
0.1
  9
$FILLETRAD
 40
0.0
  9
$AUNITS
 70
     0
  9
$AUPREC
 70
     4
  9
$MENU
  1
E:\r13\win\SUPPORT\ACAD
  9
$ELEVATION
 40
0.0
  9
$PELEVATION
 40
0.0
  9
$THICKNESS
 40
0.0
  9
$LIMCHECK
 70
     0
  9
$BLIPMODE
 70
     0
  9
$CHAMFERA
 40
0.0
  9
$CHAMFERB
 40
0.0
  9
$SKPOLY
 70
     0
  9
$TDCREATE
 40
2449839.7732986109
  9
$TDUPDATE
 40
2456597.6752838199
  9
$TDINDWG
 40
0.0225627431
  9
$TDUSRTIMER
 40
0.0225627431
  9
$USRTIMER
 70
     1
  9
$ANGBASE
 50
0.0
  9
$ANGDIR
 70
     0
  9
$PDMODE
 70
     0
  9
$PDSIZE
 40
0.0
  9
$PLINEWID
 40
0.0
  9
$COORDS
 70
     1
  9
$SPLFRAME
 70
     0
  9
$SPLINETYPE
 70
     6
  9
$SPLINESEGS
 70
     8
  9
$ATTDIA
 70
     0
  9
$ATTREQ
 70
     1
  9
$HANDLING
 70
     1
  9
$HANDSEED
  5
650
  9
$SURFTAB1
 70
     6
  9
$SURFTAB2
 70
     6
  9
$SURFTYPE
 70
     6
  9
$SURFU
 70
     6
  9
$SURFV
 70
     6
  9
$UCSNAME
  2

  9
$UCSORG
 10
0.0
 20
0.0
 30
0.0
  9
$UCSXDIR
 10
1.0
 20
0.0
 30
0.0
  9
$UCSYDIR
 10
0.0
 20
1.0
 30
0.0
  9
$PUCSNAME
  2

  9
$PUCSORG
 10
0.0
 20
0.0
 30
0.0
  9
$PUCSXDIR
 10
1.0
 20
0.0
 30
0.0
  9
$PUCSYDIR
 10
0.0
 20
1.0
 30
0.0
  9
$USERI1
 70
     0
  9
$USERI2
 70
     1
  9
$USERI3
 70
     0
  9
$USERI4
 70
     0
  9
$USERI5
 70
     0
  9
$USERR1
 40
0.0
  9
$USERR2
 40
0.0
  9
$USERR3
 40
0.0
  9
$USERR4
 40
0.0
  9
$USERR5
 40
0.0
  9
$WORLDVIEW
 70
     1
  9
$SHADEDGE
 70
     3
  9
$SHADEDIF
 70
    70
  9
$TILEMODE
 70
     1
  9
$MAXACTVP
 70
    16
  9
$PLIMCHECK
 70
     0
  9
$PEXTMIN
 10
1.0000000000000000E+020
 20
1.0000000000000000E+020
 30
1.0000000000000000E+020
  9
$PEXTMAX
 10
-1.0000000000000000E+020
 20
-1.0000000000000000E+020
 30
-1.0000000000000000E+020
  9
$PLIMMIN
 10
0.0
 20
0.0
  9
$PLIMMAX
 10
12.0
 20
9.0
  9
$UNITMODE
 70
     0
  9
$VISRETAIN
 70
     0
  9
$PLINEGEN
 70
     0
  9
$PSLTSCALE
 70
     0
  0
ENDSEC
  0
SECTION
  2
TABLES
  0
TABLE
  2
VPORT
 70
     1
  0
VPORT
  2
*ACTIVE
 70
     0
 10
0.0
 20
0.0
 11
1.0
 21
1.0
 12
111.724172675357
 22
87.366497971308817
 13
0.0
 23
0.0
 14
5.0
 24
5.0
 15
5.0
 25
5.0
 16
0.0
 26
0.0
 36
1.0
 17
0.0
 27
0.0
 37
0.0
 40
182.72310130009069
 41
2.304913294797688
 42
50.0
 43
0.0
 44
0.0
 50
0.0
 51
0.0
 71
     0
 72
   500
 73
     1
 74
     0
 75
     0
 76
     0
 77
     0
 78
     2
  0
ENDTAB
  0
TABLE
  2
LTYPE
 70
     4
  0
LTYPE
  2
CONTINUOUS
 70
     0
  3
Solid Line
 72
    65
 73
     0
 40
0.0
  0
LTYPE
  2
CENTER
 70
     0
  3
____ _ ____ _ ____ _ ____ _ ____ _ ____ _ ____
 72
    65
 73
     4
 40
2.0
 49
1.25
 49
-0.25
 49
0.25
 49
-0.25
  0
LTYPE
  2
HIDDEN
 70
     0
  3
_ _ _ _ _ _ _ _ _ _ _ _ _ _ _ _ _ _ _ _ _ _ _
 72
    65
 73
     2
 40
0.375
 49
0.25
 49
-0.125
  0
LTYPE
  2
PHANTOM2
 70
     0
  3
___ _ _ ___ _ _ ___ _ _ ___ _ _
 72
    65
 73
     6
 40
1.25
 49
0.625
 49
-0.125
 49
0.125
 49
-0.125
 49
0.125
 49
-0.125
  0
ENDTAB
  0
TABLE
  2
LAYER
 70
     4
  0
LAYER
  2
0
 70
     0
 62
     7
  6
CONTINUOUS
  0
LAYER
  2
1
 70
     0
 62
     1
  6
CENTER
  0
LAYER
  2
2
 70
     0
 62
     2
  6
HIDDEN
  0
LAYER
  2
3
 70
     0
 62
     3
  6
CONTINUOUS
  0
ENDTAB
  0
TABLE
  2
STYLE
 70
     2
  0
STYLE
  2
STANDARD
 70
     0
 40
0.0
 41
1.0
 50
0.0
 71
     0
 42
0.2
  3
TXT
  4
BIGFONT
  0
STYLE
  2
STANDARD1
 70
     0
 40
0.0
 41
1.0
 50
0.0
 71
     0
 42
3.0
  3
txt
  4

  0
ENDTAB
  0
TABLE
  2
VIEW
 70
     1
  0
VIEW
  2
ALL
 70
     0
 40
270.0
 10
220.99159663865549
 20
135.0
 41
0.0
 11
0.0
 21
0.0
 31
1.0
 12
0.0
 22
0.0
 32
0.0
 42
0.0
 43
0.0
 44
0.0
 50
0.0
 71
     0
  0
ENDTAB
  0
TABLE
  2
UCS
 70
     0
  0
ENDTAB
  0
TABLE
  2
APPID
 70
     3
  0
APPID
  2
ACAD
 70
     0
  0
APPID
  2
ACAD_MLEADERVER
 70
     0
  0
APPID
  2
ACAD_NAV_VCDISPLAY
 70
     0
  0
ENDTAB
  0
TABLE
  2
DIMSTYLE
 70
     1
  0
DIMSTYLE
  2
STANDARD
 70
     0
  3

  4

  5

  6

  7

 40
1.0
 41
0.18
 42
0.0625
 43
0.38
 44
0.18
 45
0.0
 46
0.0
 47
0.0
 48
0.0
140
0.18
141
0.09
142
0.0
143
25.399999999999999
144
1.0
145
0.0
146
1.0
147
0.09
 71
     0
 72
     0
 73
     1
 74
     1
 75
     0
 76
     0
 77
     0
 78
     0
170
     0
171
     2
172
     0
173
     0
174
     0
175
     0
176
     0
177
     0
178
     0
  0
ENDTAB
  0
ENDSEC
  0
SECTION
  2
BLOCKS
  0
BLOCK
  8
0
  2
$MODEL_SPACE
 70
     0
 10
0.0
 20
0.0
 30
0.0
  3
$MODEL_SPACE
  1

  0
ENDBLK
  5
1D4
  8
0
  0
BLOCK
 67
     1
  8
0
  2
$PAPER_SPACE
 70
     0
 10
0.0
 20
0.0
 30
0.0
  3
$PAPER_SPACE
  1

  0
ENDBLK
  5
1D2
 67
     1
  8
0
  0
ENDSEC
  0
SECTION
  2
ENTITIES
  0
LINE
  5
482
  8
1
 10
98.063062935962819
 20
46.524797134485539
 30
0.0
 11
98.063062935962819
 21
104.5247971344855
 31
0.0
  0
LINE
  5
483
  8
0
 10
45.063062935962812
 20
99.524797134485524
 30
0.0
 11
45.063062935962812
 21
59.524797134485532
 31
0.0
  0
LINE
  5
484
  8
0
 10
45.063062935962812
 20
59.524797134485532
 30
0.0
 11
77.313062935962819
 21
59.524797134485532
 31
0.0
  0
LINE
  5
485
  8
0
 10
77.313062935962819
 20
59.524797134485532
 30
0.0
 11
77.313062935962819
 21
51.524797134485539
 31
0.0
  0
LINE
  5
486
  8
0
 10
77.313062935962819
 20
51.524797134485539
 30
0.0
 11
118.8130629359628
 21
51.524797134485539
 31
0.0
  0
LINE
  5
487
  8
0
 10
118.8130629359628
 20
51.524797134485539
 30
0.0
 11
118.8130629359628
 21
59.524797134485532
 31
0.0
  0
LINE
  5
488
  8
0
 10
118.8130629359628
 20
59.524797134485532
 30
0.0
 11
151.0630629359629
 21
59.524797134485532
 31
0.0
  0
LINE
  5
489
  8
0
 10
151.0630629359629
 20
59.524797134485532
 30
0.0
 11
151.0630629359629
 21
99.524797134485524
 31
0.0
  0
LINE
  5
48A
  8
0
 10
151.0630629359629
 20
99.524797134485524
 30
0.0
 11
45.063062935962812
 21
99.524797134485524
 31
0.0
  0
LINE
  5
48B
  8
0
 10
45.063062935962812
 20
77.424797134485573
 30
0.0
 11
151.0630629359629
 21
77.424797134485573
 31
0.0
  0
LINE
  5
48C
  8
0
 10
151.0630629359629
 20
91.624797134485561
 30
0.0
 11
45.063062935962812
 21
91.624797134485561
 31
0.0
  0
LINE
  5
48D
  8
1
 10
40.063062935962812
 20
84.524797134485524
 30
0.0
 11
156.0630629359629
 21
84.524797134485524
 31
0.0
  0
LINE
  5
48E
  8
0
 10
217.44834431020149
 20
51.524797134485539
 30
0.0
 11
198.44834431020141
 21
51.524797134485539
 31
0.0
  0
LINE
  5
48F
  8
0
 10
198.44834431020141
 20
51.524797134485539
 30
0.0
 11
198.44834431020141
 21
77.42479713448563
 31
0.0
  0
LINE
  5
490
  8
0
 10
198.44834431020141
 20
99.524797134485524
 30
0.0
 11
217.44834431020149
 21
99.524797134485524
 31
0.0
  0
LINE
  5
491
  8
0
 10
223.44834431020149
 20
59.524797134485532
 30
0.0
 11
198.44834431020141
 21
59.524797134485532
 31
0.0
  0
LINE
  5
492
  8
0
 10
198.44834431020141
 20
91.624797134485561
 30
0.0
 11
205.5483443102016
 21
84.524797134485524
 31
0.0
  0
LINE
  5
493
  8
0
 10
205.5483443102016
 20
84.524797134485524
 30
0.0
 11
198.44834431020141
 21
77.42479713448563
 31
0.0
  0
LINE
  5
494
  8
1
 10
222.44834431020149
 20
84.524797134485524
 30
0.0
 11
186.0630629359629
 21
84.524797134485524
 31
0.0
  0
LINE
  5
495
  8
0
 10
198.44834431020141
 20
91.624797134485561
 30
0.0
 11
198.44834431020141
 21
99.524797134485524
 31
0.0
  0
LINE
  5
496
  8
0
 10
122.06306293596271
 20
63.524797134485539
 30
0.0
 11
123.0630629359629
 21
65.256847942054378
 31
0.0
  0
LINE
  5
497
  8
0
 10
123.0630629359629
 20
61.792746326916763
 30
0.0
 11
122.06306293596271
 21
63.524797134485539
 31
0.0
  0
LINE
  5
498
  8
0
 10
123.0630629359629
 20
65.256847942054378
 30
0.0
 11
125.0630629359628
 21
65.256847942054378
 31
0.0
  0
LINE
  5
499
  8
0
 10
125.0630629359628
 20
65.256847942054378
 30
0.0
 11
126.0630629359628
 21
63.524797134485539
 31
0.0
  0
LINE
  5
49A
  8
0
 10
126.0630629359628
 20
63.524797134485539
 30
0.0
 11
125.0630629359629
 21
61.792746326916763
 31
0.0
  0
LINE
  5
49B
  8
0
 10
125.0630629359629
 20
61.792746326916763
 30
0.0
 11
123.0630629359629
 21
61.792746326916763
 31
0.0
  0
LINE
  5
49C
  8
2
 10
128.0630629359629
 20
67.274797134485539
 30
0.0
 11
68.063062935962947
 21
67.274797134485539
 31
0.0
  0
LINE
  5
49D
  8
0
 10
222.94834431020149
 20
51.524797134485539
 30
0.0
 11
217.94834431020149
 21
51.524797134485539
 31
0.0
  0
LINE
  5
49E
  8
0
 10
217.44834431020149
 20
52.024797134485532
 30
0.0
 11
217.44834431020149
 21
66.024797134485539
 31
0.0
  0
LINE
  5
49F
  8
0
 10
217.94834431020149
 20
66.524797134485539
 30
0.0
 11
222.94834431020149
 21
66.524797134485539
 31
0.0
  0
LINE
  5
4A0
  8
0
 10
223.44834431020149
 20
66.024797134485539
 30
0.0
 11
223.44834431020149
 21
52.024797134485532
 31
0.0
  0
LINE
  5
4A1
  8
0
 10
222.94834431020149
 20
66.524797134485539
 30
0.0
 11
223.44834431020149
 21
66.024797134485539
 31
0.0
  0
LINE
  5
4A2
  8
0
 10
217.94834431020149
 20
66.524797134485539
 30
0.0
 11
217.44834431020149
 21
66.024797134485539
 31
0.0
  0
LINE
  5
4A3
  8
0
 10
217.94834431020149
 20
51.524797134485539
 30
0.0
 11
217.44834431020149
 21
52.024797134485532
 31
0.0
  0
LINE
  5
4A4
  8
0
 10
223.44834431020149
 20
52.024797134485532
 30
0.0
 11
222.94834431020149
 21
51.524797134485539
 31
0.0
  0
LINE
  5
4A5
  8
0
 10
217.44834431020149
 20
51.524797134485539
 30
0.0
 11
217.44834431020149
 21
58.774797134485539
 31
0.0
  0
LINE
  5
4A6
  8
0
 10
217.44834431020149
 20
61.174797134485573
 30
0.0
 11
217.44834431020149
 21
58.774797134485539
 31
0.0
  0
LINE
  5
4A7
  8
0
 10
217.44834431020149
 20
64.374797134485561
 30
0.0
 11
217.44834431020149
 21
61.174797134485573
 31
0.0
  0
LINE
  5
4A8
  8
2
 10
128.0630629359629
 20
59.524797134485532
 30
0.0
 11
128.0630629359629
 21
67.274797134485539
 31
0.0
  0
LINE
  5
4AB
  8
2
 10
68.063062935962947
 20
67.274797134485539
 30
0.0
 11
68.063062935962918
 21
59.524797134485532
 31
0.0
  0
LINE
  5
4AE
  8
0
 10
73.063062935962819
 20
61.792746326916763
 30
0.0
 11
71.063062935962819
 21
61.792746326916763
 31
0.0
  0
LINE
  5
4AF
  8
0
 10
74.063062935962648
 20
63.524797134485539
 30
0.0
 11
73.063062935962819
 21
61.792746326916763
 31
0.0
  0
LINE
  5
4B0
  8
0
 10
73.063062935962634
 20
65.256847942054378
 30
0.0
 11
74.063062935962648
 21
63.524797134485539
 31
0.0
  0
LINE
  5
4B1
  8
0
 10
71.063062935962819
 20
65.256847942054151
 30
0.0
 11
73.063062935962634
 21
65.256847942054378
 31
0.0
  0
LINE
  5
4B2
  8
0
 10
70.063062935962805
 20
63.524797134485311
 30
0.0
 11
71.063062935962819
 21
65.256847942054151
 31
0.0
  0
LINE
  5
4B3
  8
0
 10
71.063062935962819
 20
61.792746326916763
 30
0.0
 11
70.063062935962805
 21
63.524797134485311
 31
0.0
  0
LINE
  5
4B4
  8
2
 10
217.44834431020149
 20
80.524797134485524
 30
0.0
 11
212.94834431020149
 21
80.524797134485524
 31
0.0
  0
LINE
  5
4B5
  8
0
 10
217.44834431020149
 20
99.524797134485482
 30
0.0
 11
217.44834431020149
 21
51.524797134485539
 31
0.0
  0
LINE
  5
4B6
  8
2
 10
212.94834431020149
 20
80.524797134485524
 30
0.0
 11
212.94834431020149
 21
88.524797134485596
 31
0.0
  0
LINE
  5
4B7
  8
2
 10
212.94834431020149
 20
82.124797134485576
 30
0.0
 11
203.14834431020171
 21
82.124797134485576
 31
0.0
  0
LINE
  5
4B8
  8
2
 10
217.44834431020149
 20
88.524797134485539
 30
0.0
 11
212.94834431020149
 21
88.524797134485539
 31
0.0
  0
LINE
  5
4B9
  8
2
 10
212.94834431020149
 20
86.924797134485573
 30
0.0
 11
203.14834431020171
 21
86.924797134485573
 31
0.0
  0
LINE
  5
4BA
  8
2
 10
193.6630629359629
 20
82.82479713448555
 30
0.0
 11
192.6815674783407
 21
84.524797134485425
 31
0.0
  0
LINE
  5
4BB
  8
2
 10
192.6815674783407
 20
84.524797134485425
 30
0.0
 11
193.6630629359629
 21
86.2247971344853
 31
0.0
  0
LINE
  5
4BC
  8
2
 10
193.6630629359629
 20
82.82479713448555
 30
0.0
 11
193.6630629359629
 21
86.2247971344853
 31
0.0
  0
LINE
  5
4BD
  8
2
 10
196.5630629359629
 20
82.524797134485425
 30
0.0
 11
196.5630629359629
 21
86.524797134485425
 31
0.0
  0
LINE
  5
4BE
  8
2
 10
196.5630629359629
 20
82.524797134485425
 30
0.0
 11
195.46306293596291
 21
82.82479713448555
 31
0.0
  0
LINE
  5
4BF
  8
2
 10
196.5630629359629
 20
86.524797134485425
 30
0.0
 11
195.46306293596291
 21
86.2247971344853
 31
0.0
  0
LINE
  5
4C0
  8
0
 10
53.063062935962819
 20
78.524797134485539
 30
0.0
 11
83.063062935962819
 21
78.524797134485539
 31
0.0
  0
LINE
  5
4C1
  8
0
 10
83.063062935962819
 20
78.524797134485539
 30
0.0
 11
83.063062935962819
 21
90.524797134485524
 31
0.0
  0
LINE
  5
4C2
  8
0
 10
83.063062935962819
 20
90.524797134485524
 30
0.0
 11
53.063062935962819
 21
90.524797134485524
 31
0.0
  0
LINE
  5
4C3
  8
0
 10
53.063062935962819
 20
90.524797134485524
 30
0.0
 11
53.063062935962819
 21
78.524797134485539
 31
0.0
  0
LINE
  5
4C4
  8
0
 10
113.0630629359628
 20
78.524797134485539
 30
0.0
 11
143.06306293596279
 21
78.524797134485539
 31
0.0
  0
LINE
  5
4C5
  8
0
 10
143.06306293596279
 20
78.524797134485539
 30
0.0
 11
143.06306293596279
 21
90.524797134485524
 31
0.0
  0
LINE
  5
4C6
  8
0
 10
143.06306293596279
 20
90.524797134485524
 30
0.0
 11
113.0630629359628
 21
90.524797134485524
 31
0.0
  0
LINE
  5
4C7
  8
0
 10
113.0630629359628
 20
90.524797134485524
 30
0.0
 11
113.0630629359628
 21
78.524797134485539
 31
0.0
  0
LINE
  5
4C8
  8
1
 10
128.06306293596279
 20
95.524797134485524
 30
0.0
 11
128.0630629359629
 21
73.524797134485482
 31
0.0
  0
LINE
  5
4C9
  8
1
 10
68.063062935962819
 20
95.524797134485524
 30
0.0
 11
68.063062935962819
 21
73.524797134485539
 31
0.0
  0
LINE
  5
4CA
  8
2
 10
212.94834431020149
 20
82.524797134485539
 30
0.0
 11
203.5483443102016
 21
82.524797134485581
 31
0.0
  0
LINE
  5
4CB
  8
2
 10
197.24834431020139
 20
82.524797134485539
 30
0.0
 11
196.94834431020149
 21
82.82479713448555
 31
0.0
  0
LINE
  5
4CC
  8
2
 10
196.94834431020149
 20
82.82479713448555
 30
0.0
 11
196.94834431020149
 21
86.224797134485527
 31
0.0
  0
LINE
  5
4CD
  8
2
 10
196.94834431020149
 20
86.224797134485527
 30
0.0
 11
197.24834431020139
 21
86.524797134485539
 31
0.0
  0
LINE
  5
4CE
  8
2
 10
196.5630629359629
 20
86.524797134485596
 30
0.0
 11
202.71991718545519
 21
86.524797134485581
 31
0.0
  0
LINE
  5
4CF
  8
2
 10
210.8483443102015
 20
82.524797134485539
 30
0.0
 11
210.8483443102015
 21
86.524797134485539
 31
0.0
  0
LINE
  5
4D0
  8
2
 10
193.66306293596301
 20
82.82479713448555
 30
0.0
 11
202.81719188828919
 21
82.82479713448555
 31
0.0
  0
LINE
  5
4D1
  8
2
 10
210.8483443102015
 20
82.82479713448555
 30
0.0
 11
211.36795955247209
 21
82.524797134485539
 31
0.0
  0
LINE
  5
4D2
  8
2
 10
211.36795955247209
 20
86.524797134485539
 30
0.0
 11
210.8483443102015
 21
86.224797134485527
 31
0.0
  0
LINE
  5
4D3
  8
2
 10
210.8483443102015
 20
86.224797134485527
 30
0.0
 11
203.8483443102015
 21
86.22479713448557
 31
0.0
  0
LINE
  5
4D4
  8
2
 10
197.24834431020139
 20
86.524797134485539
 30
0.0
 11
197.24834431020139
 21
82.524797134485539
 31
0.0
  0
LINE
  5
4D5
  8
2
 10
212.94834431020149
 20
81.024797134485539
 30
0.0
 11
216.54834431020149
 21
81.024797134485539
 31
0.0
  0
LINE
  5
4D6
  8
2
 10
216.94834431020149
 20
81.424797134485559
 30
0.0
 11
216.94834431020149
 21
87.624797134485561
 31
0.0
  0
LINE
  5
4D7
  8
2
 10
216.54834431020149
 20
88.024797134485524
 30
0.0
 11
212.94834431020149
 21
88.024797134485524
 31
0.0
  0
ARC
  5
4D8
  8
0
 10
220.44834431020149
 20
65.441463801152494
 30
0.0
 40
2.0833333333269861
 50
31.332251497584942
 51
148.66774850230831
  0
CIRCLE
  5
4D9
  8
0
 10
124.0630629359629
 20
63.524797134485539
 30
0.0
 40
3.099999999999965
  0
CIRCLE
  5
4DA
  8
0
 10
72.063062935962819
 20
63.524797134485539
 30
0.0
 40
3.1000000000000232
  0
CIRCLE
  5
4DB
  8
0
 10
98.063062935962819
 20
84.524797134485524
 30
0.0
 40
2.3999999999999768
  0
ARC
  5
4DC
  8
2
 10
216.54834431020149
 20
87.624797134485561
 30
0.0
 40
0.4000000000000341
 50
0.0
 51
90.0
  0
ARC
  5
4DD
  8
2
 10
216.54834431020149
 20
81.424797134485559
 30
0.0
 40
0.3999999999999773
 50
270.0
 51
0.0
  0
CIRCLE
  5
4DE
  8
0
 10
197.0630629359629
 20
84.524797134485524
 30
0.0
 40
6.0
  0
LINE
  5
4DF
  8
0
 10
45.063062935962812
 20
84.524797134485524
 30
0.0
 11
53.063062935962819
 21
84.524797134485524
 31
0.0
  0
LINE
  5
4E0
  8
0
 10
143.06306293596279
 20
84.524797134485524
 30
0.0
 11
151.0630629359629
 21
84.524797134485524
 31
0.0
  0
LINE
  5
4E1
  8
0
 10
83.063062935962819
 20
84.524797134485524
 30
0.0
 11
95.663062935962841
 21
84.524797134485524
 31
0.0
  0
LINE
  5
4E2
  8
0
 10
100.4630629359628
 20
84.524797134485524
 30
0.0
 11
113.0630629359628
 21
84.524797134485524
 31
0.0
  0
LINE
  5
4E3
  8
0
 10
151.06306293596279
 20
165.9100785087239
 30
0.0
 11
45.06306293596279
 21
165.9100785087239
 31
0.0
  0
LINE
  5
4E4
  8
0
 10
151.0630629359629
 20
146.91007850872381
 30
0.0
 11
151.06306293596279
 21
165.9100785087239
 31
0.0
  0
LINE
  5
4E5
  8
0
 10
45.06306293596279
 20
165.9100785087239
 30
0.0
 11
45.063062935962812
 21
146.91007850872381
 31
0.0
  0
LINE
  5
4E6
  8
1
 10
98.063062935962819
 20
134.52479713448551
 30
0.0
 11
98.063062935962776
 21
176.9100785087241
 31
0.0
  0
LINE
  5
4E7
  8
0
 10
151.06306293596279
 20
146.91007850872381
 30
0.0
 11
45.06306293596279
 21
146.91007850872381
 31
0.0
  0
LINE
  5
4E8
  8
0
 10
128.0630629359629
 20
171.9100785087241
 30
0.0
 11
68.063062935962904
 21
171.9100785087241
 31
0.0
  0
LINE
  5
4E9
  8
0
 10
128.0630629359629
 20
165.91007850872401
 30
0.0
 11
128.0630629359629
 21
171.9100785087241
 31
0.0
  0
LINE
  5
4EA
  8
0
 10
68.063062935962932
 20
165.91007850872401
 30
0.0
 11
68.063062935962904
 21
171.9100785087241
 31
0.0
  0
LINE
  5
4EB
  8
0
 10
143.06306293596279
 20
139.52479713448551
 30
0.0
 11
113.06306293596271
 21
139.52479713448551
 31
0.0
  0
LINE
  5
4EC
  8
0
 10
143.06306293596279
 20
139.52479713448551
 30
0.0
 11
143.06306293596279
 21
146.91007850872381
 31
0.0
  0
LINE
  5
4ED
  8
0
 10
113.0630629359628
 20
139.52479713448551
 30
0.0
 11
113.0630629359628
 21
146.91007850872381
 31
0.0
  0
LINE
  5
4EE
  8
0
 10
83.06306293596279
 20
139.52479713448551
 30
0.0
 11
83.063062935962819
 21
146.91007850872381
 31
0.0
  0
LINE
  5
4EF
  8
0
 10
53.06306293596279
 20
139.52479713448551
 30
0.0
 11
53.063062935962762
 21
146.91007850872381
 31
0.0
  0
LINE
  5
4F0
  8
0
 10
83.063062935962776
 20
139.52479713448551
 30
0.0
 11
53.063062935962819
 21
139.5247971344856
 31
0.0
  0
CIRCLE
  5
4F1
  8
0
 10
115.5630629359628
 20
168.9100785087241
 30
0.0
 40
1.7795130419999621
  0
CIRCLE
  5
4F2
  8
0
 10
80.563062935962733
 20
168.9100785087241
 30
0.0
 40
1.7795130419999621
  0
LINE
  5
4F3
  8
1
 10
68.063062935962819
 20
151.91007850872381
 30
0.0
 11
68.063062935962819
 21
134.52479713448551
 31
0.0
  0
LINE
  5
4F4
  8
1
 10
128.0630629359629
 20
151.91007850872381
 30
0.0
 11
128.0630629359629
 21
134.52479713448551
 31
0.0
  0
LINE
  5
4F6
  8
2
 10
202.81719188828919
 20
86.22479713448557
 30
0.0
 11
193.66306293596301
 21
86.224797134485641
 31
0.0
  0
LINE
  5
4F7
  8
2
 10
203.5483443102016
 20
86.524797134485581
 30
0.0
 11
212.94834431020149
 21
86.524797134485539
 31
0.0
  0
LINE
  5
4F8
  8
2
 10
203.84834431020161
 20
82.824797134485536
 30
0.0
 11
210.8483443102015
 21
82.82479713448555
 31
0.0
  0
LINE
  5
4F9
  8
2
 10
202.7199171854553
 20
82.524797134485567
 30
0.0
 11
196.5630629359629
 21
82.524797134485596
 31
0.0
  0
LINE
  5
4FA
  8
0
 10
202.71991718545519
 20
86.524797134485581
 30
0.0
 11
203.5483443102016
 21
86.524797134485581
 31
0.0
  0
LINE
  5
4FB
  8
3
 10
202.81719188828919
 20
86.224797134485556
 30
0.0
 11
203.8483443102015
 21
86.22479713448557
 31
0.0
  0
LINE
  5
4FE
  8
3
 10
202.81719188828919
 20
82.824797134485522
 30
0.0
 11
203.8483443102015
 21
82.824797134485493
 31
0.0
  0
LINE
  5
4FF
  8
0
 10
202.71991718545519
 20
82.524797134485496
 30
0.0
 11
203.5483443102016
 21
82.524797134485496
 31
0.0
  0
TEXT
  5
5BF
  8
0
 62
     3
 10
0.0
 20
0.0
 30
0.0
 40
10.0
  1
MVSJ110R
  7
STANDARD1
  0
ENDSEC
  0
EOF
