  0
SECTION
  2
HEADER
  9
$ACADVER
  1
AC1009
  9
$INSBASE
 10
0.0
 20
0.0
 30
0.0
  9
$EXTMIN
 10
0.0
 20
-2.960436562073669
 30
0.0
  9
$EXTMAX
 10
246.00000193900021
 20
63.000000752499972
 30
0.0
  9
$LIMMIN
 10
0.0
 20
0.0
  9
$LIMMAX
 10
187.5
 20
135.0
  9
$ORTHOMODE
 70
     1
  9
$REGENMODE
 70
     1
  9
$FILLMODE
 70
     1
  9
$QTEXTMODE
 70
     0
  9
$MIRRTEXT
 70
     0
  9
$DRAGMODE
 70
     2
  9
$LTSCALE
 40
10.0
  9
$OSMODE
 70
  3071
  9
$ATTMODE
 70
     1
  9
$TEXTSIZE
 40
0.2
  9
$TRACEWID
 40
0.05
  9
$TEXTSTYLE
  7
STANDARD
  9
$CLAYER
  8
0
  9
$CELTYPE
  6
BYLAYER
  9
$CECOLOR
 62
   256
  9
$DIMSCALE
 40
0.5
  9
$DIMASZ
 40
3.0
  9
$DIMEXO
 40
2.0
  9
$DIMDLI
 40
0.38
  9
$DIMRND
 40
0.0
  9
$DIMDLE
 40
0.0
  9
$DIMEXE
 40
2.0
  9
$DIMTP
 40
0.0
  9
$DIMTM
 40
0.0
  9
$DIMTXT
 40
3.2000000000000002
  9
$DIMCEN
 40
0.0
  9
$DIMTSZ
 40
0.0
  9
$DIMTOL
 70
     0
  9
$DIMLIM
 70
     0
  9
$DIMTIH
 70
     0
  9
$DIMTOH
 70
     0
  9
$DIMSE1
 70
     0
  9
$DIMSE2
 70
     0
  9
$DIMTAD
 70
     1
  9
$DIMZIN
 70
     0
  9
$DIMBLK
  1

  9
$DIMASO
 70
     0
  9
$DIMSHO
 70
     0
  9
$DIMPOST
  1

  9
$DIMAPOST
  1

  9
$DIMALT
 70
     0
  9
$DIMALTD
 70
     2
  9
$DIMALTF
 40
25.399999999999999
  9
$DIMLFAC
 40
1.0
  9
$DIMTOFL
 70
     1
  9
$DIMTVP
 40
1.6000000000000001
  9
$DIMTIX
 70
     1
  9
$DIMSOXD
 70
     0
  9
$DIMSAH
 70
     0
  9
$DIMBLK1
  1

  9
$DIMBLK2
  1

  9
$DIMSTYLE
  2
STANDARD
  9
$DIMCLRD
 70
     0
  9
$DIMCLRE
 70
     0
  9
$DIMCLRT
 70
     0
  9
$DIMTFAC
 40
1.0
  9
$DIMGAP
 40
0.09
  9
$LUNITS
 70
     2
  9
$LUPREC
 70
     4
  9
$SKETCHINC
 40
0.1
  9
$FILLETRAD
 40
0.0
  9
$AUNITS
 70
     0
  9
$AUPREC
 70
     4
  9
$MENU
  1
E:\r13\win\SUPPORT\ACAD
  9
$ELEVATION
 40
0.0
  9
$PELEVATION
 40
0.0
  9
$THICKNESS
 40
0.0
  9
$LIMCHECK
 70
     0
  9
$BLIPMODE
 70
     0
  9
$CHAMFERA
 40
0.0
  9
$CHAMFERB
 40
0.0
  9
$SKPOLY
 70
     0
  9
$TDCREATE
 40
2449839.7732986109
  9
$TDUPDATE
 40
2456597.6753317942
  9
$TDINDWG
 40
0.1516430093
  9
$TDUSRTIMER
 40
0.1516430093
  9
$USRTIMER
 70
     1
  9
$ANGBASE
 50
0.0
  9
$ANGDIR
 70
     0
  9
$PDMODE
 70
     0
  9
$PDSIZE
 40
0.0
  9
$PLINEWID
 40
0.0
  9
$COORDS
 70
     1
  9
$SPLFRAME
 70
     0
  9
$SPLINETYPE
 70
     6
  9
$SPLINESEGS
 70
     8
  9
$ATTDIA
 70
     0
  9
$ATTREQ
 70
     1
  9
$HANDLING
 70
     1
  9
$HANDSEED
  5
19AB
  9
$SURFTAB1
 70
     6
  9
$SURFTAB2
 70
     6
  9
$SURFTYPE
 70
     6
  9
$SURFU
 70
     6
  9
$SURFV
 70
     6
  9
$UCSNAME
  2

  9
$UCSORG
 10
0.0
 20
0.0
 30
0.0
  9
$UCSXDIR
 10
1.0
 20
0.0
 30
0.0
  9
$UCSYDIR
 10
0.0
 20
1.0
 30
0.0
  9
$PUCSNAME
  2

  9
$PUCSORG
 10
0.0
 20
0.0
 30
0.0
  9
$PUCSXDIR
 10
1.0
 20
0.0
 30
0.0
  9
$PUCSYDIR
 10
0.0
 20
1.0
 30
0.0
  9
$USERI1
 70
     0
  9
$USERI2
 70
     1
  9
$USERI3
 70
     0
  9
$USERI4
 70
     0
  9
$USERI5
 70
     0
  9
$USERR1
 40
0.0
  9
$USERR2
 40
0.0
  9
$USERR3
 40
0.0
  9
$USERR4
 40
0.0
  9
$USERR5
 40
0.0
  9
$WORLDVIEW
 70
     1
  9
$SHADEDGE
 70
     3
  9
$SHADEDIF
 70
    70
  9
$TILEMODE
 70
     1
  9
$MAXACTVP
 70
    16
  9
$PLIMCHECK
 70
     0
  9
$PEXTMIN
 10
1.0000000000000000E+020
 20
1.0000000000000000E+020
 30
1.0000000000000000E+020
  9
$PEXTMAX
 10
-1.0000000000000000E+020
 20
-1.0000000000000000E+020
 30
-1.0000000000000000E+020
  9
$PLIMMIN
 10
0.0
 20
0.0
  9
$PLIMMAX
 10
12.0
 20
9.0
  9
$UNITMODE
 70
     0
  9
$VISRETAIN
 70
     0
  9
$PLINEGEN
 70
     0
  9
$PSLTSCALE
 70
     0
  0
ENDSEC
  0
SECTION
  2
TABLES
  0
TABLE
  2
VPORT
 70
     1
  0
VPORT
  2
*ACTIVE
 70
     0
 10
0.0
 20
0.0
 11
1.0
 21
1.0
 12
123.0000015422634
 22
66.313465060797697
 13
0.0
 23
0.0
 14
5.0
 24
5.0
 15
5.0
 25
5.0
 16
0.0
 26
0.0
 36
1.0
 17
0.0
 27
0.0
 37
0.0
 40
140.15365342376049
 41
2.304913294797688
 42
50.0
 43
0.0
 44
0.0
 50
0.0
 51
0.0
 71
     0
 72
   500
 73
     1
 74
     0
 75
     0
 76
     0
 77
     0
 78
     2
  0
ENDTAB
  0
TABLE
  2
LTYPE
 70
     3
  0
LTYPE
  2
CONTINUOUS
 70
     0
  3
Solid Line
 72
    65
 73
     0
 40
0.0
  0
LTYPE
  2
CENTER
 70
     0
  3
____ _ ____ _ ____ _ ____ _ ____ _ ____ _ ____
 72
    65
 73
     4
 40
2.0
 49
1.25
 49
-0.25
 49
0.25
 49
-0.25
  0
LTYPE
  2
PHANTOM2
 70
     0
  3
___ _ _ ___ _ _ ___ _ _ ___ _ _
 72
    65
 73
     6
 40
1.25
 49
0.625
 49
-0.125
 49
0.125
 49
-0.125
 49
0.125
 49
-0.125
  0
ENDTAB
  0
TABLE
  2
LAYER
 70
     4
  0
LAYER
  2
0
 70
     0
 62
     7
  6
CONTINUOUS
  0
LAYER
  2
1
 70
     0
 62
     1
  6
CENTER
  0
LAYER
  2
3
 70
     0
 62
     3
  6
CONTINUOUS
  0
LAYER
  2
DEFPOINTS
 70
     0
 62
     7
  6
CONTINUOUS
  0
ENDTAB
  0
TABLE
  2
STYLE
 70
     2
  0
STYLE
  2
STANDARD
 70
     0
 40
0.0
 41
1.0
 50
0.0
 71
     0
 42
0.2
  3
TXT
  4
BIGFONT
  0
STYLE
  2
STANDARD1
 70
     0
 40
0.0
 41
1.0
 50
0.0
 71
     0
 42
3.0
  3
txt
  4

  0
ENDTAB
  0
TABLE
  2
VIEW
 70
     1
  0
VIEW
  2
ALL
 70
     0
 40
270.0
 10
220.99159663865549
 20
135.0
 41
0.0
 11
0.0
 21
0.0
 31
1.0
 12
0.0
 22
0.0
 32
0.0
 42
0.0
 43
0.0
 44
0.0
 50
0.0
 71
     0
  0
ENDTAB
  0
TABLE
  2
UCS
 70
     0
  0
ENDTAB
  0
TABLE
  2
APPID
 70
     5
  0
APPID
  2
ACAD
 70
     0
  0
APPID
  2
ACAD_EXEMPT_FROM_CAD_STANDARDS
 70
     0
  0
APPID
  2
ACAD_DSTYLE_DIMRADIAL_EXTENSION
 70
     0
  0
APPID
  2
ACAD_MLEADERVER
 70
     0
  0
APPID
  2
ACAD_NAV_VCDISPLAY
 70
     0
  0
ENDTAB
  0
TABLE
  2
DIMSTYLE
 70
     1
  0
DIMSTYLE
  2
STANDARD
 70
     0
  3

  4

  5

  6

  7

 40
1.0
 41
0.18
 42
0.0625
 43
0.38
 44
0.18
 45
0.0
 46
0.0
 47
0.0
 48
0.0
140
0.18
141
0.09
142
0.0
143
25.399999999999999
144
1.0
145
0.0
146
1.0
147
0.09
 71
     0
 72
     0
 73
     1
 74
     1
 75
     0
 76
     0
 77
     0
 78
     0
170
     0
171
     2
172
     0
173
     0
174
     0
175
     0
176
     0
177
     0
178
     0
  0
ENDTAB
  0
ENDSEC
  0
SECTION
  2
BLOCKS
  0
BLOCK
  8
0
  2
$MODEL_SPACE
 70
     0
 10
0.0
 20
0.0
 30
0.0
  3
$MODEL_SPACE
  1

  0
ENDBLK
  5
1D4
  8
0
  0
BLOCK
 67
     1
  8
0
  2
$PAPER_SPACE
 70
     0
 10
0.0
 20
0.0
 30
0.0
  3
$PAPER_SPACE
  1

  0
ENDBLK
  5
1D2
 67
     1
  8
0
  0
ENDSEC
  0
SECTION
  2
ENTITIES
  0
LINE
  5
D15
  8
0
 10
136.49999791389999
 20
58.000000752499972
 30
0.0
 11
138.00000095370001
 21
56.499999575399983
 31
0.0
  0
LINE
  5
D16
  8
0
 10
138.00000095370001
 20
26.499999896699912
 30
0.0
 11
136.49999791389999
 21
24.999999999999972
 31
0.0
  0
LINE
  5
D17
  8
0
 10
136.49999791389999
 20
24.999999999999972
 30
0.0
 11
134.00000029809999
 21
24.999999999999972
 31
0.0
  0
LINE
  5
D18
  8
0
 10
134.00000029809999
 20
58.000000752499972
 30
0.0
 11
136.49999791389999
 21
58.000000752499972
 31
0.0
  0
ARC
  5
D3A
  8
0
 10
133.59999999999999
 20
55.8999998992999
 30
0.0
 40
0.3999999999999986
 50
270.0
 51
0.0
  0
ARC
  5
D3B
  8
0
 10
133.59999999999999
 20
27.099999899299949
 30
0.0
 40
0.4000000000000057
 50
0.0
 51
90.0
  0
ARC
  5
D4B
  8
0
 10
42.000000000000021
 20
41.499999899299922
 30
0.0
 40
17.000000000000028
 50
146.02552404969941
 51
213.97447595030059
  0
LINE
  5
D4C
  8
0
 10
27.902126997800028
 20
50.99999960519991
 30
0.0
 11
31.199999839099998
 21
50.99999960519991
 31
0.0
  0
LINE
  5
D4D
  8
0
 10
31.199999839099998
 20
31.999999750399951
 30
0.0
 11
27.902126997800028
 21
31.999999750399951
 31
0.0
  0
LINE
  5
D4E
  8
0
 10
31.199999839099998
 20
50.99999960519991
 30
0.0
 11
33.200000166900082
 21
48.999999277299899
 31
0.0
  0
LINE
  5
D4F
  8
0
 10
33.200000741910138
 20
34.000000078299912
 30
0.0
 11
31.199999839099998
 21
31.999999750399951
 31
0.0
  0
LINE
  5
E58
  8
0
 10
136.49999791389999
 20
58.000000752499972
 30
0.0
 11
136.49999791389999
 21
24.999999999999972
 31
0.0
  0
LINE
  5
E59
  8
0
 10
138.00000095370001
 20
26.499999896699912
 30
0.0
 11
138.00000095370001
 21
56.499999575399983
 31
0.0
  0
LINE
  5
E5C
  8
0
 10
134.00000029809999
 20
58.000000752499972
 30
0.0
 11
134.00000029809999
 21
25.0
 31
0.0
  0
LINE
  5
E93
  8
0
 10
27.902126997800028
 20
50.99999960519991
 30
0.0
 11
27.902126997800028
 21
31.999999750399951
 31
0.0
  0
LINE
  5
E95
  8
0
 10
31.199999839099998
 20
50.99999960519991
 30
0.0
 11
31.199999839099998
 21
31.999999750399951
 31
0.0
  0
LINE
  5
E96
  8
0
 10
33.200000166900082
 20
48.999999277299899
 30
0.0
 11
33.200000166900082
 21
33.999999503290013
 31
0.0
  0
LINE
  5
EC6
  8
0
 10
39.999999791400029
 20
30.499999970199919
 30
0.0
 11
39.999999791400029
 21
52.500000782299907
 31
0.0
  0
LINE
  5
EC7
  8
0
 10
33.200000166900082
 20
48.999999277299899
 30
0.0
 11
39.999999791400029
 21
48.999999277299899
 31
0.0
  0
LINE
  5
EC8
  8
0
 10
39.999999791400029
 20
34.000000078299912
 30
0.0
 11
33.200000166900082
 21
34.000000078299912
 31
0.0
  0
LINE
  5
ECA
  8
0
 10
41.732050949400303
 20
27.499999899299919
 30
0.0
 11
39.999999791400029
 21
30.499999970199919
 31
0.0
  0
LINE
  5
F35
  8
1
 10
20.0
 20
41.499999903915693
 30
0.0
 11
163.00000095370001
 21
41.499999736049944
 31
0.0
  0
LINE
  5
1746
  8
0
 10
41.732050949400289
 20
55.499999899299901
 30
0.0
 11
133.59999999999999
 21
55.499999899299922
 31
0.0
  0
LINE
  5
1747
  8
0
 10
41.732050949400303
 20
27.499999899299919
 30
0.0
 11
133.59999999999999
 21
27.499999899299919
 31
0.0
  0
LINE
  5
1748
  8
3
 10
124.00000029810001
 20
52.749999426299922
 30
0.0
 11
40.144337152336291
 21
52.749999426299922
 31
0.0
  0
LINE
  5
1749
  8
3
 10
124.00000029810001
 20
30.24999992929995
 30
0.0
 11
40.144337408102487
 21
30.24999992929995
 31
0.0
  0
LINE
  5
174A
  8
0
 10
124.00000029810001
 20
55.499999411399862
 30
0.0
 11
124.00000029810001
 21
27.499999885899939
 31
0.0
  0
CIRCLE
  5
1752
  8
0
 10
224.5000014463501
 20
41.500000259849912
 30
0.0
 40
16.500000492650059
  0
CIRCLE
  5
1753
  8
0
 10
224.5000014463501
 20
41.500000259849912
 30
0.0
 40
14.99999931555007
  0
LINE
  5
175B
  8
1
 10
246.00000193900021
 20
41.500000259849912
 30
0.0
 11
203.00000095370001
 21
41.500000259849912
 31
0.0
  0
LINE
  5
1762
  8
1
 10
224.5000014463501
 20
63.000000752499972
 30
0.0
 11
224.5000014463501
 21
19.999999767199849
 31
0.0
  0
ARC
  5
176D
  8
0
 10
224.5000014463501
 20
41.500000259849912
 30
0.0
 40
12.25
 50
176.10890567761811
 51
183.89109432238189
  0
ARC
  5
176E
  8
0
 10
224.5000014463501
 20
41.500000259849912
 30
0.0
 40
12.25
 50
116.1089056776177
 51
123.89109432238131
  0
ARC
  5
176F
  8
0
 10
224.5000014463501
 20
41.500000259849912
 30
0.0
 40
12.250000000000041
 50
56.108905677618658
 51
63.891094322381939
  0
ARC
  5
1771
  8
0
 10
224.5000014463501
 20
41.500000259849912
 30
0.0
 40
12.250000000000011
 50
296.10890567761771
 51
303.89109432238132
  0
ARC
  5
1772
  8
0
 10
224.5000014463501
 20
41.500000259849912
 30
0.0
 40
12.25000000000003
 50
236.10890567761979
 51
243.89109432238229
  0
LINE
  5
1773
  8
0
 10
217.66920433632731
 20
51.668712609095728
 30
0.0
 11
212.27823967311531
 21
42.331287910604082
 31
0.0
  0
LINE
  5
1774
  8
0
 10
212.27823967311531
 20
40.668712609095728
 30
0.0
 11
217.66920433632731
 21
31.33128791060409
 31
0.0
  0
LINE
  5
1775
  8
0
 10
219.10903678313809
 20
30.500000259849909
 30
0.0
 11
229.8909661095621
 21
30.500000259849909
 31
0.0
  0
LINE
  5
1776
  8
0
 10
231.33079855637291
 20
31.33128791060409
 30
0.0
 11
236.72176321958489
 21
40.668712609095728
 31
0.0
  0
LINE
  5
1777
  8
0
 10
236.72176321958489
 20
42.331287910604082
 30
0.0
 11
231.33079855637291
 21
51.668712609095728
 31
0.0
  0
LINE
  5
1778
  8
0
 10
229.8909661095621
 20
52.500000259849912
 30
0.0
 11
219.10903678313809
 21
52.500000259849912
 31
0.0
  0
ARC
  5
1779
  8
0
 10
224.5000014463501
 20
41.500000259849912
 30
0.0
 40
12.25
 50
356.10890567761811
 51
3.891094322381889
  0
LINE
  5
1780
  8
0
 10
138.00000095370001
 20
52.499999736049944
 30
0.0
 11
157.00000095370001
 21
52.499999736049944
 31
0.0
  0
LINE
  5
1781
  8
0
 10
158.00000095370001
 20
51.499999736049951
 30
0.0
 11
158.00000095370001
 21
31.499999736049951
 31
0.0
  0
LINE
  5
1782
  8
0
 10
157.00000095370001
 20
30.49999973604994
 30
0.0
 11
138.00000095370001
 21
30.49999973604994
 31
0.0
  0
LINE
  5
1783
  8
0
 10
138.00000095370001
 20
41.499999736049944
 30
0.0
 11
156.00000095370001
 21
41.499999736049944
 31
0.0
  0
LINE
  5
1784
  8
0
 10
157.00000095370001
 20
52.499999736049944
 30
0.0
 11
158.00000095370001
 21
51.499999736049951
 31
0.0
  0
LINE
  5
1785
  8
0
 10
158.00000095370001
 20
31.499999736049951
 30
0.0
 11
157.00000095370001
 21
30.49999973604994
 31
0.0
  0
POLYLINE
  5
1786
  8
0
 66
     1
 10
0.0
 20
0.0
 30
0.0
  0
VERTEX
  5
1957
  8
0
 10
156.00000095370001
 20
41.499999736049944
 30
0.0
  0
VERTEX
  5
1958
  8
0
 10
156.24620657738481
 20
41.663797022375597
 30
0.0
  0
VERTEX
  5
1959
  8
0
 10
156.38832619400179
 20
41.932663349987394
 30
0.0
  0
VERTEX
  5
195A
  8
0
 10
156.4941566283608
 20
42.21795692607585
 30
0.0
  0
VERTEX
  5
195B
  8
0
 10
156.57803670864959
 20
42.510558016493491
 30
0.0
  0
VERTEX
  5
195C
  8
0
 10
156.64719243481781
 20
42.806984722218402
 30
0.0
  0
VERTEX
  5
195D
  8
0
 10
156.7062162791045
 20
43.105594959675607
 30
0.0
  0
VERTEX
  5
195E
  8
0
 10
156.7569634832453
 20
43.40572205373752
 30
0.0
  0
VERTEX
  5
195F
  8
0
 10
156.80098921262771
 20
43.706912505463919
 30
0.0
  0
VERTEX
  5
1960
  8
0
 10
156.83924681616449
 20
44.008885225975597
 30
0.0
  0
VERTEX
  5
1961
  8
0
 10
156.87239058666509
 20
44.311465496171017
 30
0.0
  0
VERTEX
  5
1962
  8
0
 10
156.90107805660779
 20
44.614498675329337
 30
0.0
  0
VERTEX
  5
1963
  8
0
 10
156.92559875280131
 20
44.917896973164311
 30
0.0
  0
VERTEX
  5
1964
  8
0
 10
156.9462852653844
 20
45.221582143079701
 30
0.0
  0
VERTEX
  5
1965
  8
0
 10
156.96341850304461
 20
45.525487342918041
 30
0.0
  0
VERTEX
  5
1966
  8
0
 10
156.97710949965131
 20
45.829566864410587
 30
0.0
  0
VERTEX
  5
1967
  8
0
 10
156.9875226009332
 20
46.133777034132663
 30
0.0
  0
VERTEX
  5
1968
  8
0
 10
156.99478698014721
 20
46.438078092186032
 30
0.0
  0
VERTEX
  5
1969
  8
0
 10
156.99891596595461
 20
46.74243758012053
 30
0.0
  0
VERTEX
  5
196A
  8
0
 10
156.99996534235049
 20
47.046823844171712
 30
0.0
  0
VERTEX
  5
196B
  8
0
 10
156.99797759657889
 20
47.35120524047246
 30
0.0
  0
VERTEX
  5
196C
  8
0
 10
156.9928863127987
 20
47.655550124264323
 30
0.0
  0
VERTEX
  5
196D
  8
0
 10
156.98465663625461
 20
47.959826834937267
 30
0.0
  0
VERTEX
  5
196E
  8
0
 10
156.9732554452321
 20
48.264001442690699
 30
0.0
  0
VERTEX
  5
196F
  8
0
 10
156.95851884414779
 20
48.56803198184673
 30
0.0
  0
VERTEX
  5
1970
  8
0
 10
156.9403067518424
 20
48.871874776593422
 30
0.0
  0
VERTEX
  5
1971
  8
0
 10
156.9184808368706
 20
49.175480021753941
 30
0.0
  0
VERTEX
  5
1972
  8
0
 10
156.89270712788061
 20
49.478774231018257
 30
0.0
  0
VERTEX
  5
1973
  8
0
 10
156.86269043425739
 20
49.781679546281801
 30
0.0
  0
VERTEX
  5
1974
  8
0
 10
156.8280573877382
 20
50.084091975545412
 30
0.0
  0
VERTEX
  5
1975
  8
0
 10
156.78808295658069
 20
50.385842336493987
 30
0.0
  0
VERTEX
  5
1976
  8
0
 10
156.74214310162631
 20
50.686748734690752
 30
0.0
  0
VERTEX
  5
1977
  8
0
 10
156.6889916569732
 20
50.986454964851163
 30
0.0
  0
VERTEX
  5
1978
  8
0
 10
156.62718105183779
 20
51.284510386177288
 30
0.0
  0
VERTEX
  5
1979
  8
0
 10
156.55399997953069
 20
51.579950226986711
 30
0.0
  0
VERTEX
  5
197A
  8
0
 10
156.4645528549089
 20
51.87091841954625
 30
0.0
  0
VERTEX
  5
197B
  8
0
 10
156.34991584665059
 20
52.15278994177023
 30
0.0
  0
VERTEX
  5
197C
  8
0
 10
156.1848539733453
 20
52.40686230168626
 30
0.0
  0
VERTEX
  5
197D
  8
0
 10
155.90911645092109
 20
52.474272434003147
 30
0.0
  0
SEQEND
  5
197E
  8
0
  0
POLYLINE
  5
1787
  8
0
 66
     1
 10
0.0
 20
0.0
 30
0.0
  0
VERTEX
  5
197F
  8
0
 10
156.00000095370001
 20
41.499999736049944
 30
0.0
  0
VERTEX
  5
1980
  8
0
 10
156.24620657738481
 20
41.336202449724169
 30
0.0
  0
VERTEX
  5
1981
  8
0
 10
156.38832619400179
 20
41.067336122112458
 30
0.0
  0
VERTEX
  5
1982
  8
0
 10
156.4941566283608
 20
40.782042546023987
 30
0.0
  0
VERTEX
  5
1983
  8
0
 10
156.57803670864951
 20
40.48944145560634
 30
0.0
  0
VERTEX
  5
1984
  8
0
 10
156.6471924348179
 20
40.193014749881392
 30
0.0
  0
VERTEX
  5
1985
  8
0
 10
156.7062162791045
 20
39.894404512424217
 30
0.0
  0
VERTEX
  5
1986
  8
0
 10
156.7569634832453
 20
39.594277418362338
 30
0.0
  0
VERTEX
  5
1987
  8
0
 10
156.80098921262771
 20
39.29308696663594
 30
0.0
  0
VERTEX
  5
1988
  8
0
 10
156.83924681616449
 20
38.991114246124198
 30
0.0
  0
VERTEX
  5
1989
  8
0
 10
156.87239058666509
 20
38.688533975928777
 30
0.0
  0
VERTEX
  5
198A
  8
0
 10
156.90107805660779
 20
38.385500796770458
 30
0.0
  0
VERTEX
  5
198B
  8
0
 10
156.92559875280131
 20
38.082102498935541
 30
0.0
  0
VERTEX
  5
198C
  8
0
 10
156.9462852653844
 20
37.778417329020158
 30
0.0
  0
VERTEX
  5
198D
  8
0
 10
156.96341850304461
 20
37.474512129181818
 30
0.0
  0
VERTEX
  5
198E
  8
0
 10
156.97710949965131
 20
37.170432607689207
 30
0.0
  0
VERTEX
  5
198F
  8
0
 10
156.9875226009332
 20
36.866222437967167
 30
0.0
  0
VERTEX
  5
1990
  8
0
 10
156.99478698014721
 20
36.561921379913827
 30
0.0
  0
VERTEX
  5
1991
  8
0
 10
156.99891596595461
 20
36.25756189197935
 30
0.0
  0
VERTEX
  5
1992
  8
0
 10
156.99996534235049
 20
35.953175627928118
 30
0.0
  0
VERTEX
  5
1993
  8
0
 10
156.99797759657889
 20
35.648794231627363
 30
0.0
  0
VERTEX
  5
1994
  8
0
 10
156.99288631279859
 20
35.344449347835543
 30
0.0
  0
VERTEX
  5
1995
  8
0
 10
156.98465663625461
 20
35.040172637162613
 30
0.0
  0
VERTEX
  5
1996
  8
0
 10
156.9732554452321
 20
34.73599802940916
 30
0.0
  0
VERTEX
  5
1997
  8
0
 10
156.9585188441477
 20
34.431967490253157
 30
0.0
  0
VERTEX
  5
1998
  8
0
 10
156.94030675184229
 20
34.128124695506443
 30
0.0
  0
VERTEX
  5
1999
  8
0
 10
156.9184808368706
 20
33.824519450345917
 30
0.0
  0
VERTEX
  5
199A
  8
0
 10
156.89270712788061
 20
33.521225241081652
 30
0.0
  0
VERTEX
  5
199B
  8
0
 10
156.86269043425739
 20
33.218319925818122
 30
0.0
  0
VERTEX
  5
199C
  8
0
 10
156.8280573877382
 20
32.915907496554503
 30
0.0
  0
VERTEX
  5
199D
  8
0
 10
156.78808295658069
 20
32.614157135605922
 30
0.0
  0
VERTEX
  5
199E
  8
0
 10
156.74214310162631
 20
32.313250737409163
 30
0.0
  0
VERTEX
  5
199F
  8
0
 10
156.6889916569732
 20
32.013544507248731
 30
0.0
  0
VERTEX
  5
19A0
  8
0
 10
156.62718105183779
 20
31.715489085922631
 30
0.0
  0
VERTEX
  5
19A1
  8
0
 10
156.5539999795306
 20
31.420049245113209
 30
0.0
  0
VERTEX
  5
19A2
  8
0
 10
156.4645528549089
 20
31.12908105255363
 30
0.0
  0
VERTEX
  5
19A3
  8
0
 10
156.3499158466505
 20
30.847209530329678
 30
0.0
  0
VERTEX
  5
19A4
  8
0
 10
156.1848539733453
 20
30.593137170413719
 30
0.0
  0
VERTEX
  5
19A5
  8
0
 10
155.90911645092109
 20
30.525727038096729
 30
0.0
  0
SEQEND
  5
19A6
  8
0
  0
LINE
  5
1788
  8
0
 10
41.732050949400303
 20
55.499999899299922
 30
0.0
 11
39.999999791400029
 21
52.499999828399922
 31
0.0
  0
LINE
  5
1789
  8
0
 10
41.732051445689407
 20
55.499999899299901
 30
0.0
 11
41.732051445689407
 21
27.499999899299919
 31
0.0
  0
LINE
  5
178A
  8
3
 10
124.00000029810001
 20
52.749999426299922
 30
0.0
 11
128.76313999310679
 21
55.499999411399862
 31
0.0
  0
LINE
  5
178B
  8
3
 10
124.00000029810001
 20
30.24999992929995
 30
0.0
 11
128.7631400940854
 21
27.499999885899939
 31
0.0
  0
TEXT
  5
18F6
  8
0
 62
     3
 10
0.0
 20
0.0
 30
0.0
 40
10.0
  1
MVSP150CS-N
  7
STANDARD1
  0
ENDSEC
  0
EOF
