  0
SECTION
  2
HEADER
  9
$ACADVER
  1
AC1009
  9
$INSBASE
 10
0.0
 20
0.0
 30
0.0
  9
$EXTMIN
 10
0.0
 20
-2.960436562073669
 30
0.0
  9
$EXTMAX
 10
643.60764448903524
 20
492.023381294964
 30
0.0
  9
$LIMMIN
 10
0.0
 20
0.0
  9
$LIMMAX
 10
750.0
 20
540.0
  9
$ORTHOMODE
 70
     1
  9
$REGENMODE
 70
     1
  9
$FILLMODE
 70
     1
  9
$QTEXTMODE
 70
     0
  9
$MIRRTEXT
 70
     0
  9
$DRAGMODE
 70
     2
  9
$LTSCALE
 40
20.0
  9
$OSMODE
 70
  3071
  9
$ATTMODE
 70
     1
  9
$TEXTSIZE
 40
3.0
  9
$TRACEWID
 40
0.05
  9
$TEXTSTYLE
  7
SIM080
  9
$CLAYER
  8
0
  9
$CELTYPE
  6
BYLAYER
  9
$CECOLOR
 62
   256
  9
$DIMSCALE
 40
2.0
  9
$DIMASZ
 40
3.0
  9
$DIMEXO
 40
2.0
  9
$DIMDLI
 40
0.3799999999999999
  9
$DIMRND
 40
0.0
  9
$DIMDLE
 40
0.0
  9
$DIMEXE
 40
2.0
  9
$DIMTP
 40
0.0
  9
$DIMTM
 40
0.0
  9
$DIMTXT
 40
3.2000000000000002
  9
$DIMCEN
 40
0.09
  9
$DIMTSZ
 40
0.0
  9
$DIMTOL
 70
     0
  9
$DIMLIM
 70
     0
  9
$DIMTIH
 70
     0
  9
$DIMTOH
 70
     0
  9
$DIMSE1
 70
     0
  9
$DIMSE2
 70
     0
  9
$DIMTAD
 70
     1
  9
$DIMZIN
 70
     0
  9
$DIMBLK
  1

  9
$DIMASO
 70
     1
  9
$DIMSHO
 70
     0
  9
$DIMPOST
  1

  9
$DIMAPOST
  1

  9
$DIMALT
 70
     0
  9
$DIMALTD
 70
     2
  9
$DIMALTF
 40
25.399999999999999
  9
$DIMLFAC
 40
1.0
  9
$DIMTOFL
 70
     0
  9
$DIMTVP
 40
1.6000000000000001
  9
$DIMTIX
 70
     1
  9
$DIMSOXD
 70
     0
  9
$DIMSAH
 70
     0
  9
$DIMBLK1
  1

  9
$DIMBLK2
  1

  9
$DIMSTYLE
  2
STANDARD
  9
$DIMCLRD
 70
     0
  9
$DIMCLRE
 70
     0
  9
$DIMCLRT
 70
     0
  9
$DIMTFAC
 40
1.0
  9
$DIMGAP
 40
0.09
  9
$LUNITS
 70
     2
  9
$LUPREC
 70
     4
  9
$SKETCHINC
 40
0.1
  9
$FILLETRAD
 40
1.5
  9
$AUNITS
 70
     0
  9
$AUPREC
 70
     0
  9
$MENU
  1
E:\r13\win\SUPPORT\ACAD
  9
$ELEVATION
 40
0.0
  9
$PELEVATION
 40
0.0
  9
$THICKNESS
 40
0.0
  9
$LIMCHECK
 70
     0
  9
$BLIPMODE
 70
     0
  9
$CHAMFERA
 40
0.0
  9
$CHAMFERB
 40
0.0
  9
$SKPOLY
 70
     0
  9
$TDCREATE
 40
2449840.5988541669
  9
$TDUPDATE
 40
2456597.6876417361
  9
$TDINDWG
 40
0.0230915278
  9
$TDUSRTIMER
 40
0.0230915278
  9
$USRTIMER
 70
     1
  9
$ANGBASE
 50
0.0
  9
$ANGDIR
 70
     0
  9
$PDMODE
 70
     0
  9
$PDSIZE
 40
0.0
  9
$PLINEWID
 40
0.0
  9
$COORDS
 70
     1
  9
$SPLFRAME
 70
     0
  9
$SPLINETYPE
 70
     6
  9
$SPLINESEGS
 70
     8
  9
$ATTDIA
 70
     0
  9
$ATTREQ
 70
     1
  9
$HANDLING
 70
     1
  9
$HANDSEED
  5
84D
  9
$SURFTAB1
 70
     6
  9
$SURFTAB2
 70
     6
  9
$SURFTYPE
 70
     6
  9
$SURFU
 70
     6
  9
$SURFV
 70
     6
  9
$UCSNAME
  2

  9
$UCSORG
 10
0.0
 20
0.0
 30
0.0
  9
$UCSXDIR
 10
1.0
 20
0.0
 30
0.0
  9
$UCSYDIR
 10
0.0
 20
1.0
 30
0.0
  9
$PUCSNAME
  2

  9
$PUCSORG
 10
0.0
 20
0.0
 30
0.0
  9
$PUCSXDIR
 10
1.0
 20
0.0
 30
0.0
  9
$PUCSYDIR
 10
0.0
 20
1.0
 30
0.0
  9
$USERI1
 70
     0
  9
$USERI2
 70
     1
  9
$USERI3
 70
     1
  9
$USERI4
 70
     0
  9
$USERI5
 70
     0
  9
$USERR1
 40
0.0
  9
$USERR2
 40
0.0
  9
$USERR3
 40
0.0
  9
$USERR4
 40
0.0
  9
$USERR5
 40
0.0
  9
$WORLDVIEW
 70
     1
  9
$SHADEDGE
 70
     3
  9
$SHADEDIF
 70
    70
  9
$TILEMODE
 70
     1
  9
$MAXACTVP
 70
    16
  9
$PLIMCHECK
 70
     0
  9
$PEXTMIN
 10
1.0000000000000000E+020
 20
1.0000000000000000E+020
 30
1.0000000000000000E+020
  9
$PEXTMAX
 10
-1.0000000000000000E+020
 20
-1.0000000000000000E+020
 30
-1.0000000000000000E+020
  9
$PLIMMIN
 10
0.0
 20
0.0
  9
$PLIMMAX
 10
12.0
 20
9.0
  9
$UNITMODE
 70
     0
  9
$VISRETAIN
 70
     0
  9
$PLINEGEN
 70
     0
  9
$PSLTSCALE
 70
     0
  0
ENDSEC
  0
SECTION
  2
TABLES
  0
TABLE
  2
VPORT
 70
     1
  0
VPORT
  2
*ACTIVE
 70
     0
 10
0.0
 20
0.0
 11
1.0
 21
1.0
 12
374.98855678130462
 22
269.68405869568772
 13
0.0
 23
0.0
 14
20.0
 24
20.0
 15
20.0
 25
20.0
 16
0.0
 26
0.0
 36
1.0
 17
0.0
 27
0.0
 37
0.0
 40
551.57487251346481
 41
2.304913294797688
 42
50.0
 43
0.0
 44
0.0
 50
0.0
 51
0.0
 71
     0
 72
   500
 73
     1
 74
     0
 75
     0
 76
     0
 77
     0
 78
     0
  0
ENDTAB
  0
TABLE
  2
LTYPE
 70
     4
  0
LTYPE
  2
CONTINUOUS
 70
     0
  3
Solid Line
 72
    65
 73
     0
 40
0.0
  0
LTYPE
  2
CENTER
 70
     0
  3
____ _ ____ _ ____ _ ____ _ ____ _ ____ _ ____
 72
    65
 73
     4
 40
2.0
 49
1.25
 49
-0.25
 49
0.25
 49
-0.25
  0
LTYPE
  2
HIDDEN
 70
     0
  3
_ _ _ _ _ _ _ _ _ _ _ _ _ _ _ _ _ _ _ _ _ _ _
 72
    65
 73
     2
 40
0.375
 49
0.25
 49
-0.125
  0
LTYPE
  2
PHANTOM2
 70
     0
  3
___ _ _ ___ _ _ ___ _ _ ___ _ _
 72
    65
 73
     6
 40
1.25
 49
0.625
 49
-0.125
 49
0.125
 49
-0.125
 49
0.125
 49
-0.125
  0
ENDTAB
  0
TABLE
  2
LAYER
 70
     4
  0
LAYER
  2
0
 70
     0
 62
     7
  6
CONTINUOUS
  0
LAYER
  2
1
 70
     0
 62
     1
  6
CENTER
  0
LAYER
  2
2
 70
     0
 62
     2
  6
HIDDEN
  0
LAYER
  2
DEFPOINTS
 70
     0
 62
     7
  6
CONTINUOUS
  0
ENDTAB
  0
TABLE
  2
STYLE
 70
     4
  0
STYLE
  2
STANDARD
 70
     0
 40
0.0
 41
1.0
 50
0.0
 71
     0
 42
0.2
  3
romans.shx
  4

  0
STYLE
  2
SIM080
 70
     0
 40
0.0
 41
1.0
 50
0.0
 71
     0
 42
3.0
  3
romans.shx
  4

  0
STYLE
  2
06000
 70
     0
 40
0.0
 41
0.6
 50
0.0
 71
     0
 42
3.0
  3
simplex.shx
  4
bigfont.shx
  0
STYLE
  2
STANDARD1
 70
     0
 40
0.0
 41
1.0
 50
0.0
 71
     0
 42
3.0
  3
txt
  4

  0
ENDTAB
  0
TABLE
  2
VIEW
 70
     1
  0
VIEW
  2
ALL
 70
     0
 40
540.0
 10
441.98319327731087
 20
270.0
 41
0.0
 11
0.0
 21
0.0
 31
1.0
 12
0.0
 22
0.0
 32
0.0
 42
0.0
 43
0.0
 44
0.0
 50
0.0
 71
     0
  0
ENDTAB
  0
TABLE
  2
UCS
 70
     0
  0
ENDTAB
  0
TABLE
  2
APPID
 70
     4
  0
APPID
  2
ACAD
 70
     0
  0
APPID
  2
ACAD_EXEMPT_FROM_CAD_STANDARDS
 70
     0
  0
APPID
  2
ACAD_MLEADERVER
 70
     0
  0
APPID
  2
ACAD_NAV_VCDISPLAY
 70
     0
  0
ENDTAB
  0
TABLE
  2
DIMSTYLE
 70
     1
  0
DIMSTYLE
  2
STANDARD
 70
     0
  3

  4

  5

  6

  7

 40
1.0
 41
0.18
 42
0.0625
 43
0.38
 44
0.18
 45
0.0
 46
0.0
 47
0.0
 48
0.0
140
0.18
141
0.09
142
0.0
143
25.399999999999999
144
1.0
145
0.0
146
1.0
147
0.09
 71
     0
 72
     0
 73
     1
 74
     1
 75
     0
 76
     0
 77
     0
 78
     0
170
     0
171
     2
172
     0
173
     0
174
     0
175
     0
176
     0
177
     0
178
     0
  0
ENDTAB
  0
ENDSEC
  0
SECTION
  2
BLOCKS
  0
BLOCK
  8
0
  2
$MODEL_SPACE
 70
     0
 10
0.0
 20
0.0
 30
0.0
  3
$MODEL_SPACE
  1

  0
ENDBLK
  5
123
  8
0
  0
BLOCK
 67
     1
  8
0
  2
$PAPER_SPACE
 70
     0
 10
0.0
 20
0.0
 30
0.0
  3
$PAPER_SPACE
  1

  0
ENDBLK
  5
121
 67
     1
  8
0
  0
ENDSEC
  0
SECTION
  2
ENTITIES
  0
LINE
  5
41F
  8
1
 10
185.54297655337541
 20
342.023381294964
 30
0.0
 11
185.54297655337541
 21
197.023381294964
 31
0.0
  0
LINE
  5
420
  8
1
 10
258.04297655337541
 20
269.523381294964
 30
0.0
 11
113.0429765533754
 21
269.523381294964
 31
0.0
  0
LINE
  5
423
  8
0
 10
364.35128590971271
 20
492.023381294964
 30
0.0
 11
376.35128590971271
 21
492.023381294964
 31
0.0
  0
ARC
  5
424
  8
0
 10
364.35128590971271
 20
490.523381294964
 30
0.0
 40
1.5
 50
90.0
 51
180.0
  0
ARC
  5
425
  8
0
 10
376.35128590971271
 20
490.523381294964
 30
0.0
 40
1.5
 50
0.0
 51
90.0
  0
ARC
  5
426
  8
0
 10
376.35128590971271
 20
368.52338129496411
 30
0.0
 40
1.5
 50
270.0
 51
0.0
  0
ARC
  5
427
  8
0
 10
364.35128590971271
 20
368.52338129496411
 30
0.0
 40
1.5
 50
180.0
 51
270.0
  0
LINE
  5
428
  8
0
 10
364.35128590971271
 20
367.02338129496411
 30
0.0
 11
376.35128590971271
 21
367.02338129496411
 31
0.0
  0
LINE
  5
429
  8
0
 10
362.85128590971271
 20
490.523381294964
 30
0.0
 11
362.85128590971271
 21
368.52338129496411
 31
0.0
  0
LINE
  5
42A
  8
0
 10
377.85128590971271
 20
490.523381294964
 30
0.0
 11
377.85128590971271
 21
368.52338129496411
 31
0.0
  0
LINE
  5
42B
  8
0
 10
377.8512859097126
 20
399.49396953026491
 30
0.0
 11
384.81060918893348
 21
410.34232640669001
 31
0.0
  0
LINE
  5
42C
  8
0
 10
405.85128590971271
 20
444.54922442404239
 30
0.0
 11
405.85128590971271
 21
414.49753816588571
 31
0.0
  0
LINE
  5
42D
  8
1
 10
352.85128590971271
 20
429.523381294964
 30
0.0
 11
415.85128590971271
 21
429.523381294964
 31
0.0
  0
LINE
  5
42E
  8
2
 10
405.85128590971271
 20
426.52338129496519
 30
0.0
 11
394.85128590971271
 21
426.52338129496519
 31
0.0
  0
LINE
  5
42F
  8
2
 10
405.85128590971271
 20
432.5233812949628
 30
0.0
 11
394.85128590971271
 21
432.5233812949628
 31
0.0
  0
LINE
  5
430
  8
2
 10
394.85128590971271
 20
432.5233812949628
 30
0.0
 11
394.85128590971271
 21
426.52338129496519
 31
0.0
  0
LINE
  5
431
  8
2
 10
394.85128590971271
 20
426.52338129496519
 30
0.0
 11
393.1192351021445
 21
429.52338129496411
 31
0.0
  0
LINE
  5
432
  8
2
 10
394.85128590971271
 20
432.5233812949628
 30
0.0
 11
393.1192351021445
 21
429.52338129496411
 31
0.0
  0
LINE
  5
433
  8
2
 10
364.35128590971271
 20
387.02338129496411
 30
0.0
 11
365.85128590971271
 21
387.02338129496411
 31
0.0
  0
LINE
  5
434
  8
2
 10
364.35128590971271
 20
387.02338129496411
 30
0.0
 11
362.85128590971271
 21
385.52338129496411
 31
0.0
  0
LINE
  5
435
  8
2
 10
365.85128590971271
 20
472.023381294964
 30
0.0
 11
365.85128590971271
 21
387.02338129496411
 31
0.0
  0
LINE
  5
436
  8
2
 10
364.35128590971271
 20
472.023381294964
 30
0.0
 11
364.35128590971271
 21
387.02338129496411
 31
0.0
  0
LINE
  5
438
  8
2
 10
365.85128590971271
 20
387.02338129496411
 30
0.0
 11
380.00641757659457
 21
412.030780573122
 31
0.0
  0
ARC
  5
439
  8
2
 10
378.07097253574102
 20
385.02036433773389
 30
0.0
 40
8.0
 50
147.31944525661649
 51
259.570843140818
  0
ARC
  5
43A
  8
2
 10
376.35128590971271
 20
375.6773092748403
 30
0.0
 40
1.5
 50
0.0
 51
79.570843140818056
  0
LINE
  5
43D
  8
2
 10
379.13616213774401
 20
413.523381294964
 30
0.0
 11
378.85128590971271
 21
413.523381294964
 31
0.0
  0
ARC
  5
43E
  8
2
 10
379.13616213774401
 20
412.523381294964
 30
0.0
 40
1.0
 50
330.4883367174308
 51
90.000000000136794
  0
LINE
  5
442
  8
2
 10
364.35128590971271
 20
472.023381294964
 30
0.0
 11
362.85128590971271
 21
473.523381294964
 31
0.0
  0
LINE
  5
443
  8
2
 10
364.35128590971271
 20
472.023381294964
 30
0.0
 11
365.85128590971271
 21
472.023381294964
 31
0.0
  0
LINE
  5
444
  8
2
 10
365.85128590971271
 20
472.02338129496422
 30
0.0
 11
380.00641757659457
 21
447.01598201680599
 31
0.0
  0
LINE
  5
445
  8
0
 10
377.8512859097126
 20
459.55279305966297
 30
0.0
 11
384.81060918893348
 21
448.70443618323799
 31
0.0
  0
ARC
  5
446
  8
2
 10
379.13616213774401
 20
446.523381294964
 30
0.0
 40
1.0
 50
269.99999999986318
 51
29.511663282569199
  0
LINE
  5
447
  8
2
 10
379.13616213774401
 20
445.523381294964
 30
0.0
 11
378.85128590971271
 21
445.523381294964
 31
0.0
  0
LINE
  5
448
  8
0
 10
404.87746285802058
 20
445.54888174901782
 30
0.0
 11
389.7037119926793
 21
445.94622039908819
 31
0.0
  0
CIRCLE
  5
4CB
  8
0
 10
571.10764448903524
 20
269.523381294964
 30
0.0
 40
62.500000000000057
  0
ARC
  5
4CF
  8
0
 10
571.10764448903524
 20
322.02338129496388
 30
0.0
 40
8.0
 50
201.69692983789341
 51
338.30307016210662
  0
ARC
  5
4DE
  8
0
 10
571.10764448903524
 20
269.523381294964
 30
0.0
 40
52.5
 50
101.9160514542976
 51
78.083948545702441
  0
LINE
  5
4DF
  8
1
 10
571.10764448903524
 20
342.02338129496411
 30
0.0
 11
571.10764448903524
 21
197.02338129496391
 31
0.0
  0
LINE
  5
4E0
  8
1
 10
498.60764448903518
 20
269.523381294964
 30
0.0
 11
643.60764448903524
 21
269.523381294964
 31
0.0
  0
CIRCLE
  5
4E1
  8
0
 10
571.10764448903524
 20
269.523381294964
 30
0.0
 40
3.0
  0
TEXT
  5
4F8
  8
0
 10
582.63159865743046
 20
239.8746266682291
 30
0.0
 40
8.0
  1
‚c
 50
196.99999999999861
 41
0.6
  7
06000
 72
     1
 11
580.48947600407325
 21
239.21971404965021
 31
0.0
  0
TEXT
  5
4F9
  8
0
 10
578.06213330952141
 20
238.4926292376079
 30
0.0
 40
8.0
  1
‚`
 50
188.99999999999861
 41
0.6
  7
06000
 72
     1
 11
575.84971142658833
 21
238.1422160359179
 31
0.0
  0
TEXT
  5
4FA
  8
0
 10
568.49651187500649
 20
237.3061144766416
 30
0.0
 40
7.5
  1
‚Q
 50
171.00000000000139
 41
0.6
  7
06000
 72
     1
 11
566.42236635975667
 21
237.634626853226
 31
0.0
  0
TEXT
  5
4FB
  8
0
 10
563.68953748369518
 20
238.0976921728768
 30
0.0
 40
7.5
  1
‚T
 50
163.00000000000139
 41
0.6
  7
06000
 72
     1
 11
561.53785178277838
 21
238.75552850850301
 31
0.0
  0
TEXT
  5
4FC
  8
0
 10
573.18759202670014
 20
237.80072002665361
 30
0.0
 40
8.0
  1
‚P
 50
180.40694028365979
 41
0.6
  7
06000
 72
     1
 11
571.10764448903524
 21
237.78594705941501
 31
0.0
  0
ARC
  5
50C
  8
2
 10
378.85128590971271
 20
414.523381294964
 30
0.0
 40
1.0
 50
180.0
 51
270.0
  0
ARC
  5
50D
  8
2
 10
378.85128590971271
 20
444.523381294964
 30
0.0
 40
1.0
 50
90.0
 51
180.0
  0
ARC
  5
522
  8
0
 10
389.86077368252671
 20
451.94416434894163
 30
0.0
 40
6.0
 50
212.68055474338351
 51
268.49999999999733
  0
LINE
  5
523
  8
0
 10
404.87746285802058
 20
413.49788084091
 30
0.0
 11
389.7037119926793
 21
413.1005421908398
 31
0.0
  0
ARC
  5
524
  8
0
 10
404.85128590971271
 20
414.49753816588571
 30
0.0
 40
1.0
 50
271.50000000000267
 51
0.0
  0
ARC
  5
525
  8
0
 10
404.85128590971271
 20
444.54922442404239
 30
0.0
 40
1.0
 50
0.0
 51
88.499999999997286
  0
ARC
  5
526
  8
0
 10
389.86077368252671
 20
407.10259824098648
 30
0.0
 40
6.0
 50
91.500000000002714
 51
147.31944525661649
  0
CIRCLE
  5
527
  8
0
 10
571.10764448903524
 20
269.523381294964
 30
0.0
 40
16.0
  0
ARC
  5
5D7
  8
0
 10
581.32832070062807
 20
317.95671462829728
 30
0.0
 40
3.0
 50
78.083948545702441
 51
158.30307016210651
  0
ARC
  5
5D8
  8
0
 10
560.88696827744229
 20
317.95671462829728
 30
0.0
 40
3.0
 50
21.69692983789346
 51
101.9160514542976
  0
CIRCLE
  5
5ED
  8
0
 10
185.54297655337541
 20
269.523381294964
 30
0.0
 40
15.0
  0
CIRCLE
  5
5EE
  8
0
 10
185.54297655337541
 20
269.523381294964
 30
0.0
 40
16.0
  0
CIRCLE
  5
5EF
  8
0
 10
185.54297655337541
 20
269.523381294964
 30
0.0
 40
42.5
  0
CIRCLE
  5
5F0
  8
0
 10
185.54297655337541
 20
269.523381294964
 30
0.0
 40
44.0
  0
CIRCLE
  5
5F1
  8
0
 10
185.54297655337541
 20
269.523381294964
 30
0.0
 40
62.5
  0
LINE
  5
67E
  8
2
 10
380.13616213774401
 20
446.523381294964
 30
0.0
 11
380.13616213774401
 21
412.523381294964
 31
0.0
  0
LINE
  5
67F
  8
2
 10
378.85128590971271
 20
445.523381294964
 30
0.0
 11
378.85128590971271
 21
413.523381294964
 31
0.0
  0
LINE
  5
680
  8
2
 10
371.33741987761698
 20
389.3400018920052
 30
0.0
 11
377.8512859097126
 21
399.49396953026491
 31
0.0
  0
LINE
  5
681
  8
2
 10
371.33741987761692
 20
469.7067606979229
 30
0.0
 11
377.8512859097126
 21
459.55279305966292
 31
0.0
  0
LINE
  5
68A
  8
0
 10
364.35128590971271
 20
332.023381294964
 30
0.0
 11
376.35128590971271
 21
332.023381294964
 31
0.0
  0
ARC
  5
68B
  8
0
 10
364.35128590971271
 20
330.523381294964
 30
0.0
 40
1.5
 50
90.0
 51
180.0
  0
ARC
  5
68C
  8
0
 10
376.35128590971271
 20
330.523381294964
 30
0.0
 40
1.5
 50
0.0
 51
90.0
  0
ARC
  5
68D
  8
0
 10
376.35128590971271
 20
208.523381294964
 30
0.0
 40
1.5
 50
270.0
 51
0.0
  0
ARC
  5
68E
  8
0
 10
364.35128590971271
 20
208.523381294964
 30
0.0
 40
1.5
 50
180.0
 51
270.0
  0
LINE
  5
68F
  8
0
 10
364.35128590971271
 20
207.023381294964
 30
0.0
 11
376.35128590971271
 21
207.023381294964
 31
0.0
  0
LINE
  5
690
  8
0
 10
362.85128590971271
 20
330.523381294964
 30
0.0
 11
362.85128590971271
 21
208.523381294964
 31
0.0
  0
LINE
  5
691
  8
0
 10
377.85128590971271
 20
330.523381294964
 30
0.0
 11
377.85128590971271
 21
208.523381294964
 31
0.0
  0
LINE
  5
692
  8
0
 10
377.8512859097126
 20
239.49396953026491
 30
0.0
 11
384.81060918893348
 21
250.34232640669001
 31
0.0
  0
LINE
  5
693
  8
0
 10
405.85128590971271
 20
284.54922442404228
 30
0.0
 11
405.85128590971271
 21
254.4975381658856
 31
0.0
  0
LINE
  5
694
  8
1
 10
352.85128590971271
 20
269.523381294964
 30
0.0
 11
415.85128590971271
 21
269.523381294964
 31
0.0
  0
LINE
  5
695
  8
2
 10
405.85128590971271
 20
266.5233812949653
 30
0.0
 11
394.85128590971271
 21
266.5233812949653
 31
0.0
  0
LINE
  5
696
  8
2
 10
405.85128590971271
 20
272.52338129496269
 30
0.0
 11
394.85128590971271
 21
272.52338129496269
 31
0.0
  0
LINE
  5
697
  8
2
 10
394.85128590971271
 20
272.52338129496269
 30
0.0
 11
394.85128590971271
 21
266.5233812949653
 31
0.0
  0
LINE
  5
698
  8
2
 10
394.85128590971271
 20
266.5233812949653
 30
0.0
 11
393.1192351021445
 21
269.52338129496411
 31
0.0
  0
LINE
  5
699
  8
2
 10
394.85128590971271
 20
272.52338129496269
 30
0.0
 11
393.1192351021445
 21
269.52338129496411
 31
0.0
  0
LINE
  5
69A
  8
2
 10
364.35128590971271
 20
227.023381294964
 30
0.0
 11
365.85128590971271
 21
227.023381294964
 31
0.0
  0
LINE
  5
69B
  8
2
 10
364.35128590971271
 20
227.023381294964
 30
0.0
 11
362.85128590971271
 21
225.523381294964
 31
0.0
  0
LINE
  5
69C
  8
2
 10
365.85128590971271
 20
312.023381294964
 30
0.0
 11
365.85128590971271
 21
227.023381294964
 31
0.0
  0
LINE
  5
69D
  8
2
 10
364.35128590971271
 20
312.023381294964
 30
0.0
 11
364.35128590971271
 21
227.023381294964
 31
0.0
  0
LINE
  5
69E
  8
2
 10
365.85128590971271
 20
227.023381294964
 30
0.0
 11
380.00641757659457
 21
252.030780573122
 31
0.0
  0
ARC
  5
69F
  8
2
 10
378.07097253574102
 20
225.02036433773389
 30
0.0
 40
8.0
 50
147.31944525661791
 51
259.57084314081823
  0
ARC
  5
6A0
  8
2
 10
376.35128590971271
 20
215.6773092748403
 30
0.0
 40
1.5
 50
0.0
 51
79.570843140818198
  0
LINE
  5
6A1
  8
2
 10
379.13616213774401
 20
253.523381294964
 30
0.0
 11
378.85128590971271
 21
253.523381294964
 31
0.0
  0
ARC
  5
6A2
  8
2
 10
379.13616213774401
 20
252.523381294964
 30
0.0
 40
1.0
 50
330.48833671742938
 51
90.000000000136794
  0
LINE
  5
6A3
  8
2
 10
364.35128590971271
 20
312.023381294964
 30
0.0
 11
362.85128590971271
 21
313.523381294964
 31
0.0
  0
LINE
  5
6A4
  8
2
 10
364.35128590971271
 20
312.023381294964
 30
0.0
 11
365.85128590971271
 21
312.023381294964
 31
0.0
  0
LINE
  5
6A5
  8
2
 10
365.85128590971271
 20
312.02338129496411
 30
0.0
 11
380.00641757659457
 21
287.01598201680599
 31
0.0
  0
LINE
  5
6A6
  8
0
 10
377.8512859097126
 20
299.55279305966297
 30
0.0
 11
384.81060918893348
 21
288.70443618323799
 31
0.0
  0
ARC
  5
6A7
  8
2
 10
379.13616213774401
 20
286.523381294964
 30
0.0
 40
1.0
 50
269.99999999986318
 51
29.511663282570609
  0
LINE
  5
6A8
  8
2
 10
379.13616213774401
 20
285.523381294964
 30
0.0
 11
378.85128590971271
 21
285.523381294964
 31
0.0
  0
LINE
  5
6A9
  8
0
 10
404.87746285802058
 20
285.54888174901782
 30
0.0
 11
389.7037119926793
 21
285.94622039908808
 31
0.0
  0
LINE
  5
6AA
  8
2
 10
376.35128590971271
 20
314.02338129496479
 30
0.0
 11
374.05703568134811
 21
314.02338129496479
 31
0.0
  0
ARC
  5
6AB
  8
2
 10
374.05703568134811
 20
311.02338129496479
 30
0.0
 40
3.0
 50
90.0
 51
212.68055474338209
  0
ARC
  5
6AC
  8
2
 10
376.35128590971271
 20
315.52338129496479
 30
0.0
 40
1.5
 50
270.0
 51
0.0
  0
ARC
  5
6AD
  8
2
 10
378.85128590971271
 20
254.523381294964
 30
0.0
 40
1.0
 50
180.0
 51
270.0
  0
ARC
  5
6AE
  8
2
 10
378.85128590971271
 20
284.523381294964
 30
0.0
 40
1.0
 50
90.0
 51
180.0
  0
ARC
  5
6AF
  8
0
 10
389.86077368252671
 20
291.94416434894151
 30
0.0
 40
6.0
 50
212.68055474338209
 51
268.49999999999721
  0
LINE
  5
6B0
  8
0
 10
404.87746285802058
 20
253.49788084091011
 30
0.0
 11
389.7037119926793
 21
253.10054219083989
 31
0.0
  0
ARC
  5
6B1
  8
0
 10
404.85128590971271
 20
254.4975381658856
 30
0.0
 40
1.0
 50
271.50000000000267
 51
0.0
  0
ARC
  5
6B2
  8
0
 10
404.85128590971271
 20
284.54922442404228
 30
0.0
 40
1.0
 50
0.0
 51
88.499999999997272
  0
ARC
  5
6B3
  8
0
 10
389.86077368252671
 20
247.10259824098651
 30
0.0
 40
6.0
 50
91.500000000002728
 51
147.31944525661791
  0
LINE
  5
6B4
  8
2
 10
380.13616213774401
 20
286.523381294964
 30
0.0
 11
380.13616213774401
 21
252.523381294964
 31
0.0
  0
LINE
  5
6B5
  8
2
 10
378.85128590971271
 20
285.523381294964
 30
0.0
 11
378.85128590971271
 21
253.523381294964
 31
0.0
  0
LINE
  5
6B6
  8
2
 10
371.33741987761698
 20
229.34000189200509
 30
0.0
 11
377.8512859097126
 21
239.49396953026491
 31
0.0
  0
LINE
  5
6B7
  8
2
 10
371.53195343455161
 20
309.40351721211312
 30
0.0
 11
377.8512859097126
 21
299.55279305966292
 31
0.0
  0
ARC
  5
6B8
  8
2
 10
378.07097253574102
 20
474.0263982521941
 30
0.0
 40
8.0
 50
100.4291568591819
 51
212.68055474338621
  0
ARC
  5
6B9
  8
2
 10
376.35128590971271
 20
483.36945331508781
 30
0.0
 40
1.5
 50
280.42915685918189
 51
0.0
  0
LINE
  5
6BA
  8
0
 10
364.35128590971271
 20
172.023381294964
 30
0.0
 11
376.35128590971271
 21
172.023381294964
 31
0.0
  0
ARC
  5
6BB
  8
0
 10
364.35128590971271
 20
170.523381294964
 30
0.0
 40
1.5
 50
90.0
 51
180.0
  0
ARC
  5
6BC
  8
0
 10
376.35128590971271
 20
170.523381294964
 30
0.0
 40
1.5
 50
0.0
 51
90.0
  0
ARC
  5
6BD
  8
0
 10
376.35128590971271
 20
48.523381294964061
 30
0.0
 40
1.5
 50
270.0
 51
0.0
  0
ARC
  5
6BE
  8
0
 10
364.35128590971271
 20
48.523381294964061
 30
0.0
 40
1.5
 50
180.0
 51
270.0
  0
LINE
  5
6BF
  8
0
 10
364.35128590971271
 20
47.023381294964047
 30
0.0
 11
376.35128590971271
 21
47.023381294964047
 31
0.0
  0
LINE
  5
6C0
  8
0
 10
362.85128590971271
 20
170.523381294964
 30
0.0
 11
362.85128590971271
 21
48.523381294964061
 31
0.0
  0
LINE
  5
6C1
  8
0
 10
377.85128590971271
 20
170.523381294964
 30
0.0
 11
377.85128590971271
 21
48.523381294964061
 31
0.0
  0
LINE
  5
6C2
  8
0
 10
377.8512859097126
 20
79.493969530264906
 30
0.0
 11
384.81060918893348
 21
90.342326406690006
 31
0.0
  0
LINE
  5
6C3
  8
0
 10
405.85128590971271
 20
124.54922442404239
 30
0.0
 11
405.85128590971271
 21
94.497538165885715
 31
0.0
  0
LINE
  5
6C4
  8
1
 10
352.85128590971271
 20
109.523381294964
 30
0.0
 11
415.85128590971271
 21
109.523381294964
 31
0.0
  0
LINE
  5
6C5
  8
2
 10
405.85128590971271
 20
106.5233812949653
 30
0.0
 11
394.85128590971271
 21
106.5233812949653
 31
0.0
  0
LINE
  5
6C6
  8
2
 10
405.85128590971271
 20
112.5233812949628
 30
0.0
 11
394.85128590971271
 21
112.5233812949628
 31
0.0
  0
LINE
  5
6C7
  8
2
 10
394.85128590971271
 20
112.5233812949628
 30
0.0
 11
394.85128590971271
 21
106.5233812949653
 31
0.0
  0
LINE
  5
6C8
  8
2
 10
394.85128590971271
 20
106.5233812949653
 30
0.0
 11
393.1192351021445
 21
109.5233812949641
 31
0.0
  0
LINE
  5
6C9
  8
2
 10
394.85128590971271
 20
112.5233812949628
 30
0.0
 11
393.1192351021445
 21
109.5233812949641
 31
0.0
  0
LINE
  5
6CA
  8
2
 10
364.35128590971271
 20
67.023381294964054
 30
0.0
 11
365.85128590971271
 21
67.023381294964054
 31
0.0
  0
LINE
  5
6CB
  8
2
 10
364.35128590971271
 20
67.023381294964054
 30
0.0
 11
362.85128590971271
 21
65.523381294964054
 31
0.0
  0
LINE
  5
6CC
  8
2
 10
365.85128590971271
 20
152.023381294964
 30
0.0
 11
365.85128590971271
 21
67.023381294964054
 31
0.0
  0
LINE
  5
6CD
  8
2
 10
364.35128590971271
 20
152.023381294964
 30
0.0
 11
364.35128590971271
 21
67.023381294964054
 31
0.0
  0
LINE
  5
6CE
  8
2
 10
365.85128590971271
 20
67.023381294964054
 30
0.0
 11
380.00641757659457
 21
92.030780573122058
 31
0.0
  0
ARC
  5
6CF
  8
2
 10
378.07097253574102
 20
65.020364337733952
 30
0.0
 40
8.0
 50
147.31944525661589
 51
259.57084314081823
  0
ARC
  5
6D0
  8
2
 10
376.35128590971271
 20
55.677309274840297
 30
0.0
 40
1.5
 50
0.0
 51
79.570843140818155
  0
LINE
  5
6D1
  8
2
 10
379.13616213774401
 20
93.523381294964054
 30
0.0
 11
378.85128590971271
 21
93.523381294964054
 31
0.0
  0
ARC
  5
6D2
  8
2
 10
379.13616213774401
 20
92.523381294964054
 30
0.0
 40
1.0
 50
330.48833671743142
 51
90.000000000136765
  0
LINE
  5
6D3
  8
2
 10
364.35128590971271
 20
152.023381294964
 30
0.0
 11
362.85128590971271
 21
153.523381294964
 31
0.0
  0
LINE
  5
6D4
  8
2
 10
364.35128590971271
 20
152.023381294964
 30
0.0
 11
365.85128590971271
 21
152.023381294964
 31
0.0
  0
LINE
  5
6D5
  8
2
 10
365.85128590971271
 20
152.02338129496411
 30
0.0
 11
380.00641757659457
 21
127.01598201680601
 31
0.0
  0
LINE
  5
6D6
  8
0
 10
377.8512859097126
 20
139.55279305966309
 30
0.0
 11
384.81060918893348
 21
128.7044361832381
 31
0.0
  0
ARC
  5
6D7
  8
2
 10
379.13616213774401
 20
126.523381294964
 30
0.0
 40
1.0
 50
269.99999999986318
 51
29.511663282568559
  0
LINE
  5
6D8
  8
2
 10
379.13616213774401
 20
125.523381294964
 30
0.0
 11
378.85128590971271
 21
125.523381294964
 31
0.0
  0
LINE
  5
6D9
  8
0
 10
404.87746285802058
 20
125.54888174901789
 30
0.0
 11
389.7037119926793
 21
125.9462203990882
 31
0.0
  0
ARC
  5
6DA
  8
2
 10
378.85128590971271
 20
94.523381294964054
 30
0.0
 40
1.0
 50
180.0
 51
270.0
  0
ARC
  5
6DB
  8
2
 10
378.85128590971271
 20
124.523381294964
 30
0.0
 40
1.0
 50
90.0
 51
180.0
  0
ARC
  5
6DC
  8
0
 10
389.86077368252671
 20
131.94416434894151
 30
0.0
 40
6.0
 50
212.68055474338411
 51
268.49999999999721
  0
LINE
  5
6DD
  8
0
 10
404.87746285802058
 20
93.497880840910113
 30
0.0
 11
389.7037119926793
 21
93.100542190839917
 31
0.0
  0
ARC
  5
6DE
  8
0
 10
404.85128590971271
 20
94.497538165885715
 30
0.0
 40
1.0
 50
271.50000000000267
 51
0.0
  0
ARC
  5
6DF
  8
0
 10
404.85128590971271
 20
124.54922442404239
 30
0.0
 40
1.0
 50
0.0
 51
88.499999999997272
  0
ARC
  5
6E0
  8
0
 10
389.86077368252671
 20
87.102598240986538
 30
0.0
 40
6.0
 50
91.500000000002728
 51
147.31944525661589
  0
LINE
  5
6E1
  8
2
 10
380.13616213774401
 20
126.523381294964
 30
0.0
 11
380.13616213774401
 21
92.523381294964054
 31
0.0
  0
LINE
  5
6E2
  8
2
 10
378.85128590971271
 20
125.523381294964
 30
0.0
 11
378.85128590971271
 21
93.523381294964054
 31
0.0
  0
LINE
  5
6E3
  8
2
 10
371.33741987761698
 20
69.340001892005205
 30
0.0
 11
377.8512859097126
 21
79.493969530264906
 31
0.0
  0
LINE
  5
6E4
  8
2
 10
371.33741987761692
 20
149.7067606979229
 30
0.0
 11
377.8512859097126
 21
139.55279305966289
 31
0.0
  0
ARC
  5
6E5
  8
2
 10
378.07097253574102
 20
154.0263982521941
 30
0.0
 40
8.0
 50
100.4291568591818
 51
212.6805547433849
  0
ARC
  5
6E6
  8
2
 10
376.35128590971271
 20
163.36945331508781
 30
0.0
 40
1.5
 50
280.42915685918177
 51
0.0
  0
TEXT
  5
7E9
  8
0
 62
     3
 10
0.0
 20
0.0
 30
0.0
 40
10.0
  1
NDA125
  7
STANDARD1
  0
ENDSEC
  0
EOF
