  0
SECTION
  2
HEADER
  9
$ACADVER
  1
AC1009
  9
$INSBASE
 10
0.0
 20
0.0
 30
0.0
  9
$EXTMIN
 10
0.0
 20
-2.960436562073669
 30
0.0
  9
$EXTMAX
 10
989.13581479213178
 20
810.00000000001114
 30
0.0
  9
$LIMMIN
 10
0.0
 20
0.0
  9
$LIMMAX
 10
1125.0
 20
810.0
  9
$ORTHOMODE
 70
     1
  9
$REGENMODE
 70
     1
  9
$FILLMODE
 70
     1
  9
$QTEXTMODE
 70
     0
  9
$MIRRTEXT
 70
     0
  9
$DRAGMODE
 70
     2
  9
$LTSCALE
 40
30.0
  9
$OSMODE
 70
  3071
  9
$ATTMODE
 70
     1
  9
$TEXTSIZE
 40
3.0
  9
$TRACEWID
 40
0.05
  9
$TEXTSTYLE
  7
SIM080
  9
$CLAYER
  8
0
  9
$CELTYPE
  6
BYLAYER
  9
$CECOLOR
 62
   256
  9
$DIMSCALE
 40
3.0
  9
$DIMASZ
 40
3.0
  9
$DIMEXO
 40
2.0
  9
$DIMDLI
 40
0.3799999999999999
  9
$DIMRND
 40
0.0
  9
$DIMDLE
 40
0.0
  9
$DIMEXE
 40
2.0
  9
$DIMTP
 40
0.0
  9
$DIMTM
 40
0.0
  9
$DIMTXT
 40
3.2000000000000002
  9
$DIMCEN
 40
0.09
  9
$DIMTSZ
 40
0.0
  9
$DIMTOL
 70
     0
  9
$DIMLIM
 70
     0
  9
$DIMTIH
 70
     0
  9
$DIMTOH
 70
     0
  9
$DIMSE1
 70
     0
  9
$DIMSE2
 70
     0
  9
$DIMTAD
 70
     1
  9
$DIMZIN
 70
     0
  9
$DIMBLK
  1

  9
$DIMASO
 70
     1
  9
$DIMSHO
 70
     0
  9
$DIMPOST
  1

  9
$DIMAPOST
  1

  9
$DIMALT
 70
     0
  9
$DIMALTD
 70
     2
  9
$DIMALTF
 40
25.399999999999999
  9
$DIMLFAC
 40
1.0
  9
$DIMTOFL
 70
     0
  9
$DIMTVP
 40
1.6000000000000001
  9
$DIMTIX
 70
     1
  9
$DIMSOXD
 70
     0
  9
$DIMSAH
 70
     0
  9
$DIMBLK1
  1

  9
$DIMBLK2
  1

  9
$DIMSTYLE
  2
STANDARD
  9
$DIMCLRD
 70
     0
  9
$DIMCLRE
 70
     0
  9
$DIMCLRT
 70
     0
  9
$DIMTFAC
 40
1.0
  9
$DIMGAP
 40
0.09
  9
$LUNITS
 70
     2
  9
$LUPREC
 70
     4
  9
$SKETCHINC
 40
0.1
  9
$FILLETRAD
 40
0.0
  9
$AUNITS
 70
     0
  9
$AUPREC
 70
     0
  9
$MENU
  1
E:\r13\win\SUPPORT\ACAD
  9
$ELEVATION
 40
0.0
  9
$PELEVATION
 40
0.0
  9
$THICKNESS
 40
0.0
  9
$LIMCHECK
 70
     0
  9
$BLIPMODE
 70
     0
  9
$CHAMFERA
 40
0.0
  9
$CHAMFERB
 40
0.0
  9
$SKPOLY
 70
     0
  9
$TDCREATE
 40
2449840.598888889
  9
$TDUPDATE
 40
2456597.6876574419
  9
$TDINDWG
 40
0.1201775694
  9
$TDUSRTIMER
 40
0.1201775694
  9
$USRTIMER
 70
     1
  9
$ANGBASE
 50
0.0
  9
$ANGDIR
 70
     0
  9
$PDMODE
 70
     0
  9
$PDSIZE
 40
0.0
  9
$PLINEWID
 40
0.0
  9
$COORDS
 70
     1
  9
$SPLFRAME
 70
     0
  9
$SPLINETYPE
 70
     6
  9
$SPLINESEGS
 70
     8
  9
$ATTDIA
 70
     0
  9
$ATTREQ
 70
     1
  9
$HANDLING
 70
     1
  9
$HANDSEED
  5
8E2
  9
$SURFTAB1
 70
     6
  9
$SURFTAB2
 70
     6
  9
$SURFTYPE
 70
     6
  9
$SURFU
 70
     6
  9
$SURFV
 70
     6
  9
$UCSNAME
  2

  9
$UCSORG
 10
0.0
 20
0.0
 30
0.0
  9
$UCSXDIR
 10
1.0
 20
0.0
 30
0.0
  9
$UCSYDIR
 10
0.0
 20
1.0
 30
0.0
  9
$PUCSNAME
  2

  9
$PUCSORG
 10
0.0
 20
0.0
 30
0.0
  9
$PUCSXDIR
 10
1.0
 20
0.0
 30
0.0
  9
$PUCSYDIR
 10
0.0
 20
1.0
 30
0.0
  9
$USERI1
 70
     0
  9
$USERI2
 70
     1
  9
$USERI3
 70
     1
  9
$USERI4
 70
     0
  9
$USERI5
 70
     0
  9
$USERR1
 40
0.0
  9
$USERR2
 40
0.0
  9
$USERR3
 40
0.0
  9
$USERR4
 40
0.0
  9
$USERR5
 40
0.0
  9
$WORLDVIEW
 70
     1
  9
$SHADEDGE
 70
     3
  9
$SHADEDIF
 70
    70
  9
$TILEMODE
 70
     1
  9
$MAXACTVP
 70
    16
  9
$PLIMCHECK
 70
     0
  9
$PEXTMIN
 10
1.0000000000000000E+020
 20
1.0000000000000000E+020
 30
1.0000000000000000E+020
  9
$PEXTMAX
 10
-1.0000000000000000E+020
 20
-1.0000000000000000E+020
 30
-1.0000000000000000E+020
  9
$PLIMMIN
 10
0.0
 20
0.0
  9
$PLIMMAX
 10
12.0
 20
9.0
  9
$UNITMODE
 70
     0
  9
$VISRETAIN
 70
     0
  9
$PLINEGEN
 70
     0
  9
$PSLTSCALE
 70
     0
  0
ENDSEC
  0
SECTION
  2
TABLES
  0
TABLE
  2
VPORT
 70
     1
  0
VPORT
  2
*ACTIVE
 70
     0
 10
0.0
 20
0.0
 11
1.0
 21
1.0
 12
562.48283517195682
 22
405.27686853083082
 13
0.0
 23
0.0
 14
30.0
 24
30.0
 15
30.0
 25
30.0
 16
0.0
 26
0.0
 36
1.0
 17
0.0
 27
0.0
 37
0.0
 40
825.88079754788771
 41
2.304913294797688
 42
50.0
 43
0.0
 44
0.0
 50
0.0
 51
0.0
 71
     0
 72
   500
 73
     1
 74
     0
 75
     0
 76
     0
 77
     0
 78
     0
  0
ENDTAB
  0
TABLE
  2
LTYPE
 70
     4
  0
LTYPE
  2
CONTINUOUS
 70
     0
  3
Solid Line
 72
    65
 73
     0
 40
0.0
  0
LTYPE
  2
CENTER
 70
     0
  3
____ _ ____ _ ____ _ ____ _ ____ _ ____ _ ____
 72
    65
 73
     4
 40
2.0
 49
1.25
 49
-0.25
 49
0.25
 49
-0.25
  0
LTYPE
  2
HIDDEN
 70
     0
  3
_ _ _ _ _ _ _ _ _ _ _ _ _ _ _ _ _ _ _ _ _ _ _
 72
    65
 73
     2
 40
0.375
 49
0.25
 49
-0.125
  0
LTYPE
  2
PHANTOM2
 70
     0
  3
___ _ _ ___ _ _ ___ _ _ ___ _ _
 72
    65
 73
     6
 40
1.25
 49
0.625
 49
-0.125
 49
0.125
 49
-0.125
 49
0.125
 49
-0.125
  0
ENDTAB
  0
TABLE
  2
LAYER
 70
     4
  0
LAYER
  2
0
 70
     0
 62
     7
  6
CONTINUOUS
  0
LAYER
  2
1
 70
     0
 62
     1
  6
CENTER
  0
LAYER
  2
2
 70
     0
 62
     2
  6
HIDDEN
  0
LAYER
  2
DEFPOINTS
 70
     0
 62
     7
  6
CONTINUOUS
  0
ENDTAB
  0
TABLE
  2
STYLE
 70
     4
  0
STYLE
  2
STANDARD
 70
     0
 40
0.0
 41
1.0
 50
0.0
 71
     0
 42
0.2
  3
romans.shx
  4

  0
STYLE
  2
SIM080
 70
     0
 40
0.0
 41
1.0
 50
0.0
 71
     0
 42
3.0
  3
romans.shx
  4

  0
STYLE
  2
06000
 70
     0
 40
0.0
 41
0.6
 50
0.0
 71
     0
 42
3.0
  3
simplex.shx
  4
bigfont.shx
  0
STYLE
  2
STANDARD1
 70
     0
 40
0.0
 41
1.0
 50
0.0
 71
     0
 42
3.0
  3
txt
  4

  0
ENDTAB
  0
TABLE
  2
VIEW
 70
     1
  0
VIEW
  2
ALL
 70
     0
 40
810.0
 10
662.97478991596643
 20
405.0
 41
0.0
 11
0.0
 21
0.0
 31
1.0
 12
0.0
 22
0.0
 32
0.0
 42
0.0
 43
0.0
 44
0.0
 50
0.0
 71
     0
  0
ENDTAB
  0
TABLE
  2
UCS
 70
     0
  0
ENDTAB
  0
TABLE
  2
APPID
 70
     4
  0
APPID
  2
ACAD
 70
     0
  0
APPID
  2
ACAD_EXEMPT_FROM_CAD_STANDARDS
 70
     0
  0
APPID
  2
ACAD_MLEADERVER
 70
     0
  0
APPID
  2
ACAD_NAV_VCDISPLAY
 70
     0
  0
ENDTAB
  0
TABLE
  2
DIMSTYLE
 70
     1
  0
DIMSTYLE
  2
STANDARD
 70
     0
  3

  4

  5

  6

  7

 40
1.0
 41
0.18
 42
0.0625
 43
0.38
 44
0.18
 45
0.0
 46
0.0
 47
0.0
 48
0.0
140
0.18
141
0.09
142
0.0
143
25.399999999999999
144
1.0
145
0.0
146
1.0
147
0.09
 71
     0
 72
     0
 73
     1
 74
     1
 75
     0
 76
     0
 77
     0
 78
     0
170
     0
171
     2
172
     0
173
     0
174
     0
175
     0
176
     0
177
     0
178
     0
  0
ENDTAB
  0
ENDSEC
  0
SECTION
  2
BLOCKS
  0
BLOCK
  8
0
  2
$MODEL_SPACE
 70
     0
 10
0.0
 20
0.0
 30
0.0
  3
$MODEL_SPACE
  1

  0
ENDBLK
  5
126
  8
0
  0
BLOCK
 67
     1
  8
0
  2
$PAPER_SPACE
 70
     0
 10
0.0
 20
0.0
 30
0.0
  3
$PAPER_SPACE
  1

  0
ENDBLK
  5
124
 67
     1
  8
0
  0
ENDSEC
  0
SECTION
  2
ENTITIES
  0
LINE
  5
45F
  8
1
 10
386.85905583877889
 20
440.0
 30
0.0
 11
166.85905583877931
 21
440.0
 31
0.0
  0
LINE
  5
460
  8
1
 10
276.85905583877928
 20
549.99999999999955
 30
0.0
 11
276.85905583877928
 21
330.00000000000051
 31
0.0
  0
LINE
  5
463
  8
0
 10
537.79953184716476
 20
810.00000000001114
 30
0.0
 11
553.79953184716476
 21
810.00000000001114
 31
0.0
  0
ARC
  5
464
  8
0
 10
537.79953184716476
 20
808.00000000001114
 30
0.0
 40
2.0
 50
90.0
 51
180.0
  0
ARC
  5
465
  8
0
 10
553.79953184716476
 20
808.00000000001114
 30
0.0
 40
2.0
 50
0.0
 51
90.0
  0
ARC
  5
466
  8
0
 10
553.79953184716476
 20
611.99999999998875
 30
0.0
 40
2.0
 50
270.0
 51
0.0
  0
ARC
  5
467
  8
0
 10
537.79953184716476
 20
611.99999999998875
 30
0.0
 40
2.0
 50
180.0
 51
270.0
  0
LINE
  5
468
  8
0
 10
537.79953184716476
 20
609.99999999998875
 30
0.0
 11
553.79953184716476
 21
609.99999999998875
 31
0.0
  0
LINE
  5
469
  8
0
 10
535.79953184716476
 20
808.00000000001114
 30
0.0
 11
535.79953184716476
 21
611.99999999998875
 31
0.0
  0
LINE
  5
46A
  8
0
 10
555.79953184716487
 20
808.00000000001114
 30
0.0
 11
555.79953184716487
 21
611.99999999998875
 31
0.0
  0
LINE
  5
46B
  8
0
 10
592.79953184716487
 20
729.50000000001091
 30
0.0
 11
592.79953184716487
 21
690.49999999998579
 31
0.0
  0
LINE
  5
46C
  8
1
 10
525.7995318471651
 20
710.0
 30
0.0
 11
602.79953184716476
 21
710.0
 31
0.0
  0
LINE
  5
46D
  8
2
 10
577.79953184716476
 20
713.00000000000239
 30
0.0
 11
577.79953184716476
 21
706.9999999999975
 31
0.0
  0
LINE
  5
46E
  8
2
 10
592.79953184716487
 20
706.99999999999773
 30
0.0
 11
577.79953184716476
 21
706.9999999999975
 31
0.0
  0
LINE
  5
470
  8
2
 10
577.79953184716476
 20
706.9999999999975
 30
0.0
 11
576.06748103959444
 21
710.0
 31
0.0
  0
LINE
  5
471
  8
2
 10
577.79953184716476
 20
713.00000000000239
 30
0.0
 11
576.06748103959444
 21
710.0
 31
0.0
  0
LINE
  5
473
  8
2
 10
556.79953184716476
 20
731.00000000002478
 30
0.0
 11
556.79953184716476
 21
688.9999999999751
 31
0.0
  0
LINE
  5
474
  8
2
 10
537.29953184716476
 20
633.99999999998875
 30
0.0
 11
538.79953184716464
 21
633.99999999998875
 31
0.0
  0
LINE
  5
475
  8
2
 10
537.29953184716476
 20
633.99999999998875
 30
0.0
 11
535.79953184716476
 21
632.49999999998875
 31
0.0
  0
LINE
  5
476
  8
2
 10
538.79953184716487
 20
786.00000000001114
 30
0.0
 11
538.79953184716487
 21
633.99999999998875
 31
0.0
  0
LINE
  5
477
  8
2
 10
537.29953184716476
 20
786.00000000001114
 30
0.0
 11
537.29953184716476
 21
633.99999999998875
 31
0.0
  0
LINE
  5
478
  8
2
 10
538.79953184716487
 20
633.99999999998875
 30
0.0
 11
559.49063544285298
 21
686.44954167276671
 31
0.0
  0
LINE
  5
479
  8
0
 10
566.09503044627081
 20
683.27629015872731
 30
0.0
 11
555.79953184716487
 21
658.88043478259169
 31
0.0
  0
ARC
  5
47A
  8
2
 10
555.3095242938582
 20
631.99999999998875
 30
0.0
 40
10.0
 50
157.1193628235836
 51
262.77115408835942
  0
ARC
  5
47D
  8
2
 10
553.79953184716476
 20
620.09538229042244
 30
0.0
 40
2.0
 50
0.0
 51
82.77115408835941
  0
LINE
  5
480
  8
2
 10
558.09528759016303
 20
688.49999999997488
 30
0.0
 11
557.29953184716464
 21
688.4999999999751
 31
0.0
  0
ARC
  5
481
  8
2
 10
558.09528759016303
 20
686.99999999997476
 30
0.0
 40
1.5
 50
338.47099311815271
 51
90.0
  0
LINE
  5
483
  8
2
 10
537.29953184716476
 20
786.00000000001114
 30
0.0
 11
535.79953184716476
 21
787.50000000001114
 31
0.0
  0
LINE
  5
484
  8
2
 10
537.29953184716476
 20
786.00000000001114
 30
0.0
 11
538.79953184716464
 21
786.00000000001114
 31
0.0
  0
LINE
  5
485
  8
2
 10
538.79953184716487
 20
786.00000000001114
 30
0.0
 11
559.49063544285298
 21
733.55045832723317
 31
0.0
  0
LINE
  5
486
  8
0
 10
566.09503044627274
 20
736.72370984126735
 30
0.0
 11
555.79953184716487
 21
761.11956521740899
 31
0.0
  0
ARC
  5
487
  8
2
 10
558.09528759016303
 20
733.00000000002501
 30
0.0
 40
1.5
 50
270.0
 51
21.52900688184727
  0
LINE
  5
488
  8
2
 10
558.09528759016303
 20
731.5000000000249
 30
0.0
 11
557.29953184716476
 21
731.5000000000249
 31
0.0
  0
LINE
  5
48A
  8
0
 10
570.79953184716476
 20
686.88664697928095
 30
0.0
 11
570.79953184716476
 21
733.11335302070836
 31
0.0
  0
LINE
  5
48B
  8
0
 10
590.79953184716476
 20
731.50000000001091
 30
0.0
 11
571.19953184716474
 21
731.50000000001114
 31
0.0
  0
ARC
  5
48C
  8
0
 10
571.19953184716474
 20
731.90000000001123
 30
0.0
 40
0.4
 50
180.0
 51
270.0
  0
ARC
  5
519
  8
0
 10
879.13581479213178
 20
528.0
 30
0.0
 40
10.0
 50
193.47108084097459
 51
346.52891915902541
  0
ARC
  5
51A
  8
0
 10
867.46596329846238
 20
525.2045454545455
 30
0.0
 40
2.0
 50
13.471080840974629
 51
97.798865080944609
  0
ARC
  5
51B
  8
0
 10
890.80566628580141
 20
525.2045454545455
 30
0.0
 40
2.0
 50
82.201134919055391
 51
166.52891915902541
  0
ARC
  5
52A
  8
0
 10
879.13581479213178
 20
440.0
 30
0.0
 40
88.0
 50
97.79886450548419
 51
82.201134919055391
  0
LINE
  5
52B
  8
1
 10
769.13581479213246
 20
440.0
 30
0.0
 11
989.13581479213178
 21
440.0
 31
0.0
  0
CIRCLE
  5
52C
  8
0
 10
879.13581479213178
 20
440.0
 30
0.0
 40
100.0
  0
CIRCLE
  5
52D
  8
0
 10
879.13581479213178
 20
440.0
 30
0.0
 40
3.0
  0
CIRCLE
  5
52E
  8
0
 10
879.13581479213178
 20
440.0
 30
0.0
 40
21.5
  0
LINE
  5
52F
  8
1
 10
879.13581479213178
 20
549.99999999999955
 30
0.0
 11
879.13581479213178
 21
330.00000000000051
 31
0.0
  0
CIRCLE
  5
530
  8
0
 10
879.13581479213178
 20
440.0
 30
0.0
 40
23.11335302070842
  0
ARC
  5
550
  8
0
 10
571.62293157905106
 20
739.05658554867932
 30
0.0
 40
6.0
 50
202.8806371764224
 51
262.11221995169592
  0
LINE
  5
552
  8
0
 10
590.79953184716476
 20
688.49999999998522
 30
0.0
 11
571.19953184717133
 21
688.4999999999792
 31
0.0
  0
ARC
  5
553
  8
0
 10
571.19953184717133
 20
688.09999999997922
 30
0.0
 40
0.4
 50
90.000000000013031
 51
180.00000000001299
  0
ARC
  5
555
  8
0
 10
571.6229315790597
 20
680.94341445131136
 30
0.0
 40
6.0
 50
97.887780048330313
 51
157.11936282359511
  0
ARC
  5
557
  8
2
 10
557.29953184716476
 20
688.9999999999751
 30
0.0
 40
0.5
 50
180.0
 51
269.99999999997391
  0
TEXT
  5
55B
  8
0
 10
881.93581479213174
 20
397.0
 30
0.0
 40
10.0
  1
‚Q
 50
180.0
 41
0.6
  7
06000
 72
     1
 11
879.13581479213178
 21
392.0
 31
0.0
 73
     2
  0
TEXT
  5
55C
  8
0
 10
875.58689532861649
 20
397.06635491287477
 30
0.0
 40
10.0
  1
‚O
 50
171.99999999999909
 41
0.6
  7
06000
 72
     1
 11
872.31633284508825
 21
392.4768646316632
 31
0.0
 73
     2
  0
TEXT
  5
55D
  8
0
 10
869.50705154562309
 20
397.98782825358978
 30
0.0
 40
10.0
  1
‚O
 50
163.99999999999881
 41
0.6
  7
06000
 72
     1
 11
865.62958435709845
 21
393.89817689902247
 31
0.0
 73
     2
  0
TEXT
  5
55E
  8
0
 10
888.03218182685112
 20
397.81788965805907
 30
0.0
 40
10.0
  1
‚`
 50
188.0000000000008
 41
0.6
  7
06000
 72
     1
 11
885.95529673917486
 21
392.47686463166298
 31
0.0
 73
     2
  0
TEXT
  5
55F
  8
0
 10
893.95539119670696
 20
399.4762699750014
 30
0.0
 40
10.0
  1
‚c
 50
195.99999999999821
 41
0.6
  7
06000
 72
     1
 11
892.64204522716443
 21
393.8981768990223
 31
0.0
 73
     2
  0
LINE
  5
57E
  8
2
 10
592.79953184716487
 20
713.00000000000216
 30
0.0
 11
577.79953184716476
 21
713.00000000000216
 31
0.0
  0
LINE
  5
642
  8
0
 10
590.79953184716476
 20
731.50000000001091
 30
0.0
 11
592.79953184716487
 21
729.50000000001091
 31
0.0
  0
LINE
  5
643
  8
0
 10
592.79953184716487
 20
690.49999999998579
 30
0.0
 11
590.79953184716476
 21
688.49999999998522
 31
0.0
  0
CIRCLE
  5
662
  8
0
 10
276.85905583877928
 20
440.0
 30
0.0
 40
21.00000000002478
  0
CIRCLE
  5
663
  8
0
 10
276.85905583877928
 20
440.0
 30
0.0
 40
21.5
  0
CIRCLE
  5
664
  8
0
 10
276.85905583877928
 20
440.0
 30
0.0
 40
76.0
  0
CIRCLE
  5
665
  8
0
 10
276.85905583877928
 20
440.0
 30
0.0
 40
77.5
  0
CIRCLE
  5
666
  8
0
 10
276.85905583877928
 20
440.0
 30
0.0
 40
100.0
  0
ARC
  5
6B5
  8
2
 10
557.29953184716476
 20
731.00000000002478
 30
0.0
 40
0.5
 50
90.000000000026048
 51
180.0
  0
LINE
  5
6CB
  8
0
 10
590.79953184716476
 20
731.50000000001091
 30
0.0
 11
590.79953184716476
 21
688.49999999998522
 31
0.0
  0
LINE
  5
6CC
  8
2
 10
557.29953184716476
 20
731.5000000000249
 30
0.0
 11
557.29953184716476
 21
688.4999999999751
 31
0.0
  0
LINE
  5
6CD
  8
2
 10
559.59528759016291
 20
733.00000000002501
 30
0.0
 11
559.59528759016291
 21
686.99999999997476
 31
0.0
  0
LINE
  5
6CF
  8
2
 10
555.79953184716487
 20
658.88043478259203
 30
0.0
 11
546.0963557392281
 21
635.88812617900794
 31
0.0
  0
LINE
  5
6D0
  8
0
 10
537.79953184716476
 20
540.00000000001114
 30
0.0
 11
553.79953184716476
 21
540.00000000001114
 31
0.0
  0
ARC
  5
6D1
  8
0
 10
537.79953184716476
 20
538.00000000001114
 30
0.0
 40
2.0
 50
90.0
 51
180.0
  0
ARC
  5
6D2
  8
0
 10
553.79953184716476
 20
538.00000000001114
 30
0.0
 40
2.0
 50
0.0
 51
90.0
  0
ARC
  5
6D3
  8
0
 10
553.79953184716476
 20
341.9999999999888
 30
0.0
 40
2.0
 50
270.0
 51
0.0
  0
ARC
  5
6D4
  8
0
 10
537.79953184716476
 20
341.9999999999888
 30
0.0
 40
2.0
 50
180.0
 51
270.0
  0
LINE
  5
6D5
  8
0
 10
537.79953184716476
 20
339.9999999999888
 30
0.0
 11
553.79953184716476
 21
339.9999999999888
 31
0.0
  0
LINE
  5
6D6
  8
0
 10
535.79953184716476
 20
538.00000000001114
 30
0.0
 11
535.79953184716476
 21
341.9999999999888
 31
0.0
  0
LINE
  5
6D7
  8
0
 10
555.79953184716487
 20
538.00000000001114
 30
0.0
 11
555.79953184716487
 21
341.9999999999888
 31
0.0
  0
LINE
  5
6D8
  8
0
 10
592.79953184716487
 20
459.5000000000108
 30
0.0
 11
592.79953184716487
 21
420.49999999998568
 31
0.0
  0
LINE
  5
6D9
  8
1
 10
525.7995318471651
 20
440.0
 30
0.0
 11
602.79953184716476
 21
440.0
 31
0.0
  0
LINE
  5
6DA
  8
2
 10
577.79953184716476
 20
443.0000000000025
 30
0.0
 11
577.79953184716476
 21
436.9999999999975
 31
0.0
  0
LINE
  5
6DB
  8
2
 10
592.79953184716487
 20
436.99999999999773
 30
0.0
 11
577.79953184716476
 21
436.9999999999975
 31
0.0
  0
LINE
  5
6DC
  8
2
 10
577.79953184716476
 20
436.9999999999975
 30
0.0
 11
576.06748103959444
 21
440.0
 31
0.0
  0
LINE
  5
6DD
  8
2
 10
577.79953184716476
 20
443.0000000000025
 30
0.0
 11
576.06748103959444
 21
440.0
 31
0.0
  0
LINE
  5
6DE
  8
2
 10
556.79953184716476
 20
461.00000000002478
 30
0.0
 11
556.79953184716476
 21
418.99999999997522
 31
0.0
  0
LINE
  5
6DF
  8
2
 10
537.29953184716476
 20
363.99999999998869
 30
0.0
 11
538.79953184716464
 21
363.99999999998869
 31
0.0
  0
LINE
  5
6E0
  8
2
 10
537.29953184716476
 20
363.99999999998869
 30
0.0
 11
535.79953184716476
 21
362.4999999999888
 31
0.0
  0
LINE
  5
6E1
  8
2
 10
538.79953184716487
 20
516.00000000001114
 30
0.0
 11
538.79953184716487
 21
363.99999999998869
 31
0.0
  0
LINE
  5
6E2
  8
2
 10
537.29953184716476
 20
516.00000000001114
 30
0.0
 11
537.29953184716476
 21
363.99999999998869
 31
0.0
  0
LINE
  5
6E3
  8
2
 10
538.79953184716487
 20
363.99999999998869
 30
0.0
 11
559.49063544285298
 21
416.44954167276671
 31
0.0
  0
LINE
  5
6E4
  8
0
 10
566.09503044627081
 20
413.27629015872742
 30
0.0
 11
555.79953184716487
 21
388.88043478259181
 31
0.0
  0
ARC
  5
6E5
  8
2
 10
555.3095242938582
 20
361.99999999998869
 30
0.0
 40
10.0
 50
157.11936282358059
 51
262.77115408835942
  0
ARC
  5
6E6
  8
2
 10
553.79953184716476
 20
350.09538229042238
 30
0.0
 40
2.0
 50
0.0
 51
82.77115408835941
  0
LINE
  5
6E7
  8
2
 10
558.09528759016303
 20
418.49999999997488
 30
0.0
 11
557.29953184716464
 21
418.4999999999751
 31
0.0
  0
ARC
  5
6E8
  8
2
 10
558.09528759016303
 20
416.99999999997482
 30
0.0
 40
1.5
 50
338.47099311815577
 51
90.0
  0
LINE
  5
6E9
  8
2
 10
537.29953184716476
 20
516.00000000001114
 30
0.0
 11
535.79953184716476
 21
517.50000000001114
 31
0.0
  0
LINE
  5
6EA
  8
2
 10
537.29953184716476
 20
516.00000000001114
 30
0.0
 11
538.79953184716464
 21
516.00000000001114
 31
0.0
  0
LINE
  5
6EB
  8
2
 10
538.79953184716487
 20
516.00000000001114
 30
0.0
 11
559.49063544285298
 21
463.55045832723312
 31
0.0
  0
LINE
  5
6EC
  8
0
 10
566.09503044627274
 20
466.72370984126741
 30
0.0
 11
555.79953184716487
 21
491.11956521740899
 31
0.0
  0
ARC
  5
6ED
  8
2
 10
558.09528759016303
 20
463.00000000002501
 30
0.0
 40
1.5
 50
270.0
 51
21.529006881844229
  0
LINE
  5
6EE
  8
2
 10
558.09528759016303
 20
461.5000000000249
 30
0.0
 11
557.29953184716476
 21
461.5000000000249
 31
0.0
  0
LINE
  5
6EF
  8
0
 10
570.79953184716476
 20
416.8866469792809
 30
0.0
 11
570.79953184716476
 21
463.11335302070842
 31
0.0
  0
LINE
  5
6F0
  8
0
 10
590.79953184716476
 20
461.50000000001091
 30
0.0
 11
571.19953184716474
 21
461.50000000001108
 31
0.0
  0
ARC
  5
6F1
  8
0
 10
571.19953184716474
 20
461.90000000001118
 30
0.0
 40
0.4
 50
180.0
 51
270.0
  0
LINE
  5
6F2
  8
2
 10
553.79953184716476
 20
518.00000000000125
 30
0.0
 11
550.48518020199344
 21
518.00000000000125
 31
0.0
  0
ARC
  5
6F3
  8
2
 10
553.79953184716476
 20
520.00000000000125
 30
0.0
 40
2.0
 50
270.0
 51
0.0
  0
ARC
  5
6F4
  8
2
 10
550.48518020199344
 20
514.00000000000125
 30
0.0
 40
4.0
 50
90.0
 51
202.88063717641941
  0
ARC
  5
6F5
  8
0
 10
571.62293157905106
 20
469.05658554867932
 30
0.0
 40
6.0
 50
202.88063717641941
 51
262.11221995169552
  0
LINE
  5
6F6
  8
0
 10
590.79953184716476
 20
418.49999999998522
 30
0.0
 11
571.19953184717133
 21
418.49999999997931
 31
0.0
  0
ARC
  5
6F7
  8
0
 10
571.19953184717133
 20
418.09999999997922
 30
0.0
 40
0.4
 50
90.000000000013031
 51
180.00000000001299
  0
ARC
  5
6F8
  8
0
 10
571.6229315790597
 20
410.9434144513113
 30
0.0
 40
6.0
 50
97.887780048330313
 51
157.11936282359511
  0
ARC
  5
6F9
  8
2
 10
557.29953184716476
 20
418.99999999997522
 30
0.0
 40
0.5
 50
180.0
 51
269.99999999997391
  0
LINE
  5
6FA
  8
2
 10
592.79953184716487
 20
443.00000000000222
 30
0.0
 11
577.79953184716476
 21
443.00000000000222
 31
0.0
  0
LINE
  5
6FB
  8
0
 10
590.79953184716476
 20
461.50000000001091
 30
0.0
 11
592.79953184716487
 21
459.5000000000108
 31
0.0
  0
LINE
  5
6FC
  8
0
 10
592.79953184716487
 20
420.49999999998568
 30
0.0
 11
590.79953184716476
 21
418.49999999998522
 31
0.0
  0
ARC
  5
6FD
  8
2
 10
557.29953184716476
 20
461.00000000002478
 30
0.0
 40
0.5
 50
90.000000000026048
 51
180.0
  0
LINE
  5
6FE
  8
0
 10
590.79953184716476
 20
461.50000000001091
 30
0.0
 11
590.79953184716476
 21
418.49999999998522
 31
0.0
  0
LINE
  5
6FF
  8
2
 10
557.29953184716476
 20
461.5000000000249
 30
0.0
 11
557.29953184716476
 21
418.4999999999751
 31
0.0
  0
LINE
  5
700
  8
2
 10
559.59528759016291
 20
463.00000000002501
 30
0.0
 11
559.59528759016291
 21
416.99999999997482
 31
0.0
  0
LINE
  5
701
  8
2
 10
555.79953184716487
 20
491.11956521740848
 30
0.0
 11
546.7999127801412
 21
512.44474952839369
 31
0.0
  0
LINE
  5
702
  8
2
 10
555.79953184716487
 20
388.88043478259198
 30
0.0
 11
546.0963557392281
 21
365.88812617900788
 31
0.0
  0
ARC
  5
738
  8
2
 10
555.3095242938582
 20
788.00000000001125
 30
0.0
 40
10.0
 50
97.228845911640605
 51
202.88063717641339
  0
ARC
  5
739
  8
2
 10
553.79953184716476
 20
799.90461770957745
 30
0.0
 40
2.0
 50
277.22884591164058
 51
0.0
  0
LINE
  5
73A
  8
2
 10
555.79953184716487
 20
761.11956521740785
 30
0.0
 11
546.0963557392281
 21
784.11187382099195
 31
0.0
  0
LINE
  5
743
  8
0
 10
537.79953184716476
 20
270.0000000000112
 30
0.0
 11
553.79953184716476
 21
270.0000000000112
 31
0.0
  0
ARC
  5
744
  8
0
 10
537.79953184716476
 20
268.0000000000112
 30
0.0
 40
2.0
 50
90.0
 51
180.0
  0
ARC
  5
745
  8
0
 10
553.79953184716476
 20
268.0000000000112
 30
0.0
 40
2.0
 50
0.0
 51
90.0
  0
ARC
  5
746
  8
0
 10
553.79953184716476
 20
71.999999999988745
 30
0.0
 40
2.0
 50
270.0
 51
0.0
  0
ARC
  5
747
  8
0
 10
537.79953184716476
 20
71.999999999988745
 30
0.0
 40
2.0
 50
180.0
 51
270.0
  0
LINE
  5
748
  8
0
 10
537.79953184716476
 20
69.999999999988745
 30
0.0
 11
553.79953184716476
 21
69.999999999988745
 31
0.0
  0
LINE
  5
749
  8
0
 10
535.79953184716476
 20
268.0000000000112
 30
0.0
 11
535.79953184716476
 21
71.999999999988745
 31
0.0
  0
LINE
  5
74A
  8
0
 10
555.79953184716487
 20
268.0000000000112
 30
0.0
 11
555.79953184716487
 21
71.999999999988745
 31
0.0
  0
LINE
  5
74B
  8
0
 10
592.79953184716487
 20
189.50000000001091
 30
0.0
 11
592.79953184716487
 21
150.49999999998579
 31
0.0
  0
LINE
  5
74C
  8
1
 10
525.7995318471651
 20
170.0
 30
0.0
 11
602.79953184716476
 21
170.0
 31
0.0
  0
LINE
  5
74D
  8
2
 10
577.79953184716476
 20
173.0000000000025
 30
0.0
 11
577.79953184716476
 21
166.9999999999975
 31
0.0
  0
LINE
  5
74E
  8
2
 10
592.79953184716487
 20
166.9999999999977
 30
0.0
 11
577.79953184716476
 21
166.9999999999975
 31
0.0
  0
LINE
  5
74F
  8
2
 10
577.79953184716476
 20
166.9999999999975
 30
0.0
 11
576.06748103959444
 21
170.0
 31
0.0
  0
LINE
  5
750
  8
2
 10
577.79953184716476
 20
173.0000000000025
 30
0.0
 11
576.06748103959444
 21
170.0
 31
0.0
  0
LINE
  5
751
  8
2
 10
556.79953184716476
 20
191.00000000002481
 30
0.0
 11
556.79953184716476
 21
148.99999999997519
 31
0.0
  0
LINE
  5
752
  8
2
 10
537.29953184716476
 20
93.999999999988745
 30
0.0
 11
538.79953184716464
 21
93.999999999988745
 31
0.0
  0
LINE
  5
753
  8
2
 10
537.29953184716476
 20
93.999999999988745
 30
0.0
 11
535.79953184716476
 21
92.499999999988745
 31
0.0
  0
LINE
  5
754
  8
2
 10
538.79953184716487
 20
246.00000000001111
 30
0.0
 11
538.79953184716487
 21
93.999999999988745
 31
0.0
  0
LINE
  5
755
  8
2
 10
537.29953184716476
 20
246.00000000001111
 30
0.0
 11
537.29953184716476
 21
93.999999999988745
 31
0.0
  0
LINE
  5
756
  8
2
 10
538.79953184716487
 20
93.999999999988745
 30
0.0
 11
559.49063544285298
 21
146.44954167276671
 31
0.0
  0
LINE
  5
757
  8
0
 10
566.09503044627081
 20
143.27629015872739
 30
0.0
 11
555.79953184716487
 21
118.88043478259181
 31
0.0
  0
ARC
  5
758
  8
2
 10
555.3095242938582
 20
91.999999999988745
 30
0.0
 40
10.0
 50
157.1193628235811
 51
262.77115408835931
  0
ARC
  5
759
  8
2
 10
553.79953184716476
 20
80.095382290422435
 30
0.0
 40
2.0
 50
0.0
 51
82.771154088359296
  0
LINE
  5
75A
  8
2
 10
558.09528759016303
 20
148.49999999997479
 30
0.0
 11
557.29953184716464
 21
148.49999999997519
 31
0.0
  0
ARC
  5
75B
  8
2
 10
558.09528759016303
 20
146.9999999999749
 30
0.0
 40
1.5
 50
338.47099311815481
 51
90.0
  0
LINE
  5
75C
  8
2
 10
537.29953184716476
 20
246.00000000001111
 30
0.0
 11
535.79953184716476
 21
247.50000000001111
 31
0.0
  0
LINE
  5
75D
  8
2
 10
537.29953184716476
 20
246.00000000001111
 30
0.0
 11
538.79953184716464
 21
246.00000000001111
 31
0.0
  0
LINE
  5
75E
  8
2
 10
538.79953184716487
 20
246.00000000001111
 30
0.0
 11
559.49063544285298
 21
193.5504583272332
 31
0.0
  0
LINE
  5
75F
  8
0
 10
566.09503044627274
 20
196.72370984126741
 30
0.0
 11
555.79953184716487
 21
221.11956521740899
 31
0.0
  0
ARC
  5
760
  8
2
 10
558.09528759016303
 20
193.00000000002501
 30
0.0
 40
1.5
 50
270.0
 51
21.529006881845181
  0
LINE
  5
761
  8
2
 10
558.09528759016303
 20
191.50000000002501
 30
0.0
 11
557.29953184716476
 21
191.50000000002501
 31
0.0
  0
LINE
  5
762
  8
0
 10
570.79953184716476
 20
146.8866469792809
 30
0.0
 11
570.79953184716476
 21
193.11335302070839
 31
0.0
  0
LINE
  5
763
  8
0
 10
590.79953184716476
 20
191.50000000001091
 30
0.0
 11
571.19953184716474
 21
191.50000000001111
 31
0.0
  0
ARC
  5
764
  8
0
 10
571.19953184716474
 20
191.9000000000112
 30
0.0
 40
0.4
 50
180.0
 51
270.0
  0
ARC
  5
765
  8
0
 10
571.62293157905106
 20
199.05658554867929
 30
0.0
 40
6.0
 50
202.88063717641981
 51
262.11221995169569
  0
LINE
  5
766
  8
0
 10
590.79953184716476
 20
148.49999999998519
 30
0.0
 11
571.19953184717133
 21
148.49999999997931
 31
0.0
  0
ARC
  5
767
  8
0
 10
571.19953184717133
 20
148.09999999997919
 30
0.0
 40
0.4
 50
90.000000000013017
 51
180.00000000001299
  0
ARC
  5
768
  8
0
 10
571.6229315790597
 20
140.9434144513113
 30
0.0
 40
6.0
 50
97.887780048330072
 51
157.11936282359491
  0
ARC
  5
769
  8
2
 10
557.29953184716476
 20
148.99999999997519
 30
0.0
 40
0.5
 50
180.0
 51
269.99999999997391
  0
LINE
  5
76A
  8
2
 10
592.79953184716487
 20
173.0000000000023
 30
0.0
 11
577.79953184716476
 21
173.0000000000023
 31
0.0
  0
LINE
  5
76B
  8
0
 10
590.79953184716476
 20
191.50000000001091
 30
0.0
 11
592.79953184716487
 21
189.50000000001091
 31
0.0
  0
LINE
  5
76C
  8
0
 10
592.79953184716487
 20
150.49999999998579
 30
0.0
 11
590.79953184716476
 21
148.49999999998519
 31
0.0
  0
ARC
  5
76D
  8
2
 10
557.29953184716476
 20
191.00000000002481
 30
0.0
 40
0.5
 50
90.000000000026048
 51
180.0
  0
LINE
  5
76E
  8
0
 10
590.79953184716476
 20
191.50000000001091
 30
0.0
 11
590.79953184716476
 21
148.49999999998519
 31
0.0
  0
LINE
  5
76F
  8
2
 10
557.29953184716476
 20
191.50000000002501
 30
0.0
 11
557.29953184716476
 21
148.49999999997519
 31
0.0
  0
LINE
  5
770
  8
2
 10
559.59528759016291
 20
193.00000000002501
 30
0.0
 11
559.59528759016291
 21
146.9999999999749
 31
0.0
  0
LINE
  5
771
  8
2
 10
555.79953184716487
 20
118.880434782592
 30
0.0
 11
546.0963557392281
 21
95.888126179007941
 31
0.0
  0
ARC
  5
772
  8
2
 10
555.3095242938582
 20
248.0000000000114
 30
0.0
 40
10.0
 50
97.228845911640676
 51
202.88063717641239
  0
ARC
  5
773
  8
2
 10
553.79953184716476
 20
259.90461770957739
 30
0.0
 40
2.0
 50
277.22884591164069
 51
0.0
  0
LINE
  5
774
  8
2
 10
555.79953184716487
 20
221.11956521740791
 30
0.0
 11
546.0963557392281
 21
244.11187382099209
 31
0.0
  0
TEXT
  5
87E
  8
0
 62
     3
 10
0.0
 20
0.0
 30
0.0
 40
10.0
  1
NDA200
  7
STANDARD1
  0
ENDSEC
  0
EOF
