  0
SECTION
  2
HEADER
  9
$ACADVER
  1
AC1009
  9
$INSBASE
 10
0.0
 20
0.0
 30
0.0
  9
$EXTMIN
 10
0.0
 20
-2.960436562073669
 30
0.0
  9
$EXTMAX
 10
1034.7855380423539
 20
949.77742805755031
 30
0.0
  9
$LIMMIN
 10
0.0
 20
0.0
  9
$LIMMAX
 10
1125.0
 20
810.0
  9
$ORTHOMODE
 70
     1
  9
$REGENMODE
 70
     1
  9
$FILLMODE
 70
     1
  9
$QTEXTMODE
 70
     0
  9
$MIRRTEXT
 70
     0
  9
$DRAGMODE
 70
     2
  9
$LTSCALE
 40
30.0
  9
$OSMODE
 70
  3071
  9
$ATTMODE
 70
     1
  9
$TEXTSIZE
 40
3.0
  9
$TRACEWID
 40
0.05
  9
$TEXTSTYLE
  7
SIM080
  9
$CLAYER
  8
0
  9
$CELTYPE
  6
BYLAYER
  9
$CECOLOR
 62
   256
  9
$DIMSCALE
 40
3.0
  9
$DIMASZ
 40
3.0
  9
$DIMEXO
 40
2.0
  9
$DIMDLI
 40
0.3799999999999999
  9
$DIMRND
 40
0.0
  9
$DIMDLE
 40
0.0
  9
$DIMEXE
 40
2.0
  9
$DIMTP
 40
0.0
  9
$DIMTM
 40
0.0
  9
$DIMTXT
 40
3.2000000000000002
  9
$DIMCEN
 40
0.09
  9
$DIMTSZ
 40
0.0
  9
$DIMTOL
 70
     0
  9
$DIMLIM
 70
     0
  9
$DIMTIH
 70
     0
  9
$DIMTOH
 70
     0
  9
$DIMSE1
 70
     0
  9
$DIMSE2
 70
     0
  9
$DIMTAD
 70
     1
  9
$DIMZIN
 70
     0
  9
$DIMBLK
  1

  9
$DIMASO
 70
     1
  9
$DIMSHO
 70
     0
  9
$DIMPOST
  1

  9
$DIMAPOST
  1

  9
$DIMALT
 70
     0
  9
$DIMALTD
 70
     2
  9
$DIMALTF
 40
25.399999999999999
  9
$DIMLFAC
 40
1.0
  9
$DIMTOFL
 70
     0
  9
$DIMTVP
 40
1.6000000000000001
  9
$DIMTIX
 70
     1
  9
$DIMSOXD
 70
     0
  9
$DIMSAH
 70
     0
  9
$DIMBLK1
  1

  9
$DIMBLK2
  1

  9
$DIMSTYLE
  2
STANDARD
  9
$DIMCLRD
 70
     0
  9
$DIMCLRE
 70
     0
  9
$DIMCLRT
 70
     0
  9
$DIMTFAC
 40
1.0
  9
$DIMGAP
 40
0.09
  9
$LUNITS
 70
     2
  9
$LUPREC
 70
     4
  9
$SKETCHINC
 40
0.1
  9
$FILLETRAD
 40
0.0
  9
$AUNITS
 70
     0
  9
$AUPREC
 70
     0
  9
$MENU
  1
E:\r13\win\SUPPORT\ACAD
  9
$ELEVATION
 40
0.0
  9
$PELEVATION
 40
0.0
  9
$THICKNESS
 40
0.0
  9
$LIMCHECK
 70
     0
  9
$BLIPMODE
 70
     0
  9
$CHAMFERA
 40
0.0
  9
$CHAMFERB
 40
0.0
  9
$SKPOLY
 70
     0
  9
$TDCREATE
 40
2449840.598912037
  9
$TDUPDATE
 40
2456597.6876661112
  9
$TDINDWG
 40
0.0287367824
  9
$TDUSRTIMER
 40
0.0287367824
  9
$USRTIMER
 70
     1
  9
$ANGBASE
 50
0.0
  9
$ANGDIR
 70
     0
  9
$PDMODE
 70
     0
  9
$PDSIZE
 40
0.0
  9
$PLINEWID
 40
0.0
  9
$COORDS
 70
     1
  9
$SPLFRAME
 70
     0
  9
$SPLINETYPE
 70
     6
  9
$SPLINESEGS
 70
     8
  9
$ATTDIA
 70
     0
  9
$ATTREQ
 70
     1
  9
$HANDLING
 70
     1
  9
$HANDSEED
  5
8AD
  9
$SURFTAB1
 70
     6
  9
$SURFTAB2
 70
     6
  9
$SURFTYPE
 70
     6
  9
$SURFU
 70
     6
  9
$SURFV
 70
     6
  9
$UCSNAME
  2

  9
$UCSORG
 10
0.0
 20
0.0
 30
0.0
  9
$UCSXDIR
 10
1.0
 20
0.0
 30
0.0
  9
$UCSYDIR
 10
0.0
 20
1.0
 30
0.0
  9
$PUCSNAME
  2

  9
$PUCSORG
 10
0.0
 20
0.0
 30
0.0
  9
$PUCSXDIR
 10
1.0
 20
0.0
 30
0.0
  9
$PUCSYDIR
 10
0.0
 20
1.0
 30
0.0
  9
$USERI1
 70
     0
  9
$USERI2
 70
     1
  9
$USERI3
 70
     1
  9
$USERI4
 70
     0
  9
$USERI5
 70
     0
  9
$USERR1
 40
0.0
  9
$USERR2
 40
0.0
  9
$USERR3
 40
0.0
  9
$USERR4
 40
0.0
  9
$USERR5
 40
0.0
  9
$WORLDVIEW
 70
     1
  9
$SHADEDGE
 70
     3
  9
$SHADEDIF
 70
    70
  9
$TILEMODE
 70
     1
  9
$MAXACTVP
 70
    16
  9
$PLIMCHECK
 70
     0
  9
$PEXTMIN
 10
1.0000000000000000E+020
 20
1.0000000000000000E+020
 30
1.0000000000000000E+020
  9
$PEXTMAX
 10
-1.0000000000000000E+020
 20
-1.0000000000000000E+020
 30
-1.0000000000000000E+020
  9
$PLIMMIN
 10
0.0
 20
0.0
  9
$PLIMMAX
 10
12.0
 20
9.0
  9
$UNITMODE
 70
     0
  9
$VISRETAIN
 70
     0
  9
$PLINEGEN
 70
     0
  9
$PSLTSCALE
 70
     0
  0
ENDSEC
  0
SECTION
  2
TABLES
  0
TABLE
  2
VPORT
 70
     1
  0
VPORT
  2
*ACTIVE
 70
     0
 10
0.0
 20
0.0
 11
1.0
 21
1.0
 12
562.48283517195705
 22
475.46588017010652
 13
0.0
 23
0.0
 14
30.0
 24
30.0
 15
30.0
 25
30.0
 16
0.0
 26
0.0
 36
1.0
 17
0.0
 27
0.0
 37
0.0
 40
967.88342878086439
 41
2.304913294797688
 42
50.0
 43
0.0
 44
0.0
 50
0.0
 51
0.0
 71
     0
 72
   500
 73
     1
 74
     0
 75
     0
 76
     0
 77
     0
 78
     2
  0
ENDTAB
  0
TABLE
  2
LTYPE
 70
     4
  0
LTYPE
  2
CONTINUOUS
 70
     0
  3
Solid Line
 72
    65
 73
     0
 40
0.0
  0
LTYPE
  2
CENTER
 70
     0
  3
____ _ ____ _ ____ _ ____ _ ____ _ ____ _ ____
 72
    65
 73
     4
 40
2.0
 49
1.25
 49
-0.25
 49
0.25
 49
-0.25
  0
LTYPE
  2
HIDDEN
 70
     0
  3
_ _ _ _ _ _ _ _ _ _ _ _ _ _ _ _ _ _ _ _ _ _ _
 72
    65
 73
     2
 40
0.375
 49
0.25
 49
-0.125
  0
LTYPE
  2
PHANTOM2
 70
     0
  3
___ _ _ ___ _ _ ___ _ _ ___ _ _
 72
    65
 73
     6
 40
1.25
 49
0.625
 49
-0.125
 49
0.125
 49
-0.125
 49
0.125
 49
-0.125
  0
ENDTAB
  0
TABLE
  2
LAYER
 70
     4
  0
LAYER
  2
0
 70
     0
 62
     7
  6
CONTINUOUS
  0
LAYER
  2
1
 70
     0
 62
     1
  6
CENTER
  0
LAYER
  2
2
 70
     0
 62
     2
  6
HIDDEN
  0
LAYER
  2
DEFPOINTS
 70
     0
 62
     7
  6
CONTINUOUS
  0
ENDTAB
  0
TABLE
  2
STYLE
 70
     4
  0
STYLE
  2
STANDARD
 70
     0
 40
0.0
 41
1.0
 50
0.0
 71
     0
 42
0.2
  3
romans.shx
  4

  0
STYLE
  2
SIM080
 70
     0
 40
0.0
 41
1.0
 50
0.0
 71
     0
 42
3.0
  3
romans.shx
  4

  0
STYLE
  2
06000
 70
     0
 40
0.0
 41
0.6
 50
0.0
 71
     0
 42
3.0
  3
simplex.shx
  4
bigfont.shx
  0
STYLE
  2
STANDARD1
 70
     0
 40
0.0
 41
1.0
 50
0.0
 71
     0
 42
3.0
  3
txt
  4

  0
ENDTAB
  0
TABLE
  2
VIEW
 70
     1
  0
VIEW
  2
ALL
 70
     0
 40
810.0
 10
662.97478991596643
 20
405.0
 41
0.0
 11
0.0
 21
0.0
 31
1.0
 12
0.0
 22
0.0
 32
0.0
 42
0.0
 43
0.0
 44
0.0
 50
0.0
 71
     0
  0
ENDTAB
  0
TABLE
  2
UCS
 70
     0
  0
ENDTAB
  0
TABLE
  2
APPID
 70
     4
  0
APPID
  2
ACAD
 70
     0
  0
APPID
  2
ACAD_EXEMPT_FROM_CAD_STANDARDS
 70
     0
  0
APPID
  2
ACAD_MLEADERVER
 70
     0
  0
APPID
  2
ACAD_NAV_VCDISPLAY
 70
     0
  0
ENDTAB
  0
TABLE
  2
DIMSTYLE
 70
     1
  0
DIMSTYLE
  2
STANDARD
 70
     0
  3

  4

  5

  6

  7

 40
1.0
 41
0.18
 42
0.0625
 43
0.38
 44
0.18
 45
0.0
 46
0.0
 47
0.0
 48
0.0
140
0.18
141
0.09
142
0.0
143
25.399999999999999
144
1.0
145
0.0
146
1.0
147
0.09
 71
     0
 72
     0
 73
     1
 74
     1
 75
     0
 76
     0
 77
     0
 78
     0
170
     0
171
     2
172
     0
173
     0
174
     0
175
     0
176
     0
177
     0
178
     0
  0
ENDTAB
  0
ENDSEC
  0
SECTION
  2
BLOCKS
  0
BLOCK
  8
0
  2
$MODEL_SPACE
 70
     0
 10
0.0
 20
0.0
 30
0.0
  3
$MODEL_SPACE
  1

  0
ENDBLK
  5
129
  8
0
  0
BLOCK
 67
     1
  8
0
  2
$PAPER_SPACE
 70
     0
 10
0.0
 20
0.0
 30
0.0
  3
$PAPER_SPACE
  1

  0
ENDBLK
  5
127
 67
     1
  8
0
  0
ENDSEC
  0
SECTION
  2
ENTITIES
  0
LINE
  5
45E
  8
1
 10
243.50517923118721
 20
639.77742805755395
 30
0.0
 11
243.50517923118721
 21
369.7774280575544
 31
0.0
  0
LINE
  5
45F
  8
1
 10
378.50517923118701
 20
504.77742805755412
 30
0.0
 11
108.5051792311874
 21
504.77742805755389
 31
0.0
  0
LINE
  5
464
  8
0
 10
543.21979896453979
 20
949.77742805755031
 30
0.0
 11
562.2197989645399
 21
949.77742805755031
 31
0.0
  0
ARC
  5
465
  8
0
 10
543.21979896453979
 20
947.77742805755042
 30
0.0
 40
2.0
 50
90.0
 51
180.0
  0
ARC
  5
466
  8
0
 10
562.2197989645399
 20
947.77742805755042
 30
0.0
 40
2.0
 50
0.0
 51
90.0
  0
ARC
  5
467
  8
0
 10
580.61979896454
 20
799.37742805755761
 30
0.0
 40
0.4
 50
90.0
 51
180.0
  0
LINE
  5
469
  8
0
 10
602.21979896453979
 20
799.7774280575577
 30
0.0
 11
580.63579040570426
 21
799.7774280575577
 31
0.0
  0
ARC
  5
46A
  8
0
 10
562.2197989645399
 20
701.7774280575577
 30
0.0
 40
2.0
 50
270.0
 51
0.0
  0
ARC
  5
46B
  8
0
 10
543.21979896453979
 20
701.7774280575577
 30
0.0
 40
2.0
 50
180.0
 51
270.0
  0
LINE
  5
46C
  8
0
 10
543.21979896453979
 20
699.77742805755759
 30
0.0
 11
562.2197989645399
 21
699.77742805755759
 31
0.0
  0
LINE
  5
46D
  8
0
 10
541.2197989645399
 20
947.77742805755042
 30
0.0
 11
541.2197989645399
 21
701.7774280575577
 31
0.0
  0
LINE
  5
46E
  8
0
 10
564.21979896453979
 20
947.77742805755042
 30
0.0
 11
564.21979896453979
 21
701.7774280575577
 31
0.0
  0
LINE
  5
46F
  8
0
 10
604.2197989645399
 20
847.77742805755042
 30
0.0
 11
604.2197989645399
 21
801.77742805755759
 31
0.0
  0
LINE
  5
470
  8
1
 10
531.21979896453979
 20
824.77742805755406
 30
0.0
 11
614.21979896453922
 21
824.77742805755406
 31
0.0
  0
LINE
  5
471
  8
2
 10
604.21979896454013
 20
821.77742805755634
 30
0.0
 11
587.2197989645399
 21
821.77742805755634
 31
0.0
  0
LINE
  5
472
  8
2
 10
604.21979896454013
 20
827.77742805755145
 30
0.0
 11
587.2197989645399
 21
827.77742805755145
 31
0.0
  0
LINE
  5
473
  8
2
 10
587.2197989645399
 20
827.77742805755167
 30
0.0
 11
587.2197989645399
 21
821.77742805755634
 31
0.0
  0
LINE
  5
474
  8
2
 10
587.2197989645399
 20
827.77742805755145
 30
0.0
 11
585.48774815697243
 21
824.77742805755406
 31
0.0
  0
LINE
  5
475
  8
2
 10
587.2197989645399
 20
821.77742805755634
 30
0.0
 11
585.48774815697243
 21
824.77742805755406
 31
0.0
  0
LINE
  5
477
  8
2
 10
561.10199570574878
 20
712.7774280575577
 30
0.0
 11
562.2197989645399
 21
712.7774280575577
 31
0.0
  0
LINE
  5
478
  8
2
 10
542.7197989645399
 20
724.77742805755759
 30
0.0
 11
544.2197989645399
 21
724.77742805755759
 31
0.0
  0
LINE
  5
479
  8
2
 10
541.2197989645399
 20
723.2774280575577
 30
0.0
 11
542.7197989645399
 21
724.77742805755759
 31
0.0
  0
LINE
  5
47A
  8
2
 10
544.2197989645399
 20
924.77742805755031
 30
0.0
 11
544.2197989645399
 21
724.77742805755759
 31
0.0
  0
LINE
  5
47B
  8
2
 10
542.7197989645399
 20
924.77742805755031
 30
0.0
 11
542.7197989645399
 21
724.77742805755759
 31
0.0
  0
LINE
  5
47C
  8
2
 10
544.2197989645399
 20
724.77742805755759
 30
0.0
 11
567.10926926064462
 21
797.82892900257195
 31
0.0
  0
LINE
  5
47D
  8
0
 10
574.77530332248568
 20
794.05832322798631
 30
0.0
 11
564.21979896453979
 21
763.01272217520432
 31
0.0
  0
ARC
  5
47E
  8
2
 10
561.10199570574878
 20
722.7774280575577
 30
0.0
 40
10.0
 50
161.2219667775534
 51
270.0
  0
ARC
  5
480
  8
2
 10
562.2197989645399
 20
710.7774280575577
 30
0.0
 40
2.0
 50
0.0
 51
90.0
  0
LINE
  5
482
  8
2
 10
565.67788929792425
 20
799.7774280575577
 30
0.0
 11
564.71979896453979
 21
799.7774280575577
 31
0.0
  0
ARC
  5
483
  8
2
 10
565.67788929792425
 20
798.2774280575577
 30
0.0
 40
1.5
 50
342.60248711439391
 51
90.0
  0
LINE
  5
486
  8
2
 10
541.2197989645399
 20
926.27742805755042
 30
0.0
 11
542.7197989645399
 21
924.77742805755031
 31
0.0
  0
LINE
  5
487
  8
2
 10
542.7197989645399
 20
924.77742805755031
 30
0.0
 11
544.2197989645399
 21
924.77742805755031
 31
0.0
  0
LINE
  5
488
  8
0
 10
574.77530332248568
 20
855.49653288712148
 30
0.0
 11
564.21979896453979
 21
886.54213393990358
 31
0.0
  0
LINE
  5
489
  8
2
 10
544.2197989645399
 20
924.77742805755031
 30
0.0
 11
567.10926926064462
 21
851.72592711253606
 31
0.0
  0
ARC
  5
48A
  8
2
 10
565.67788929792425
 20
851.27742805755042
 30
0.0
 40
1.5
 50
270.0
 51
17.39751288560613
  0
LINE
  5
48B
  8
2
 10
565.67788929792425
 20
849.77742805755031
 30
0.0
 11
564.71979896453979
 21
849.77742805755031
 31
0.0
  0
LINE
  5
48D
  8
0
 10
602.21979896453979
 20
849.77742805755031
 30
0.0
 11
580.63579040570426
 21
849.77742805755031
 31
0.0
  0
LINE
  5
48E
  8
0
 10
580.2197989645399
 20
798.12225815352986
 30
0.0
 11
580.2197989645399
 21
851.43259796157793
 31
0.0
  0
ARC
  5
48F
  8
0
 10
580.61979896454
 20
850.17742805755029
 30
0.0
 40
0.4
 50
180.0
 51
270.0
  0
ARC
  5
518
  8
0
 10
899.78553804235526
 20
616.77742805755372
 30
0.0
 40
10.0
 50
192.63562509302119
 51
347.36437490697881
  0
ARC
  5
519
  8
0
 10
888.07616679535829
 20
614.15242805755395
 30
0.0
 40
2.0
 50
12.63562509302127
 51
96.110646248871433
  0
ARC
  5
51A
  8
0
 10
911.49490928935234
 20
614.15242805755395
 30
0.0
 40
2.0
 50
83.889353751128553
 51
167.3643749069787
  0
LINE
  5
52A
  8
1
 10
764.78553804235526
 20
504.77742805755389
 30
0.0
 11
1034.7855380423539
 21
504.77742805755389
 31
0.0
  0
LINE
  5
52C
  8
1
 10
899.78553804235526
 20
639.77742805755372
 30
0.0
 11
899.78553804235526
 21
369.77742805755418
 31
0.0
  0
CIRCLE
  5
52D
  8
0
 10
899.78553804235526
 20
504.77742805755389
 30
0.0
 40
3.0
  0
ARC
  5
553
  8
0
 10
580.45593979140403
 20
857.42794928655371
 30
0.0
 40
6.0
 50
198.77803322244651
 51
267.7444386575811
  0
ARC
  5
554
  8
0
 10
580.45593979140403
 20
792.12690682855418
 30
0.0
 40
6.0
 50
92.255561342418915
 51
161.2219667775534
  0
ARC
  5
556
  8
2
 10
564.71979896453979
 20
800.2774280575577
 30
0.0
 40
0.5
 50
180.0
 51
270.0
  0
TEXT
  5
55A
  8
0
 10
902.58553804235521
 20
448.27742805755759
 30
0.0
 40
10.0
  1
‚Q
 50
180.0
 41
0.6
  7
06000
 72
     1
 11
899.78553804235526
 21
443.27742805755759
 31
0.0
 73
     2
  0
TEXT
  5
55B
  8
0
 10
896.75871709057014
 20
448.27883368407902
 30
0.0
 40
10.0
  1
‚T
 50
174.00000000000151
 41
0.6
  7
06000
 72
     1
 11
893.25250908812723
 21
443.61980959704039
 31
0.0
 73
     2
  0
TEXT
  5
55C
  8
0
 10
908.58058598727598
 20
448.88509877103149
 30
0.0
 40
10.0
  1
‚`
 50
186.00000000000171
 41
0.6
  7
06000
 72
     1
 11
906.31856699658317
 21
443.61980959704061
 31
0.0
 73
     2
  0
TEXT
  5
55D
  8
0
 10
914.47927354643048
 20
450.11609374965337
 30
0.0
 40
10.0
  1
‚c
 50
191.9999999999996
 41
0.6
  7
06000
 72
     1
 11
912.78001871846448
 21
444.6432030116946
 31
0.0
 73
     2
  0
TEXT
  5
55E
  8
0
 10
890.37379958224278
 20
448.99337061923751
 30
0.0
 40
10.0
  1
‚O
 50
168.0000000000004
 41
0.6
  7
06000
 72
     1
 11
886.79105736624615
 21
444.6432030116946
 31
0.0
 73
     2
  0
LINE
  5
63F
  8
0
 10
602.21979896453979
 20
849.77742805755031
 30
0.0
 11
604.2197989645399
 21
847.77742805755042
 31
0.0
  0
LINE
  5
641
  8
0
 10
604.2197989645399
 20
801.77742805755759
 30
0.0
 11
602.21979896453979
 21
799.7774280575577
 31
0.0
  0
ARC
  5
646
  8
2
 10
564.71979896453979
 20
849.27742805755042
 30
0.0
 40
0.5
 50
90.0
 51
180.0
  0
CIRCLE
  5
647
  8
0
 10
243.50517923118721
 20
504.77742805755389
 30
0.0
 40
24.49999999999682
  0
CIRCLE
  5
648
  8
0
 10
243.50517923118721
 20
504.77742805755389
 30
0.0
 40
25.0
  0
CIRCLE
  5
649
  8
0
 10
243.50517923118721
 20
504.77742805755389
 30
0.0
 40
100.0
  0
CIRCLE
  5
64A
  8
0
 10
243.50517923118721
 20
504.77742805755389
 30
0.0
 40
101.5
  0
CIRCLE
  5
64B
  8
0
 10
243.50517923118721
 20
504.77742805755389
 30
0.0
 40
124.9999999999998
  0
CIRCLE
  5
654
  8
0
 10
899.78553804235526
 20
504.77742805755389
 30
0.0
 40
25.0
  0
CIRCLE
  5
655
  8
0
 10
899.78553804235526
 20
504.77742805755389
 30
0.0
 40
26.65516990402762
  0
ARC
  5
656
  8
0
 10
899.78553804235526
 20
504.77742805755389
 30
0.0
 40
112.0
 50
96.110646248872115
 51
83.889353751127857
  0
CIRCLE
  5
657
  8
0
 10
899.78553804235526
 20
504.77742805755389
 30
0.0
 40
125.0
  0
LINE
  5
6CF
  8
2
 10
564.71979896453979
 20
849.77742805755031
 30
0.0
 11
564.71979896453979
 21
799.7774280575577
 31
0.0
  0
LINE
  5
6D0
  8
2
 10
567.17788929792437
 20
851.27742805755042
 30
0.0
 11
567.17788929792437
 21
798.2774280575577
 31
0.0
  0
LINE
  5
6D1
  8
2
 10
564.21979896453979
 20
763.01272217520454
 30
0.0
 11
551.63426825755164
 21
725.99645538994469
 31
0.0
  0
LINE
  5
6DB
  8
0
 10
602.21979896453979
 20
799.7774280575577
 30
0.0
 11
602.21979896453979
 21
849.77742805755031
 31
0.0
  0
LINE
  5
6DC
  8
0
 10
543.21979896453979
 20
629.7774280575502
 30
0.0
 11
562.2197989645399
 21
629.7774280575502
 31
0.0
  0
ARC
  5
6DD
  8
0
 10
543.21979896453979
 20
627.77742805755031
 30
0.0
 40
2.0
 50
90.0
 51
180.0
  0
ARC
  5
6DE
  8
0
 10
562.2197989645399
 20
627.77742805755031
 30
0.0
 40
2.0
 50
0.0
 51
90.0
  0
ARC
  5
6DF
  8
0
 10
580.61979896454
 20
479.37742805755749
 30
0.0
 40
0.4
 50
90.0
 51
180.0
  0
LINE
  5
6E0
  8
0
 10
602.21979896453979
 20
479.77742805755747
 30
0.0
 11
580.63579040570426
 21
479.77742805755747
 31
0.0
  0
ARC
  5
6E1
  8
0
 10
562.2197989645399
 20
381.77742805755759
 30
0.0
 40
2.0
 50
270.0
 51
0.0
  0
ARC
  5
6E2
  8
0
 10
543.21979896453979
 20
381.77742805755759
 30
0.0
 40
2.0
 50
180.0
 51
270.0
  0
LINE
  5
6E3
  8
0
 10
543.21979896453979
 20
379.77742805755759
 30
0.0
 11
562.2197989645399
 21
379.77742805755759
 31
0.0
  0
LINE
  5
6E4
  8
0
 10
541.2197989645399
 20
627.77742805755031
 30
0.0
 11
541.2197989645399
 21
381.77742805755759
 31
0.0
  0
LINE
  5
6E5
  8
0
 10
564.21979896453979
 20
627.77742805755031
 30
0.0
 11
564.21979896453979
 21
381.77742805755759
 31
0.0
  0
LINE
  5
6E6
  8
0
 10
604.2197989645399
 20
527.77742805755031
 30
0.0
 11
604.2197989645399
 21
481.77742805755759
 31
0.0
  0
LINE
  5
6E7
  8
1
 10
531.21979896453979
 20
504.77742805755389
 30
0.0
 11
614.21979896453922
 21
504.77742805755389
 31
0.0
  0
LINE
  5
6E8
  8
2
 10
604.21979896454013
 20
501.77742805755622
 30
0.0
 11
587.2197989645399
 21
501.77742805755622
 31
0.0
  0
LINE
  5
6E9
  8
2
 10
604.21979896454013
 20
507.77742805755139
 30
0.0
 11
587.2197989645399
 21
507.77742805755139
 31
0.0
  0
LINE
  5
6EA
  8
2
 10
587.2197989645399
 20
507.77742805755167
 30
0.0
 11
587.2197989645399
 21
501.77742805755622
 31
0.0
  0
LINE
  5
6EB
  8
2
 10
587.2197989645399
 20
507.77742805755139
 30
0.0
 11
585.48774815697243
 21
504.77742805755389
 31
0.0
  0
LINE
  5
6EC
  8
2
 10
587.2197989645399
 20
501.77742805755622
 30
0.0
 11
585.48774815697243
 21
504.77742805755389
 31
0.0
  0
LINE
  5
6ED
  8
2
 10
561.10199570574878
 20
392.77742805755759
 30
0.0
 11
562.2197989645399
 21
392.77742805755759
 31
0.0
  0
LINE
  5
6EE
  8
2
 10
542.7197989645399
 20
404.77742805755747
 30
0.0
 11
544.2197989645399
 21
404.77742805755747
 31
0.0
  0
LINE
  5
6EF
  8
2
 10
541.2197989645399
 20
403.27742805755747
 30
0.0
 11
542.7197989645399
 21
404.77742805755747
 31
0.0
  0
LINE
  5
6F0
  8
2
 10
544.2197989645399
 20
604.7774280575502
 30
0.0
 11
544.2197989645399
 21
404.77742805755747
 31
0.0
  0
LINE
  5
6F1
  8
2
 10
542.7197989645399
 20
604.7774280575502
 30
0.0
 11
542.7197989645399
 21
404.77742805755747
 31
0.0
  0
LINE
  5
6F2
  8
2
 10
544.2197989645399
 20
404.77742805755747
 30
0.0
 11
567.10926926064462
 21
477.8289290025719
 31
0.0
  0
LINE
  5
6F3
  8
0
 10
574.77530332248568
 20
474.05832322798619
 30
0.0
 11
564.21979896453979
 21
443.0127221752042
 31
0.0
  0
ARC
  5
6F4
  8
2
 10
561.10199570574878
 20
402.77742805755759
 30
0.0
 40
10.0
 50
161.2219667775534
 51
270.0
  0
ARC
  5
6F5
  8
2
 10
562.2197989645399
 20
390.77742805755759
 30
0.0
 40
2.0
 50
0.0
 51
90.0
  0
LINE
  5
6F6
  8
2
 10
565.67788929792425
 20
479.77742805755747
 30
0.0
 11
564.71979896453979
 21
479.77742805755747
 31
0.0
  0
ARC
  5
6F7
  8
2
 10
565.67788929792425
 20
478.27742805755747
 30
0.0
 40
1.5
 50
342.60248711439391
 51
90.0
  0
LINE
  5
6F8
  8
2
 10
541.2197989645399
 20
606.27742805755031
 30
0.0
 11
542.7197989645399
 21
604.7774280575502
 31
0.0
  0
LINE
  5
6F9
  8
2
 10
542.7197989645399
 20
604.7774280575502
 30
0.0
 11
544.2197989645399
 21
604.7774280575502
 31
0.0
  0
LINE
  5
6FA
  8
0
 10
574.77530332248568
 20
535.49653288712125
 30
0.0
 11
564.21979896453979
 21
566.54213393990335
 31
0.0
  0
LINE
  5
6FB
  8
2
 10
544.2197989645399
 20
604.7774280575502
 30
0.0
 11
567.10926926064462
 21
531.72592711253594
 31
0.0
  0
ARC
  5
6FC
  8
2
 10
565.67788929792425
 20
531.27742805755031
 30
0.0
 40
1.5
 50
270.0
 51
17.39751288560613
  0
LINE
  5
6FD
  8
2
 10
565.67788929792425
 20
529.7774280575502
 30
0.0
 11
564.71979896453979
 21
529.7774280575502
 31
0.0
  0
LINE
  5
6FE
  8
0
 10
602.21979896453979
 20
529.7774280575502
 30
0.0
 11
580.63579040570426
 21
529.7774280575502
 31
0.0
  0
LINE
  5
6FF
  8
0
 10
580.2197989645399
 20
478.12225815352969
 30
0.0
 11
580.2197989645399
 21
531.43259796157793
 31
0.0
  0
ARC
  5
700
  8
0
 10
580.61979896454
 20
530.17742805755006
 30
0.0
 40
0.4
 50
180.0
 51
270.0
  0
LINE
  5
701
  8
2
 10
562.2197989645399
 20
606.77742805755304
 30
0.0
 11
557.52089733514345
 21
606.77742805755304
 31
0.0
  0
ARC
  5
702
  8
2
 10
557.52089733514345
 20
601.77742805755304
 30
0.0
 40
5.0
 50
90.0
 51
198.77803322244651
  0
ARC
  5
703
  8
2
 10
562.2197989645399
 20
608.77742805755304
 30
0.0
 40
2.0
 50
270.0
 51
0.0
  0
ARC
  5
704
  8
0
 10
580.45593979140403
 20
537.4279492865536
 30
0.0
 40
6.0
 50
198.77803322244651
 51
267.74443865758121
  0
ARC
  5
705
  8
0
 10
580.45593979140403
 20
472.12690682855413
 30
0.0
 40
6.0
 50
92.255561342418787
 51
161.2219667775534
  0
ARC
  5
706
  8
2
 10
564.71979896453979
 20
480.27742805755747
 30
0.0
 40
0.5
 50
180.0
 51
270.0
  0
LINE
  5
707
  8
0
 10
602.21979896453979
 20
529.7774280575502
 30
0.0
 11
604.2197989645399
 21
527.77742805755031
 31
0.0
  0
LINE
  5
708
  8
0
 10
604.2197989645399
 20
481.77742805755759
 30
0.0
 11
602.21979896453979
 21
479.77742805755747
 31
0.0
  0
ARC
  5
709
  8
2
 10
564.71979896453979
 20
529.2774280575502
 30
0.0
 40
0.5
 50
90.0
 51
180.0
  0
LINE
  5
70A
  8
2
 10
564.71979896453979
 20
529.7774280575502
 30
0.0
 11
564.71979896453979
 21
479.77742805755747
 31
0.0
  0
LINE
  5
70B
  8
2
 10
567.17788929792437
 20
531.27742805755031
 30
0.0
 11
567.17788929792437
 21
478.27742805755747
 31
0.0
  0
LINE
  5
70C
  8
2
 10
564.21979896453979
 20
443.01272217520432
 30
0.0
 11
551.63426825755164
 21
405.99645538994457
 31
0.0
  0
LINE
  5
70D
  8
2
 10
564.21979896453979
 20
566.54213393990256
 30
0.0
 11
552.78703361104465
 21
600.16791439135955
 31
0.0
  0
LINE
  5
70E
  8
0
 10
602.21979896453979
 20
479.77742805755747
 30
0.0
 11
602.21979896453979
 21
529.7774280575502
 31
0.0
  0
LINE
  5
70F
  8
2
 10
561.10199570574878
 20
936.77742805755042
 30
0.0
 11
562.2197989645399
 21
936.77742805755042
 31
0.0
  0
ARC
  5
710
  8
2
 10
561.10199570574878
 20
926.77742805755054
 30
0.0
 40
10.0
 50
90.0
 51
198.7780332224568
  0
ARC
  5
711
  8
2
 10
562.2197989645399
 20
938.77742805755042
 30
0.0
 40
2.0
 50
270.0
 51
0.0
  0
LINE
  5
712
  8
2
 10
564.21979896453979
 20
886.54213393990358
 30
0.0
 11
551.63426825755164
 21
923.55840072516355
 31
0.0
  0
LINE
  5
71B
  8
0
 10
543.21979896453979
 20
309.77742805755042
 30
0.0
 11
562.2197989645399
 21
309.77742805755042
 31
0.0
  0
ARC
  5
71C
  8
0
 10
543.21979896453979
 20
307.77742805755042
 30
0.0
 40
2.0
 50
90.0
 51
180.0
  0
ARC
  5
71D
  8
0
 10
562.2197989645399
 20
307.77742805755042
 30
0.0
 40
2.0
 50
0.0
 51
90.0
  0
ARC
  5
71E
  8
0
 10
580.61979896454
 20
159.37742805755761
 30
0.0
 40
0.4
 50
90.0
 51
180.0
  0
LINE
  5
71F
  8
0
 10
602.21979896453979
 20
159.7774280575577
 30
0.0
 11
580.63579040570426
 21
159.7774280575577
 31
0.0
  0
ARC
  5
720
  8
0
 10
562.2197989645399
 20
61.777428057557692
 30
0.0
 40
2.0
 50
270.0
 51
0.0
  0
ARC
  5
721
  8
0
 10
543.21979896453979
 20
61.777428057557692
 30
0.0
 40
2.0
 50
180.0
 51
270.0
  0
LINE
  5
722
  8
0
 10
543.21979896453979
 20
59.7774280575577
 30
0.0
 11
562.2197989645399
 21
59.7774280575577
 31
0.0
  0
LINE
  5
723
  8
0
 10
541.2197989645399
 20
307.77742805755042
 30
0.0
 11
541.2197989645399
 21
61.777428057557692
 31
0.0
  0
LINE
  5
724
  8
0
 10
564.21979896453979
 20
307.77742805755042
 30
0.0
 11
564.21979896453979
 21
61.777428057557692
 31
0.0
  0
LINE
  5
725
  8
0
 10
604.2197989645399
 20
207.7774280575504
 30
0.0
 11
604.2197989645399
 21
161.7774280575577
 31
0.0
  0
LINE
  5
726
  8
1
 10
531.21979896453979
 20
184.777428057554
 30
0.0
 11
614.21979896453922
 21
184.777428057554
 31
0.0
  0
LINE
  5
727
  8
2
 10
604.21979896454013
 20
181.77742805755631
 30
0.0
 11
587.2197989645399
 21
181.77742805755631
 31
0.0
  0
LINE
  5
728
  8
2
 10
604.21979896454013
 20
187.7774280575515
 30
0.0
 11
587.2197989645399
 21
187.7774280575515
 31
0.0
  0
LINE
  5
729
  8
2
 10
587.2197989645399
 20
187.77742805755179
 30
0.0
 11
587.2197989645399
 21
181.77742805755631
 31
0.0
  0
LINE
  5
72A
  8
2
 10
587.2197989645399
 20
187.7774280575515
 30
0.0
 11
585.48774815697243
 21
184.777428057554
 31
0.0
  0
LINE
  5
72B
  8
2
 10
587.2197989645399
 20
181.77742805755631
 30
0.0
 11
585.48774815697243
 21
184.777428057554
 31
0.0
  0
LINE
  5
72C
  8
2
 10
561.10199570574878
 20
72.7774280575577
 30
0.0
 11
562.2197989645399
 21
72.7774280575577
 31
0.0
  0
LINE
  5
72D
  8
2
 10
542.7197989645399
 20
84.7774280575577
 30
0.0
 11
544.2197989645399
 21
84.7774280575577
 31
0.0
  0
LINE
  5
72E
  8
2
 10
541.2197989645399
 20
83.2774280575577
 30
0.0
 11
542.7197989645399
 21
84.7774280575577
 31
0.0
  0
LINE
  5
72F
  8
2
 10
544.2197989645399
 20
284.77742805755042
 30
0.0
 11
544.2197989645399
 21
84.7774280575577
 31
0.0
  0
LINE
  5
730
  8
2
 10
542.7197989645399
 20
284.77742805755042
 30
0.0
 11
542.7197989645399
 21
84.7774280575577
 31
0.0
  0
LINE
  5
731
  8
2
 10
544.2197989645399
 20
84.7774280575577
 30
0.0
 11
567.10926926064462
 21
157.82892900257201
 31
0.0
  0
LINE
  5
732
  8
0
 10
574.77530332248568
 20
154.05832322798639
 30
0.0
 11
564.21979896453979
 21
123.0127221752043
 31
0.0
  0
ARC
  5
733
  8
2
 10
561.10199570574878
 20
82.777428057557685
 30
0.0
 40
10.0
 50
161.2219667775521
 51
270.0
  0
ARC
  5
734
  8
2
 10
562.2197989645399
 20
70.7774280575577
 30
0.0
 40
2.0
 50
0.0
 51
90.0
  0
LINE
  5
735
  8
2
 10
565.67788929792425
 20
159.7774280575577
 30
0.0
 11
564.71979896453979
 21
159.7774280575577
 31
0.0
  0
ARC
  5
736
  8
2
 10
565.67788929792425
 20
158.2774280575577
 30
0.0
 40
1.5
 50
342.60248711439209
 51
90.0
  0
LINE
  5
737
  8
2
 10
541.2197989645399
 20
286.27742805755042
 30
0.0
 11
542.7197989645399
 21
284.77742805755042
 31
0.0
  0
LINE
  5
738
  8
2
 10
542.7197989645399
 20
284.77742805755042
 30
0.0
 11
544.2197989645399
 21
284.77742805755042
 31
0.0
  0
LINE
  5
739
  8
0
 10
574.77530332248568
 20
215.4965328871215
 30
0.0
 11
564.21979896453979
 21
246.54213393990361
 31
0.0
  0
LINE
  5
73A
  8
2
 10
544.2197989645399
 20
284.77742805755042
 30
0.0
 11
567.10926926064462
 21
211.72592711253611
 31
0.0
  0
ARC
  5
73B
  8
2
 10
565.67788929792425
 20
211.2774280575504
 30
0.0
 40
1.5
 50
270.0
 51
17.39751288560786
  0
LINE
  5
73C
  8
2
 10
565.67788929792425
 20
209.7774280575504
 30
0.0
 11
564.71979896453979
 21
209.7774280575504
 31
0.0
  0
LINE
  5
73D
  8
0
 10
602.21979896453979
 20
209.7774280575504
 30
0.0
 11
580.63579040570426
 21
209.7774280575504
 31
0.0
  0
LINE
  5
73E
  8
0
 10
580.2197989645399
 20
158.1222581535298
 30
0.0
 11
580.2197989645399
 21
211.43259796157801
 31
0.0
  0
ARC
  5
73F
  8
0
 10
580.61979896454
 20
210.17742805755029
 30
0.0
 40
0.4
 50
180.0
 51
270.0
  0
ARC
  5
740
  8
0
 10
580.45593979140403
 20
217.42794928655371
 30
0.0
 40
6.0
 50
198.7780332224479
 51
267.74443865758121
  0
ARC
  5
741
  8
0
 10
580.45593979140403
 20
152.12690682855421
 30
0.0
 40
6.0
 50
92.255561342418815
 51
161.2219667775521
  0
ARC
  5
742
  8
2
 10
564.71979896453979
 20
160.2774280575577
 30
0.0
 40
0.5
 50
180.0
 51
270.0
  0
LINE
  5
743
  8
0
 10
602.21979896453979
 20
209.7774280575504
 30
0.0
 11
604.2197989645399
 21
207.7774280575504
 31
0.0
  0
LINE
  5
744
  8
0
 10
604.2197989645399
 20
161.7774280575577
 30
0.0
 11
602.21979896453979
 21
159.7774280575577
 31
0.0
  0
ARC
  5
745
  8
2
 10
564.71979896453979
 20
209.2774280575504
 30
0.0
 40
0.5
 50
90.0
 51
180.0
  0
LINE
  5
746
  8
2
 10
564.71979896453979
 20
209.7774280575504
 30
0.0
 11
564.71979896453979
 21
159.7774280575577
 31
0.0
  0
LINE
  5
747
  8
2
 10
567.17788929792437
 20
211.2774280575504
 30
0.0
 11
567.17788929792437
 21
158.2774280575577
 31
0.0
  0
LINE
  5
748
  8
2
 10
564.21979896453979
 20
123.0127221752045
 30
0.0
 11
551.63426825755164
 21
85.996455389944686
 31
0.0
  0
LINE
  5
749
  8
0
 10
602.21979896453979
 20
159.7774280575577
 30
0.0
 11
602.21979896453979
 21
209.7774280575504
 31
0.0
  0
LINE
  5
74A
  8
2
 10
561.10199570574878
 20
296.77742805755042
 30
0.0
 11
562.2197989645399
 21
296.77742805755042
 31
0.0
  0
ARC
  5
74B
  8
2
 10
561.10199570574878
 20
286.77742805755042
 30
0.0
 40
10.0
 50
90.0
 51
198.77803322245509
  0
ARC
  5
74C
  8
2
 10
562.2197989645399
 20
298.77742805755042
 30
0.0
 40
2.0
 50
270.0
 51
0.0
  0
LINE
  5
74D
  8
2
 10
564.21979896453979
 20
246.54213393990361
 30
0.0
 11
551.63426825755164
 21
283.55840072516338
 31
0.0
  0
TEXT
  5
849
  8
0
 62
     3
 10
0.0
 20
0.0
 30
0.0
 40
10.0
  1
NDA250
  7
STANDARD1
  0
ENDSEC
  0
EOF
