  0
SECTION
  2
HEADER
  9
$ACADVER
  1
AC1009
  9
$INSBASE
 10
0.0
 20
0.0
 30
0.0
  9
$EXTMIN
 10
0.0
 20
-2.960436562073669
 30
0.0
  9
$EXTMAX
 10
623.10829226032115
 20
450.28795678546908
 30
0.0
  9
$LIMMIN
 10
0.0
 20
0.0
  9
$LIMMAX
 10
750.0
 20
540.0
  9
$ORTHOMODE
 70
     1
  9
$REGENMODE
 70
     1
  9
$FILLMODE
 70
     1
  9
$QTEXTMODE
 70
     0
  9
$MIRRTEXT
 70
     0
  9
$DRAGMODE
 70
     2
  9
$LTSCALE
 40
20.0
  9
$OSMODE
 70
  3071
  9
$ATTMODE
 70
     1
  9
$TEXTSIZE
 40
3.0
  9
$TRACEWID
 40
0.05
  9
$TEXTSTYLE
  7
SIM080
  9
$CLAYER
  8
0
  9
$CELTYPE
  6
BYLAYER
  9
$CECOLOR
 62
   256
  9
$DIMSCALE
 40
2.0
  9
$DIMASZ
 40
3.0
  9
$DIMEXO
 40
2.0
  9
$DIMDLI
 40
0.3799999999999999
  9
$DIMRND
 40
0.0
  9
$DIMDLE
 40
0.0
  9
$DIMEXE
 40
2.0
  9
$DIMTP
 40
0.0
  9
$DIMTM
 40
0.0
  9
$DIMTXT
 40
3.2000000000000002
  9
$DIMCEN
 40
0.09
  9
$DIMTSZ
 40
0.0
  9
$DIMTOL
 70
     0
  9
$DIMLIM
 70
     0
  9
$DIMTIH
 70
     0
  9
$DIMTOH
 70
     0
  9
$DIMSE1
 70
     0
  9
$DIMSE2
 70
     0
  9
$DIMTAD
 70
     1
  9
$DIMZIN
 70
     0
  9
$DIMBLK
  1

  9
$DIMASO
 70
     1
  9
$DIMSHO
 70
     0
  9
$DIMPOST
  1

  9
$DIMAPOST
  1

  9
$DIMALT
 70
     0
  9
$DIMALTD
 70
     2
  9
$DIMALTF
 40
25.399999999999999
  9
$DIMLFAC
 40
1.0
  9
$DIMTOFL
 70
     0
  9
$DIMTVP
 40
1.6000000000000001
  9
$DIMTIX
 70
     1
  9
$DIMSOXD
 70
     0
  9
$DIMSAH
 70
     0
  9
$DIMBLK1
  1

  9
$DIMBLK2
  1

  9
$DIMSTYLE
  2
STANDARD
  9
$DIMCLRD
 70
     0
  9
$DIMCLRE
 70
     0
  9
$DIMCLRT
 70
     0
  9
$DIMTFAC
 40
1.0
  9
$DIMGAP
 40
0.09
  9
$LUNITS
 70
     2
  9
$LUPREC
 70
     4
  9
$SKETCHINC
 40
0.1
  9
$FILLETRAD
 40
0.0
  9
$AUNITS
 70
     0
  9
$AUPREC
 70
     0
  9
$MENU
  1
E:\r13\win\SUPPORT\ACAD
  9
$ELEVATION
 40
0.0
  9
$PELEVATION
 40
0.0
  9
$THICKNESS
 40
0.0
  9
$LIMCHECK
 70
     0
  9
$BLIPMODE
 70
     0
  9
$CHAMFERA
 40
0.0
  9
$CHAMFERB
 40
0.0
  9
$SKPOLY
 70
     0
  9
$TDCREATE
 40
2449840.5987962969
  9
$TDUPDATE
 40
2456597.6876740512
  9
$TDINDWG
 40
0.0170484259
  9
$TDUSRTIMER
 40
0.0170484259
  9
$USRTIMER
 70
     1
  9
$ANGBASE
 50
0.0
  9
$ANGDIR
 70
     0
  9
$PDMODE
 70
     0
  9
$PDSIZE
 40
0.0
  9
$PLINEWID
 40
0.0
  9
$COORDS
 70
     1
  9
$SPLFRAME
 70
     0
  9
$SPLINETYPE
 70
     6
  9
$SPLINESEGS
 70
     8
  9
$ATTDIA
 70
     0
  9
$ATTREQ
 70
     1
  9
$HANDLING
 70
     1
  9
$HANDSEED
  5
841
  9
$SURFTAB1
 70
     6
  9
$SURFTAB2
 70
     6
  9
$SURFTYPE
 70
     6
  9
$SURFU
 70
     6
  9
$SURFV
 70
     6
  9
$UCSNAME
  2

  9
$UCSORG
 10
0.0
 20
0.0
 30
0.0
  9
$UCSXDIR
 10
1.0
 20
0.0
 30
0.0
  9
$UCSYDIR
 10
0.0
 20
1.0
 30
0.0
  9
$PUCSNAME
  2

  9
$PUCSORG
 10
0.0
 20
0.0
 30
0.0
  9
$PUCSXDIR
 10
1.0
 20
0.0
 30
0.0
  9
$PUCSYDIR
 10
0.0
 20
1.0
 30
0.0
  9
$USERI1
 70
     0
  9
$USERI2
 70
     1
  9
$USERI3
 70
     1
  9
$USERI4
 70
     0
  9
$USERI5
 70
     0
  9
$USERR1
 40
0.0
  9
$USERR2
 40
0.0
  9
$USERR3
 40
0.0
  9
$USERR4
 40
0.0
  9
$USERR5
 40
0.0
  9
$WORLDVIEW
 70
     1
  9
$SHADEDGE
 70
     3
  9
$SHADEDIF
 70
    70
  9
$TILEMODE
 70
     1
  9
$MAXACTVP
 70
    16
  9
$PLIMCHECK
 70
     0
  9
$PEXTMIN
 10
1.0000000000000000E+020
 20
1.0000000000000000E+020
 30
1.0000000000000000E+020
  9
$PEXTMAX
 10
-1.0000000000000000E+020
 20
-1.0000000000000000E+020
 30
-1.0000000000000000E+020
  9
$PLIMMIN
 10
0.0
 20
0.0
  9
$PLIMMAX
 10
12.0
 20
9.0
  9
$UNITMODE
 70
     0
  9
$VISRETAIN
 70
     0
  9
$PLINEGEN
 70
     0
  9
$PSLTSCALE
 70
     0
  0
ENDSEC
  0
SECTION
  2
TABLES
  0
TABLE
  2
VPORT
 70
     1
  0
VPORT
  2
*ACTIVE
 70
     0
 10
0.0
 20
0.0
 11
1.0
 21
1.0
 12
374.98855678130462
 22
269.68405869568772
 13
0.0
 23
0.0
 14
20.0
 24
20.0
 15
20.0
 25
20.0
 16
0.0
 26
0.0
 36
1.0
 17
0.0
 27
0.0
 37
0.0
 40
551.57487251346481
 41
2.304913294797688
 42
50.0
 43
0.0
 44
0.0
 50
0.0
 51
0.0
 71
     0
 72
   500
 73
     1
 74
     0
 75
     0
 76
     0
 77
     0
 78
     0
  0
ENDTAB
  0
TABLE
  2
LTYPE
 70
     4
  0
LTYPE
  2
CONTINUOUS
 70
     0
  3
Solid Line
 72
    65
 73
     0
 40
0.0
  0
LTYPE
  2
CENTER
 70
     0
  3
____ _ ____ _ ____ _ ____ _ ____ _ ____ _ ____
 72
    65
 73
     4
 40
2.0
 49
1.25
 49
-0.25
 49
0.25
 49
-0.25
  0
LTYPE
  2
HIDDEN
 70
     0
  3
_ _ _ _ _ _ _ _ _ _ _ _ _ _ _ _ _ _ _ _ _ _ _
 72
    65
 73
     2
 40
0.375
 49
0.25
 49
-0.125
  0
LTYPE
  2
PHANTOM2
 70
     0
  3
___ _ _ ___ _ _ ___ _ _ ___ _ _
 72
    65
 73
     6
 40
1.25
 49
0.625
 49
-0.125
 49
0.125
 49
-0.125
 49
0.125
 49
-0.125
  0
ENDTAB
  0
TABLE
  2
LAYER
 70
     4
  0
LAYER
  2
0
 70
     0
 62
     7
  6
CONTINUOUS
  0
LAYER
  2
1
 70
     0
 62
     1
  6
CENTER
  0
LAYER
  2
2
 70
     0
 62
     2
  6
HIDDEN
  0
LAYER
  2
DEFPOINTS
 70
     0
 62
     7
  6
CONTINUOUS
  0
ENDTAB
  0
TABLE
  2
STYLE
 70
     4
  0
STYLE
  2
STANDARD
 70
     0
 40
0.0
 41
1.0
 50
0.0
 71
     0
 42
0.2
  3
romans.shx
  4

  0
STYLE
  2
SIM080
 70
     0
 40
0.0
 41
1.0
 50
0.0
 71
     0
 42
3.0
  3
romans.shx
  4

  0
STYLE
  2
06000
 70
     0
 40
0.0
 41
0.6
 50
0.0
 71
     0
 42
3.0
  3
simplex.shx
  4
bigfont.shx
  0
STYLE
  2
STANDARD1
 70
     0
 40
0.0
 41
1.0
 50
0.0
 71
     0
 42
3.0
  3
txt
  4

  0
ENDTAB
  0
TABLE
  2
VIEW
 70
     1
  0
VIEW
  2
ALL
 70
     0
 40
540.0
 10
441.98319327731087
 20
270.0
 41
0.0
 11
0.0
 21
0.0
 31
1.0
 12
0.0
 22
0.0
 32
0.0
 42
0.0
 43
0.0
 44
0.0
 50
0.0
 71
     0
  0
ENDTAB
  0
TABLE
  2
UCS
 70
     0
  0
ENDTAB
  0
TABLE
  2
APPID
 70
     3
  0
APPID
  2
ACAD
 70
     0
  0
APPID
  2
ACAD_MLEADERVER
 70
     0
  0
APPID
  2
ACAD_NAV_VCDISPLAY
 70
     0
  0
ENDTAB
  0
TABLE
  2
DIMSTYLE
 70
     1
  0
DIMSTYLE
  2
STANDARD
 70
     0
  3

  4

  5

  6

  7

 40
1.0
 41
0.18
 42
0.0625
 43
0.38
 44
0.18
 45
0.0
 46
0.0
 47
0.0
 48
0.0
140
0.18
141
0.09
142
0.0
143
25.399999999999999
144
1.0
145
0.0
146
1.0
147
0.09
 71
     0
 72
     0
 73
     1
 74
     1
 75
     0
 76
     0
 77
     0
 78
     0
170
     0
171
     2
172
     0
173
     0
174
     0
175
     0
176
     0
177
     0
178
     0
  0
ENDTAB
  0
ENDSEC
  0
SECTION
  2
BLOCKS
  0
BLOCK
  8
0
  2
$MODEL_SPACE
 70
     0
 10
0.0
 20
0.0
 30
0.0
  3
$MODEL_SPACE
  1

  0
ENDBLK
  5
125
  8
0
  0
BLOCK
 67
     1
  8
0
  2
$PAPER_SPACE
 70
     0
 10
0.0
 20
0.0
 30
0.0
  3
$PAPER_SPACE
  1

  0
ENDBLK
  5
123
 67
     1
  8
0
  0
ENDSEC
  0
SECTION
  2
ENTITIES
  0
CIRCLE
  5
4C2
  8
0
 10
172.23283800024319
 20
270.28795678546908
 30
0.0
 40
40.0
  0
LINE
  5
4C3
  8
1
 10
172.23283800024331
 20
220.28795678546911
 30
0.0
 11
172.23283800024311
 21
320.28795678546908
 31
0.0
  0
LINE
  5
4C4
  8
1
 10
222.23283800024319
 20
270.28795678546908
 30
0.0
 11
122.23283800024321
 21
270.28795678546908
 31
0.0
  0
CIRCLE
  5
4C5
  8
0
 10
172.23283800024319
 20
270.28795678546908
 30
0.0
 40
24.0
  0
CIRCLE
  5
4C6
  8
0
 10
172.23283800024319
 20
270.28795678546908
 30
0.0
 40
25.0
  0
CIRCLE
  5
4C7
  8
0
 10
172.23283800024319
 20
270.28795678546908
 30
0.0
 40
13.0
  0
LINE
  5
4C8
  8
1
 10
344.7153882611459
 20
410.28795678546902
 30
0.0
 11
397.2153882611459
 21
410.28795678546908
 31
0.0
  0
LINE
  5
4C9
  8
0
 10
356.2153882611459
 20
370.28795678546908
 30
0.0
 11
366.2153882611459
 21
370.28795678546908
 31
0.0
  0
LINE
  5
4CB
  8
0
 10
366.2153882611459
 20
450.28795678546908
 30
0.0
 11
356.2153882611459
 21
450.28795678546908
 31
0.0
  0
LINE
  5
4CC
  8
0
 10
354.7153882611459
 20
448.78795678546908
 30
0.0
 11
354.7153882611459
 21
371.78795678546908
 31
0.0
  0
ARC
  5
4CD
  8
0
 10
356.2153882611459
 20
448.78795678546908
 30
0.0
 40
1.5
 50
90.0
 51
180.0
  0
ARC
  5
4CE
  8
0
 10
356.2153882611459
 20
371.78795678546908
 30
0.0
 40
1.5
 50
180.0
 51
270.0
  0
ARC
  5
4CF
  8
0
 10
366.2153882611459
 20
371.78795678546908
 30
0.0
 40
1.5
 50
270.0
 51
0.0
  0
ARC
  5
4D0
  8
0
 10
366.2153882611459
 20
448.78795678546908
 30
0.0
 40
1.5
 50
0.0
 51
90.0
  0
LINE
  5
4D2
  8
0
 10
387.2153882611459
 20
398.26211365639091
 30
0.0
 11
387.2153882611459
 21
422.31379991454747
 31
0.0
  0
LINE
  5
4D3
  8
0
 10
373.75906508666549
 20
396.10132308774422
 30
0.0
 11
367.7153882611459
 21
391.17684567435811
 31
0.0
  0
LINE
  5
4D4
  8
1
 10
523.10829226032115
 20
270.28795678546879
 30
0.0
 11
623.10829226032115
 21
270.28795678546879
 31
0.0
  0
LINE
  5
4D5
  8
1
 10
573.10829226032115
 20
220.28795678546879
 30
0.0
 11
573.10829226032115
 21
320.28795678546879
 31
0.0
  0
CIRCLE
  5
4D6
  8
0
 10
573.10829226032115
 20
270.28795678546879
 30
0.0
 40
40.0
  0
CIRCLE
  5
4D7
  8
0
 10
172.23283800024319
 20
270.28795678546908
 30
0.0
 40
12.5
  0
LINE
  5
4D8
  8
2
 10
387.21538826114579
 20
407.28795678546908
 30
0.0
 11
378.2153882611459
 21
407.28795678546908
 31
0.0
  0
LINE
  5
4DA
  8
2
 10
387.2153882611459
 20
413.28795678546908
 30
0.0
 11
378.21538826114602
 21
413.28795678546908
 31
0.0
  0
LINE
  5
4DB
  8
2
 10
378.2153882611459
 20
407.28795678546908
 30
0.0
 11
378.2153882611459
 21
413.28795678546891
 31
0.0
  0
LINE
  5
4DC
  8
2
 10
378.2153882611459
 20
407.28795678546908
 30
0.0
 11
376.48333745357712
 21
410.28795678546902
 31
0.0
  0
LINE
  5
4DD
  8
2
 10
378.2153882611459
 20
413.28795678546902
 30
0.0
 11
376.48333745357712
 21
410.28795678546902
 31
0.0
  0
LINE
  5
4DE
  8
2
 10
355.71538826114579
 20
386.28795678546908
 30
0.0
 11
356.7153882611459
 21
386.28795678546908
 31
0.0
  0
LINE
  5
4DF
  8
2
 10
365.2153882611459
 20
397.78793633026322
 30
0.0
 11
365.2153882611459
 21
422.7879772406751
 31
0.0
  0
LINE
  5
4E0
  8
2
 10
354.71538826114579
 20
385.28795678546908
 30
0.0
 11
355.71538826114579
 21
386.28795678546908
 31
0.0
  0
LINE
  5
4E1
  8
2
 10
356.7153882611459
 20
434.28795678546908
 30
0.0
 11
356.7153882611459
 21
386.28795678546908
 31
0.0
  0
LINE
  5
4E2
  8
2
 10
356.7153882611459
 20
386.28795678546908
 30
0.0
 11
366.41444450140068
 21
395.56531492832153
 31
0.0
  0
ARC
  5
4E3
  8
2
 10
368.66635224431337
 20
384.21211643074571
 30
0.0
 40
6.0
 50
129.17365797044641
 51
250.92562796899421
  0
ARC
  5
4E4
  8
2
 10
366.2153882611459
 20
377.12390258287041
 30
0.0
 40
1.5
 50
0.0
 51
70.92562796899422
  0
LINE
  5
4E5
  8
2
 10
355.71538826114579
 20
386.28795678546908
 30
0.0
 11
355.71538826114579
 21
434.28795678546908
 31
0.0
  0
LINE
  5
4E6
  8
0
 10
367.71538826114579
 20
371.78795678546908
 30
0.0
 11
367.7153882611459
 21
448.78795678546908
 31
0.0
  0
LINE
  5
4E7
  8
0
 10
376.18104909808278
 20
423.57690112536091
 30
0.0
 11
386.24156520945371
 21
423.3134572395229
 31
0.0
  0
LINE
  5
4E9
  8
2
 10
354.71538826114579
 20
435.28795678546908
 30
0.0
 11
355.71538826114579
 21
434.28795678546908
 31
0.0
  0
LINE
  5
4EA
  8
2
 10
355.71538826114579
 20
434.28795678546908
 30
0.0
 11
356.7153882611459
 21
434.28795678546908
 31
0.0
  0
LINE
  5
4EB
  8
2
 10
356.7153882611459
 20
434.28795678546908
 30
0.0
 11
366.41444450140068
 21
425.01059864261663
 31
0.0
  0
LINE
  5
4EC
  8
0
 10
373.75906508666537
 20
424.47459048319388
 30
0.0
 11
367.71538826114607
 21
429.39906789657999
 31
0.0
  0
CIRCLE
  5
4ED
  8
0
 10
573.10829226032115
 20
270.28795678546879
 30
0.0
 40
3.0
  0
CIRCLE
  5
4EE
  8
0
 10
573.10829226032115
 20
270.28795678546879
 30
0.0
 40
13.0
  0
ARC
  5
4EF
  8
0
 10
573.10829226032115
 20
270.28795678546879
 30
0.0
 40
32.0
 50
104.3615115629144
 51
75.638488847182543
  0
ARC
  5
4F0
  8
0
 10
580.5494678226903
 20
299.35045678546891
 30
0.0
 40
2.0
 50
75.638488437085556
 51
158.45773265562511
  0
ARC
  5
4F1
  8
0
 10
565.667116697952
 20
299.35045678546891
 30
0.0
 40
2.0
 50
21.54226734437486
 51
104.3615115629144
  0
ARC
  5
4F2
  8
0
 10
573.10829226032115
 20
302.28795678546908
 30
0.0
 40
6.0
 50
201.54226734437489
 51
338.45773265562508
  0
ARC
  5
569
  8
2
 10
365.72322185543328
 20
396.28795678546908
 30
0.0
 40
1.0
 50
313.72696997994609
 51
90.299222620870964
  0
ARC
  5
56A
  8
2
 10
365.72322185543328
 20
424.28795678546908
 30
0.0
 40
1.0
 50
269.70077737912902
 51
46.273030020053852
  0
ARC
  5
59B
  8
0
 10
376.28575689131418
 20
427.57553042526308
 30
0.0
 40
4.0
 50
230.8263420295535
 51
268.50000000000381
  0
ARC
  5
59C
  8
0
 10
376.28575689131418
 20
393.00038314567507
 30
0.0
 40
4.0
 50
91.499999999996177
 51
129.17365797044641
  0
LINE
  5
59D
  8
0
 10
376.18104909808278
 20
396.99901244557742
 30
0.0
 11
386.24156520945382
 21
397.26245633141531
 31
0.0
  0
ARC
  5
59E
  8
0
 10
386.2153882611459
 20
422.31379991454747
 30
0.0
 40
1.0
 50
0.0
 51
88.499999999997272
  0
ARC
  5
59F
  8
0
 10
386.2153882611459
 20
398.26211365639091
 30
0.0
 40
1.0
 50
271.49999999999619
 51
0.0
  0
ARC
  5
5A9
  8
2
 10
365.7153882611459
 20
422.78797724067499
 30
0.0
 40
0.5
 50
89.70077737912905
 51
179.9999999999967
  0
ARC
  5
5AA
  8
2
 10
365.7153882611459
 20
397.78793633026322
 30
0.0
 40
0.5
 50
180.0
 51
270.29922262087092
  0
TEXT
  5
5B4
  8
0
 10
579.09256356641754
 20
255.3833099619097
 30
0.0
 40
5.0
  1
‚c
 50
196.8749999999996
 41
0.6
  7
06000
 72
     1
 11
578.47855878952862
 21
252.58456057442299
 31
0.0
 73
     2
  0
TEXT
  5
5B5
  8
0
 10
576.06982512293496
 20
254.50222515517501
 30
0.0
 40
5.0
  1
‚`
 50
185.6249999999994
 41
0.6
  7
06000
 72
     1
 11
574.92160935641789
 21
251.87703934203321
 31
0.0
 73
     2
  0
TEXT
  5
5B6
  8
0
 10
572.93327663238927
 20
254.22777716225229
 30
0.0
 40
5.0
  1
‚W
 50
174.3750000000002
 41
0.6
  7
06000
 72
     1
 11
571.29497516422441
 21
251.87703934203321
 31
0.0
 73
     2
  0
TEXT
  5
5B7
  8
0
 10
569.70775986070146
 20
254.59954133332241
 30
0.0
 40
5.0
  1
‚O
 50
163.12499999999949
 41
0.6
  7
06000
 72
     1
 11
567.73802573111345
 21
252.5845605744228
 31
0.0
 73
     2
  0
LINE
  5
64B
  8
2
 10
366.72322185543328
 20
424.28795678546908
 30
0.0
 11
366.72322185543328
 21
396.28795678546908
 31
0.0
  0
LINE
  5
654
  8
2
 10
365.7179994592417
 20
423.28797042227302
 30
0.0
 11
365.7179994592417
 21
397.28794314866519
 31
0.0
  0
LINE
  5
655
  8
2
 10
367.7153882611459
 20
391.17684567435811
 30
0.0
 11
364.87631453734002
 21
388.86352634384963
 31
0.0
  0
LINE
  5
656
  8
2
 10
367.71538826114607
 20
429.39906789658022
 30
0.0
 11
364.87631453734008
 21
431.71238722708858
 31
0.0
  0
LINE
  5
68B
  8
1
 10
344.7153882611459
 20
270.28795678546908
 30
0.0
 11
397.2153882611459
 21
270.28795678546908
 31
0.0
  0
LINE
  5
68C
  8
0
 10
356.2153882611459
 20
230.28795678546911
 30
0.0
 11
366.2153882611459
 21
230.28795678546911
 31
0.0
  0
LINE
  5
68D
  8
0
 10
366.2153882611459
 20
310.28795678546908
 30
0.0
 11
356.2153882611459
 21
310.28795678546908
 31
0.0
  0
LINE
  5
68E
  8
0
 10
354.7153882611459
 20
308.78795678546908
 30
0.0
 11
354.7153882611459
 21
231.78795678546911
 31
0.0
  0
ARC
  5
68F
  8
0
 10
356.2153882611459
 20
308.78795678546908
 30
0.0
 40
1.5
 50
90.0
 51
180.0
  0
ARC
  5
690
  8
0
 10
356.2153882611459
 20
231.78795678546911
 30
0.0
 40
1.5
 50
180.0
 51
270.0
  0
ARC
  5
691
  8
0
 10
366.2153882611459
 20
231.78795678546911
 30
0.0
 40
1.5
 50
270.0
 51
0.0
  0
ARC
  5
692
  8
0
 10
366.2153882611459
 20
308.78795678546908
 30
0.0
 40
1.5
 50
0.0
 51
90.0
  0
LINE
  5
693
  8
0
 10
387.2153882611459
 20
258.26211365639091
 30
0.0
 11
387.2153882611459
 21
282.31379991454742
 31
0.0
  0
LINE
  5
694
  8
0
 10
373.75906508666549
 20
256.10132308774422
 30
0.0
 11
367.7153882611459
 21
251.17684567435811
 31
0.0
  0
LINE
  5
695
  8
2
 10
387.21538826114579
 20
267.28795678546908
 30
0.0
 11
378.2153882611459
 21
267.28795678546908
 31
0.0
  0
LINE
  5
696
  8
2
 10
387.2153882611459
 20
273.28795678546908
 30
0.0
 11
378.21538826114602
 21
273.28795678546908
 31
0.0
  0
LINE
  5
697
  8
2
 10
378.2153882611459
 20
267.28795678546908
 30
0.0
 11
378.2153882611459
 21
273.28795678546891
 31
0.0
  0
LINE
  5
698
  8
2
 10
378.2153882611459
 20
267.28795678546908
 30
0.0
 11
376.48333745357712
 21
270.28795678546902
 31
0.0
  0
LINE
  5
699
  8
2
 10
378.2153882611459
 20
273.28795678546891
 30
0.0
 11
376.48333745357712
 21
270.28795678546902
 31
0.0
  0
LINE
  5
69A
  8
2
 10
355.71538826114579
 20
246.28795678546911
 30
0.0
 11
356.7153882611459
 21
246.28795678546911
 31
0.0
  0
LINE
  5
69B
  8
2
 10
365.2153882611459
 20
257.78793633026322
 30
0.0
 11
365.2153882611459
 21
282.7879772406751
 31
0.0
  0
LINE
  5
69C
  8
2
 10
354.71538826114579
 20
245.28795678546911
 30
0.0
 11
355.71538826114579
 21
246.28795678546911
 31
0.0
  0
LINE
  5
69D
  8
2
 10
356.7153882611459
 20
294.28795678546908
 30
0.0
 11
356.7153882611459
 21
246.28795678546911
 31
0.0
  0
LINE
  5
69E
  8
2
 10
356.7153882611459
 20
246.28795678546911
 30
0.0
 11
366.41444450140068
 21
255.56531492832141
 31
0.0
  0
ARC
  5
69F
  8
2
 10
368.66635224431337
 20
244.21211643074571
 30
0.0
 40
6.0
 50
129.17365797044641
 51
250.9256279689948
  0
ARC
  5
6A0
  8
2
 10
366.2153882611459
 20
237.1239025828703
 30
0.0
 40
1.5
 50
0.0
 51
70.925627968994746
  0
LINE
  5
6A1
  8
2
 10
355.71538826114579
 20
246.28795678546911
 30
0.0
 11
355.71538826114579
 21
294.28795678546908
 31
0.0
  0
LINE
  5
6A2
  8
0
 10
367.71538826114579
 20
231.78795678546911
 30
0.0
 11
367.7153882611459
 21
308.78795678546908
 31
0.0
  0
LINE
  5
6A3
  8
0
 10
376.18104909808278
 20
283.57690112536091
 30
0.0
 11
386.24156520945371
 21
283.3134572395229
 31
0.0
  0
LINE
  5
6A4
  8
2
 10
354.71538826114579
 20
295.28795678546902
 30
0.0
 11
355.71538826114579
 21
294.28795678546908
 31
0.0
  0
LINE
  5
6A5
  8
2
 10
355.71538826114579
 20
294.28795678546908
 30
0.0
 11
356.7153882611459
 21
294.28795678546908
 31
0.0
  0
LINE
  5
6A6
  8
2
 10
356.7153882611459
 20
294.28795678546908
 30
0.0
 11
366.41444450140068
 21
285.01059864261663
 31
0.0
  0
LINE
  5
6A7
  8
0
 10
373.75906508666537
 20
284.47459048319388
 30
0.0
 11
367.71538826114607
 21
289.39906789658011
 31
0.0
  0
LINE
  5
6A8
  8
2
 10
366.2153882611459
 20
296.28795678546783
 30
0.0
 11
363.47639845668402
 21
296.28795678546771
 31
0.0
  0
ARC
  5
6A9
  8
2
 10
363.47639845668402
 20
294.78795678546771
 30
0.0
 40
1.5
 50
90.0
 51
230.8263420295535
  0
ARC
  5
6AA
  8
2
 10
366.2153882611459
 20
297.78795678546783
 30
0.0
 40
1.5
 50
270.0
 51
0.0
  0
ARC
  5
6AB
  8
2
 10
365.72322185543328
 20
256.28795678546908
 30
0.0
 40
1.0
 50
313.72696997994609
 51
90.299222620870964
  0
ARC
  5
6AC
  8
2
 10
365.72322185543328
 20
284.28795678546908
 30
0.0
 40
1.0
 50
269.70077737912902
 51
46.273030020053852
  0
ARC
  5
6AD
  8
0
 10
376.28575689131418
 20
287.57553042526308
 30
0.0
 40
4.0
 50
230.8263420295535
 51
268.50000000000369
  0
ARC
  5
6AE
  8
0
 10
376.28575689131418
 20
253.0003831456751
 30
0.0
 40
4.0
 50
91.499999999996206
 51
129.17365797044641
  0
LINE
  5
6AF
  8
0
 10
376.18104909808278
 20
256.99901244557742
 30
0.0
 11
386.24156520945382
 21
257.26245633141519
 31
0.0
  0
ARC
  5
6B0
  8
0
 10
386.2153882611459
 20
282.31379991454742
 30
0.0
 40
1.0
 50
0.0
 51
88.499999999997272
  0
ARC
  5
6B1
  8
0
 10
386.2153882611459
 20
258.26211365639091
 30
0.0
 40
1.0
 50
271.49999999999619
 51
0.0
  0
ARC
  5
6B2
  8
2
 10
365.7153882611459
 20
282.78797724067499
 30
0.0
 40
0.5
 50
89.700777379129036
 51
179.9999999999967
  0
ARC
  5
6B3
  8
2
 10
365.7153882611459
 20
257.78793633026322
 30
0.0
 40
0.5
 50
180.0
 51
270.29922262087092
  0
LINE
  5
6B4
  8
2
 10
366.72322185543328
 20
284.28795678546908
 30
0.0
 11
366.72322185543328
 21
256.28795678546908
 31
0.0
  0
LINE
  5
6B5
  8
2
 10
365.7179994592417
 20
283.28797042227302
 30
0.0
 11
365.7179994592417
 21
257.28794314866508
 31
0.0
  0
LINE
  5
6B6
  8
2
 10
367.7153882611459
 20
251.17684567435799
 30
0.0
 11
364.87631453734002
 21
248.8635263438496
 31
0.0
  0
LINE
  5
6B7
  8
2
 10
367.71538826114607
 20
289.39906789658022
 30
0.0
 11
362.52888902994061
 21
293.6251043071918
 31
0.0
  0
ARC
  5
6B8
  8
2
 10
368.66635224431337
 20
436.36379714019239
 30
0.0
 40
6.0
 50
109.07437203100579
 51
230.8263420295535
  0
ARC
  5
6B9
  8
2
 10
366.2153882611459
 20
443.4520109880678
 30
0.0
 40
1.5
 50
289.07437203100579
 51
0.0
  0
LINE
  5
6BA
  8
1
 10
344.7153882611459
 20
130.28795678546899
 30
0.0
 11
397.2153882611459
 21
130.28795678546899
 31
0.0
  0
LINE
  5
6BB
  8
0
 10
356.2153882611459
 20
90.287956785469078
 30
0.0
 11
366.2153882611459
 21
90.287956785469078
 31
0.0
  0
LINE
  5
6BC
  8
0
 10
366.2153882611459
 20
170.28795678546911
 30
0.0
 11
356.2153882611459
 21
170.28795678546911
 31
0.0
  0
LINE
  5
6BD
  8
0
 10
354.7153882611459
 20
168.78795678546899
 30
0.0
 11
354.7153882611459
 21
91.787956785469078
 31
0.0
  0
ARC
  5
6BE
  8
0
 10
356.2153882611459
 20
168.78795678546899
 30
0.0
 40
1.5
 50
90.0
 51
180.0
  0
ARC
  5
6BF
  8
0
 10
356.2153882611459
 20
91.787956785469078
 30
0.0
 40
1.5
 50
180.0
 51
270.0
  0
ARC
  5
6C0
  8
0
 10
366.2153882611459
 20
91.787956785469078
 30
0.0
 40
1.5
 50
270.0
 51
0.0
  0
ARC
  5
6C1
  8
0
 10
366.2153882611459
 20
168.78795678546899
 30
0.0
 40
1.5
 50
0.0
 51
90.0
  0
LINE
  5
6C2
  8
0
 10
387.2153882611459
 20
118.2621136563908
 30
0.0
 11
387.2153882611459
 21
142.31379991454739
 31
0.0
  0
LINE
  5
6C3
  8
0
 10
373.75906508666549
 20
116.10132308774411
 30
0.0
 11
367.7153882611459
 21
111.17684567435811
 31
0.0
  0
LINE
  5
6C4
  8
2
 10
387.21538826114579
 20
127.28795678546901
 30
0.0
 11
378.2153882611459
 21
127.28795678546901
 31
0.0
  0
LINE
  5
6C5
  8
2
 10
387.2153882611459
 20
133.28795678546899
 30
0.0
 11
378.21538826114602
 21
133.28795678546899
 31
0.0
  0
LINE
  5
6C6
  8
2
 10
378.2153882611459
 20
127.28795678546901
 30
0.0
 11
378.2153882611459
 21
133.28795678546879
 31
0.0
  0
LINE
  5
6C7
  8
2
 10
378.2153882611459
 20
127.28795678546901
 30
0.0
 11
376.48333745357712
 21
130.28795678546891
 31
0.0
  0
LINE
  5
6C8
  8
2
 10
378.2153882611459
 20
133.28795678546891
 30
0.0
 11
376.48333745357712
 21
130.28795678546891
 31
0.0
  0
LINE
  5
6C9
  8
2
 10
355.71538826114579
 20
106.28795678546901
 30
0.0
 11
356.7153882611459
 21
106.28795678546901
 31
0.0
  0
LINE
  5
6CA
  8
2
 10
365.2153882611459
 20
117.78793633026309
 30
0.0
 11
365.2153882611459
 21
142.7879772406751
 31
0.0
  0
LINE
  5
6CB
  8
2
 10
354.71538826114579
 20
105.28795678546901
 30
0.0
 11
355.71538826114579
 21
106.28795678546901
 31
0.0
  0
LINE
  5
6CC
  8
2
 10
356.7153882611459
 20
154.28795678546899
 30
0.0
 11
356.7153882611459
 21
106.28795678546901
 31
0.0
  0
LINE
  5
6CD
  8
2
 10
356.7153882611459
 20
106.28795678546901
 30
0.0
 11
366.41444450140068
 21
115.5653149283214
 31
0.0
  0
ARC
  5
6CE
  8
2
 10
368.66635224431337
 20
104.2121164307457
 30
0.0
 40
6.0
 50
129.17365797044619
 51
250.9256279689946
  0
ARC
  5
6CF
  8
2
 10
366.2153882611459
 20
97.123902582870301
 30
0.0
 40
1.5
 50
0.0
 51
70.925627968994633
  0
LINE
  5
6D0
  8
2
 10
355.71538826114579
 20
106.28795678546901
 30
0.0
 11
355.71538826114579
 21
154.28795678546899
 31
0.0
  0
LINE
  5
6D1
  8
0
 10
367.71538826114579
 20
91.787956785469078
 30
0.0
 11
367.7153882611459
 21
168.78795678546899
 31
0.0
  0
LINE
  5
6D2
  8
0
 10
376.18104909808278
 20
143.57690112536091
 30
0.0
 11
386.24156520945371
 21
143.3134572395229
 31
0.0
  0
LINE
  5
6D3
  8
2
 10
354.71538826114579
 20
155.28795678546899
 30
0.0
 11
355.71538826114579
 21
154.28795678546899
 31
0.0
  0
LINE
  5
6D4
  8
2
 10
355.71538826114579
 20
154.28795678546899
 30
0.0
 11
356.7153882611459
 21
154.28795678546899
 31
0.0
  0
LINE
  5
6D5
  8
2
 10
356.7153882611459
 20
154.28795678546899
 30
0.0
 11
366.41444450140068
 21
145.0105986426166
 31
0.0
  0
LINE
  5
6D6
  8
0
 10
373.75906508666537
 20
144.47459048319391
 30
0.0
 11
367.71538826114607
 21
149.39906789657999
 31
0.0
  0
ARC
  5
6D7
  8
2
 10
365.72322185543328
 20
116.28795678546911
 30
0.0
 40
1.0
 50
313.72696997994609
 51
90.299222620870964
  0
ARC
  5
6D8
  8
2
 10
365.72322185543328
 20
144.28795678546911
 30
0.0
 40
1.0
 50
269.70077737912902
 51
46.273030020053831
  0
ARC
  5
6D9
  8
0
 10
376.28575689131418
 20
147.57553042526311
 30
0.0
 40
4.0
 50
230.82634202955381
 51
268.50000000000369
  0
ARC
  5
6DA
  8
0
 10
376.28575689131418
 20
113.000383145675
 30
0.0
 40
4.0
 50
91.499999999996206
 51
129.17365797044619
  0
LINE
  5
6DB
  8
0
 10
376.18104909808278
 20
116.99901244557731
 30
0.0
 11
386.24156520945382
 21
117.26245633141519
 31
0.0
  0
ARC
  5
6DC
  8
0
 10
386.2153882611459
 20
142.31379991454739
 30
0.0
 40
1.0
 50
0.0
 51
88.499999999997257
  0
ARC
  5
6DD
  8
0
 10
386.2153882611459
 20
118.2621136563908
 30
0.0
 40
1.0
 50
271.49999999999619
 51
0.0
  0
ARC
  5
6DE
  8
2
 10
365.7153882611459
 20
142.78797724067499
 30
0.0
 40
0.5
 50
89.700777379129036
 51
179.9999999999967
  0
ARC
  5
6DF
  8
2
 10
365.7153882611459
 20
117.78793633026309
 30
0.0
 40
0.5
 50
180.0
 51
270.29922262087092
  0
LINE
  5
6E0
  8
2
 10
366.72322185543328
 20
144.28795678546911
 30
0.0
 11
366.72322185543328
 21
116.28795678546911
 31
0.0
  0
LINE
  5
6E1
  8
2
 10
365.7179994592417
 20
143.28797042227299
 30
0.0
 11
365.7179994592417
 21
117.28794314866509
 31
0.0
  0
LINE
  5
6E2
  8
2
 10
367.7153882611459
 20
111.17684567435801
 30
0.0
 11
364.87631453734002
 21
108.8635263438495
 31
0.0
  0
LINE
  5
6E3
  8
2
 10
367.71538826114607
 20
149.39906789658011
 30
0.0
 11
364.87631453734008
 21
151.71238722708861
 31
0.0
  0
ARC
  5
6E4
  8
2
 10
368.66635224431337
 20
156.36379714019239
 30
0.0
 40
6.0
 50
109.0743720310053
 51
230.82634202955381
  0
ARC
  5
6E5
  8
2
 10
366.2153882611459
 20
163.4520109880678
 30
0.0
 40
1.5
 50
289.07437203100528
 51
0.0
  0
TEXT
  5
7DD
  8
0
 62
     3
 10
0.0
 20
0.0
 30
0.0
 40
10.0
  1
NDA80
  7
STANDARD1
  0
ENDSEC
  0
EOF
