  0
SECTION
  2
HEADER
  9
$ACADVER
  1
AC1009
  9
$INSBASE
 10
0.0
 20
0.0
 30
0.0
  9
$EXTMIN
 10
0.0
 20
-2.960436562073669
 30
0.0
  9
$EXTMAX
 10
112.5852660300136
 20
111.5754942471563
 30
0.0
  9
$LIMMIN
 10
0.0
 20
0.0
  9
$LIMMAX
 10
375.0
 20
270.0
  9
$ORTHOMODE
 70
     1
  9
$REGENMODE
 70
     1
  9
$FILLMODE
 70
     1
  9
$QTEXTMODE
 70
     0
  9
$MIRRTEXT
 70
     0
  9
$DRAGMODE
 70
     2
  9
$LTSCALE
 40
6.0
  9
$OSMODE
 70
  3071
  9
$ATTMODE
 70
     1
  9
$TEXTSIZE
 40
0.2
  9
$TRACEWID
 40
0.05
  9
$TEXTSTYLE
  7
STANDARD
  9
$CLAYER
  8
0
  9
$CELTYPE
  6
BYLAYER
  9
$CECOLOR
 62
   256
  9
$DIMSCALE
 40
1.0
  9
$DIMASZ
 40
3.0
  9
$DIMEXO
 40
1.0
  9
$DIMDLI
 40
6.0
  9
$DIMRND
 40
0.0
  9
$DIMDLE
 40
0.0
  9
$DIMEXE
 40
1.0
  9
$DIMTP
 40
495.0
  9
$DIMTM
 40
0.0
  9
$DIMTXT
 40
3.0
  9
$DIMCEN
 40
0.0
  9
$DIMTSZ
 40
0.0
  9
$DIMTOL
 70
     0
  9
$DIMLIM
 70
     0
  9
$DIMTIH
 70
     0
  9
$DIMTOH
 70
     0
  9
$DIMSE1
 70
     0
  9
$DIMSE2
 70
     0
  9
$DIMTAD
 70
     1
  9
$DIMZIN
 70
     0
  9
$DIMBLK
  1

  9
$DIMASO
 70
     0
  9
$DIMSHO
 70
     0
  9
$DIMPOST
  1

  9
$DIMAPOST
  1

  9
$DIMALT
 70
     0
  9
$DIMALTD
 70
     2
  9
$DIMALTF
 40
25.399999999999999
  9
$DIMLFAC
 40
1.0
  9
$DIMTOFL
 70
     1
  9
$DIMTVP
 40
0.0
  9
$DIMTIX
 70
     1
  9
$DIMSOXD
 70
     0
  9
$DIMSAH
 70
     0
  9
$DIMBLK1
  1

  9
$DIMBLK2
  1

  9
$DIMSTYLE
  2
STANDARD
  9
$DIMCLRD
 70
     0
  9
$DIMCLRE
 70
     0
  9
$DIMCLRT
 70
     4
  9
$DIMTFAC
 40
1.0
  9
$DIMGAP
 40
1.0
  9
$LUNITS
 70
     2
  9
$LUPREC
 70
     4
  9
$SKETCHINC
 40
0.1
  9
$FILLETRAD
 40
2.0
  9
$AUNITS
 70
     0
  9
$AUPREC
 70
     0
  9
$MENU
  1
C:\R13\WIN\SUPPORT\ACAD-I
  9
$ELEVATION
 40
0.0
  9
$PELEVATION
 40
0.0
  9
$THICKNESS
 40
0.0
  9
$LIMCHECK
 70
     0
  9
$BLIPMODE
 70
     0
  9
$CHAMFERA
 40
0.0
  9
$CHAMFERB
 40
0.0
  9
$SKPOLY
 70
     0
  9
$TDCREATE
 40
2451963.5438110419
  9
$TDUPDATE
 40
2456597.6876841672
  9
$TDINDWG
 40
0.0783195718
  9
$TDUSRTIMER
 40
0.0783195718
  9
$USRTIMER
 70
     1
  9
$ANGBASE
 50
0.0
  9
$ANGDIR
 70
     0
  9
$PDMODE
 70
     0
  9
$PDSIZE
 40
0.0
  9
$PLINEWID
 40
0.0
  9
$COORDS
 70
     1
  9
$SPLFRAME
 70
     0
  9
$SPLINETYPE
 70
     6
  9
$SPLINESEGS
 70
     8
  9
$ATTDIA
 70
     0
  9
$ATTREQ
 70
     1
  9
$HANDLING
 70
     1
  9
$HANDSEED
  5
D7D1
  9
$SURFTAB1
 70
     6
  9
$SURFTAB2
 70
     6
  9
$SURFTYPE
 70
     6
  9
$SURFU
 70
     6
  9
$SURFV
 70
     6
  9
$UCSNAME
  2

  9
$UCSORG
 10
0.0
 20
0.0
 30
0.0
  9
$UCSXDIR
 10
1.0
 20
0.0
 30
0.0
  9
$UCSYDIR
 10
0.0
 20
1.0
 30
0.0
  9
$PUCSNAME
  2

  9
$PUCSORG
 10
0.0
 20
0.0
 30
0.0
  9
$PUCSXDIR
 10
1.0
 20
0.0
 30
0.0
  9
$PUCSYDIR
 10
0.0
 20
1.0
 30
0.0
  9
$USERI1
 70
     4
  9
$USERI2
 70
     1
  9
$USERI3
 70
     0
  9
$USERI4
 70
     0
  9
$USERI5
 70
     0
  9
$USERR1
 40
1.0
  9
$USERR2
 40
3.0
  9
$USERR3
 40
3.0
  9
$USERR4
 40
3.0
  9
$USERR5
 40
10.0
  9
$WORLDVIEW
 70
     1
  9
$SHADEDGE
 70
     3
  9
$SHADEDIF
 70
    70
  9
$TILEMODE
 70
     1
  9
$MAXACTVP
 70
    16
  9
$PLIMCHECK
 70
     0
  9
$PEXTMIN
 10
1.0000000000000000E+020
 20
1.0000000000000000E+020
 30
1.0000000000000000E+020
  9
$PEXTMAX
 10
-1.0000000000000000E+020
 20
-1.0000000000000000E+020
 30
-1.0000000000000000E+020
  9
$PLIMMIN
 10
0.0
 20
0.0
  9
$PLIMMAX
 10
12.0
 20
9.0
  9
$UNITMODE
 70
     0
  9
$VISRETAIN
 70
     0
  9
$PLINEGEN
 70
     0
  9
$PSLTSCALE
 70
     0
  0
ENDSEC
  0
SECTION
  2
TABLES
  0
TABLE
  2
VPORT
 70
     1
  0
VPORT
  2
*ACTIVE
 70
     0
 10
0.0
 20
0.0
 11
1.0
 21
1.0
 12
187.49427839065231
 22
134.10366293909439
 13
0.0
 23
0.0
 14
10.0
 24
10.0
 15
10.0
 25
10.0
 16
0.0
 26
0.0
 36
1.0
 17
0.0
 27
0.0
 37
0.0
 40
277.29405978699532
 41
2.304913294797688
 42
50.0
 43
0.0
 44
0.0
 50
0.0
 51
0.0
 71
     0
 72
   100
 73
     1
 74
     0
 75
     0
 76
     0
 77
     0
 78
     0
  0
ENDTAB
  0
TABLE
  2
LTYPE
 70
     4
  0
LTYPE
  2
CONTINUOUS
 70
     0
  3
Solid Line
 72
    65
 73
     0
 40
0.0
  0
LTYPE
  2
CENTER
 70
     0
  3
____ _ ____ _ ____ _ ____ _ ____ _ ____ _ ____
 72
    65
 73
     4
 40
2.0
 49
1.25
 49
-0.25
 49
0.25
 49
-0.25
  0
LTYPE
  2
HIDDEN
 70
     0
  3
_ _ _ _ _ _ _ _ _ _ _ _ _ _ _ _ _ _ _ _ _ _ _
 72
    65
 73
     2
 40
0.375
 49
0.25
 49
-0.125
  0
LTYPE
  2
PHANTOM2
 70
     0
  3
___ _ _ ___ _ _ ___ _ _ ___ _ _
 72
    65
 73
     6
 40
1.25
 49
0.625
 49
-0.125
 49
0.125
 49
-0.125
 49
0.125
 49
-0.125
  0
ENDTAB
  0
TABLE
  2
LAYER
 70
     5
  0
LAYER
  2
0
 70
     0
 62
     7
  6
CONTINUOUS
  0
LAYER
  2
1
 70
     0
 62
     1
  6
CENTER
  0
LAYER
  2
3
 70
     0
 62
     3
  6
CONTINUOUS
  0
LAYER
  2
2
 70
     0
 62
     2
  6
HIDDEN
  0
LAYER
  2
DEFPOINTS
 70
     0
 62
     7
  6
CONTINUOUS
  0
ENDTAB
  0
TABLE
  2
STYLE
 70
     2
  0
STYLE
  2
STANDARD
 70
     0
 40
0.0
 41
1.0
 50
0.0
 71
     0
 42
0.2
  3
SIMPLEX
  4
BIGFONT
  0
STYLE
  2
STANDARD1
 70
     0
 40
0.0
 41
1.0
 50
0.0
 71
     0
 42
3.0
  3
txt
  4

  0
ENDTAB
  0
TABLE
  2
VIEW
 70
     0
  0
ENDTAB
  0
TABLE
  2
UCS
 70
     0
  0
ENDTAB
  0
TABLE
  2
APPID
 70
    29
  0
APPID
  2
ACAD
 70
     0
  0
APPID
  2
GENIUS_GENOREF_13
 70
     0
  0
APPID
  2
GENIUS_GENOENT_13
 70
     0
  0
APPID
  2
GENIUS_GENBH_13
 70
     0
  0
APPID
  2
GENIUS_GENOBJ_13
 70
     0
  0
APPID
  2
GENIUS_GENODEF_13
 70
     0
  0
APPID
  2
GENIUS_GENOLIS_13
 70
     0
  0
APPID
  2
GENIUS_GENOBJ-NBEHI-BHF_13
 70
     0
  0
APPID
  2
GENIUS_GENOBJ-NBEHI-BHB_13
 70
     0
  0
APPID
  2
GENIUS_GENOBJ-F-PART_13
 70
     0
  0
APPID
  2
GENIUS_GEFSTDP_13
 70
     0
  0
APPID
  2
GENIUS_GENOBJ-N-RSSYM_13
 70
     0
  0
APPID
  2
GENIUS_GENSYMENT_13
 70
     0
  0
APPID
  2
GENIUS_GENOBJ-N-TIT_13
 70
     0
  0
APPID
  2
GENIUS_GENTITLE_13
 70
     0
  0
APPID
  2
GENIUS_GENZVEED_13
 70
     0
  0
APPID
  2
GENIUS_GENOBJ-N-LEADER_13
 70
     0
  0
APPID
  2
GENIUS_GENOBJ-N-FIL_13
 70
     0
  0
APPID
  2
GENIUS_GENOBJ-N-SEC_13
 70
     0
  0
APPID
  2
GENIUS_GENOBJ-N-CRS_13
 70
     0
  0
APPID
  2
GENIUS_GENOBJ-N-ZOO_13
 70
     0
  0
APPID
  2
GENIUS_GENZOO_13
 70
     0
  0
APPID
  2
GENIUS_GENOBJ-F-TOL_13
 70
     0
  0
APPID
  2
GENIUS_GENFIL_13
 70
     0
  0
APPID
  2
GENIUS_GENOBJ-N-CHA_13
 70
     0
  0
APPID
  2
_CALL_MAC$
 70
     0
  0
APPID
  2
ACAD_NAV_VCDISPLAY
 70
     0
  0
APPID
  2
ACAD_EXEMPT_FROM_CAD_STANDARDS
 70
     0
  0
APPID
  2
ACAD_MLEADERVER
 70
     0
  0
ENDTAB
  0
TABLE
  2
DIMSTYLE
 70
     1
  0
DIMSTYLE
  2
STANDARD
 70
     0
  3

  4

  5

  6

  7

 40
1.0
 41
0.18
 42
0.0625
 43
0.38
 44
0.18
 45
0.0
 46
0.0
 47
0.0
 48
0.0
140
0.18
141
0.09
142
0.0
143
25.399999999999999
144
1.0
145
0.0
146
1.0
147
0.09
 71
     0
 72
     0
 73
     1
 74
     1
 75
     0
 76
     0
 77
     0
 78
     0
170
     0
171
     2
172
     0
173
     0
174
     0
175
     0
176
     0
177
     0
178
     0
  0
ENDTAB
  0
ENDSEC
  0
SECTION
  2
BLOCKS
  0
BLOCK
  8
0
  2
$MODEL_SPACE
 70
     0
 10
0.0
 20
0.0
 30
0.0
  3
$MODEL_SPACE
  1

  0
ENDBLK
  5
CF6E
  8
0
  0
BLOCK
 67
     1
  8
0
  2
$PAPER_SPACE
 70
     0
 10
0.0
 20
0.0
 30
0.0
  3
$PAPER_SPACE
  1

  0
ENDBLK
  5
CF6C
 67
     1
  8
0
  0
ENDSEC
  0
SECTION
  2
ENTITIES
  0
LINE
  5
D42B
  8
2
 10
26.24845978402135
 20
95.501994247156318
 30
0.0
 11
26.24845978402135
 21
69.575494247156314
 31
0.0
  0
LINE
  5
D42C
  8
2
 10
38.24845978402135
 20
69.575494247156314
 30
0.0
 11
38.24845978402135
 21
95.501994247156318
 31
0.0
  0
LINE
  5
D42D
  8
2
 10
27.321959784021349
 20
96.575494247156314
 30
0.0
 11
26.24845978402135
 21
95.501994247156318
 31
0.0
  0
LINE
  5
D42E
  8
2
 10
38.24845978402135
 20
95.501994247156318
 30
0.0
 11
37.174959784021361
 21
96.575494247156314
 31
0.0
  0
LINE
  5
D430
  8
2
 10
38.24845978402135
 20
95.501994247156318
 30
0.0
 11
26.24845978402135
 21
95.501994247156318
 31
0.0
  0
LINE
  5
D431
  8
2
 10
37.174959784021361
 20
96.575494247156314
 30
0.0
 11
27.321959784021349
 21
96.575494247156314
 31
0.0
  0
LINE
  5
D443
  8
2
 10
38.248459784021378
 20
95.501994247156318
 30
0.0
 11
38.248459784021321
 21
108.5754942471563
 31
0.0
  0
LINE
  5
D444
  8
2
 10
26.24845978402135
 20
95.501994247156318
 30
0.0
 11
26.248459784021382
 21
108.5754942471563
 31
0.0
  0
LINE
  5
D446
  8
0
 10
26.24845978402135
 20
69.575494247156314
 30
0.0
 11
26.24845978402135
 21
64.575494247156314
 31
0.0
  0
LINE
  5
D447
  8
0
 10
38.24845978402135
 20
64.575494247156314
 30
0.0
 11
38.24845978402135
 21
69.575494247156314
 31
0.0
  0
LINE
  5
D448
  8
0
 10
41.748459784021343
 20
59.575494247156307
 30
0.0
 11
22.74845978402135
 21
59.575494247156307
 31
0.0
  0
LINE
  5
D44B
  8
0
 10
41.748459784021343
 20
64.575494247156314
 30
0.0
 11
41.748459784021343
 21
59.575494247156307
 31
0.0
  0
LINE
  5
D44C
  8
0
 10
22.74845978402135
 20
64.575494247156314
 30
0.0
 11
22.74845978402135
 21
59.575494247156307
 31
0.0
  0
LINE
  5
D44E
  8
0
 10
22.74845978402135
 20
64.575494247156314
 30
0.0
 11
41.748459784021343
 21
64.575494247156314
 31
0.0
  0
LINE
  5
D451
  8
0
 10
32.24845978402135
 20
64.575494247156314
 30
0.0
 11
32.24845978402135
 21
60.027401257826739
 31
0.0
  0
LINE
  5
D454
  8
3
 10
37.174959784021361
 20
69.575494247156342
 30
0.0
 11
37.174959784021361
 21
67.135494247156316
 31
0.0
  0
LINE
  5
D455
  8
3
 10
38.24845978402135
 20
64.575494247156314
 30
0.0
 11
37.174959784021361
 21
67.135494247156316
 31
0.0
  0
LINE
  5
D456
  8
0
 10
38.24845978402135
 20
67.135494247156316
 30
0.0
 11
26.24845978402135
 21
67.135494247156316
 31
0.0
  0
LINE
  5
D457
  8
3
 10
27.32195978402137
 20
69.575494247156342
 30
0.0
 11
27.321959784021349
 21
67.135494247156316
 31
0.0
  0
LINE
  5
D458
  8
3
 10
26.24845978402135
 20
64.575494247156314
 30
0.0
 11
27.321959784021349
 21
67.135494247156316
 31
0.0
  0
LINE
  5
D459
  8
0
 10
40.24845978402135
 20
99.508827580489651
 30
0.0
 11
40.24845978402135
 21
105.17549424715629
 31
0.0
  0
LINE
  5
D45A
  8
0
 10
24.24845978402135
 20
105.17549424715629
 30
0.0
 11
24.24845978402135
 21
99.508827580489651
 31
0.0
  0
ARC
  5
D45B
  8
0
 10
23.381793117354668
 20
98.375494247156325
 30
0.0
 40
1.1333333333333291
 50
90.0
 51
180.0
  0
ARC
  5
D45C
  8
0
 10
41.115126450688017
 20
98.375494247156325
 30
0.0
 40
1.1333333333333311
 50
0.0
 51
90.0
  0
LINE
  5
D45D
  8
0
 10
42.24845978402135
 20
97.242160913823014
 30
0.0
 11
42.24845978402135
 21
98.375494247156325
 31
0.0
  0
LINE
  5
D45E
  8
0
 10
22.24845978402135
 20
98.375494247156325
 30
0.0
 11
22.24845978402135
 21
97.242160913823014
 31
0.0
  0
LINE
  5
D45F
  8
0
 10
40.24845978402135
 20
91.575494247156314
 30
0.0
 11
40.24845978402135
 21
97.242160913823014
 31
0.0
  0
LINE
  5
D460
  8
0
 10
24.24845978402135
 20
97.242160913822971
 30
0.0
 11
24.24845978402135
 21
91.575494247156314
 31
0.0
  0
ARC
  5
D461
  8
0
 10
23.381793117354668
 20
90.442160913822988
 30
0.0
 40
1.1333333333333351
 50
90.0
 51
180.0
  0
ARC
  5
D462
  8
0
 10
41.115126450688017
 20
90.442160913822988
 30
0.0
 40
1.133333333333334
 50
0.0
 51
90.0
  0
LINE
  5
D463
  8
0
 10
42.24845978402135
 20
89.308827580489634
 30
0.0
 11
42.24845978402135
 21
90.442160913822988
 31
0.0
  0
LINE
  5
D464
  8
0
 10
22.24845978402135
 20
90.442160913822988
 30
0.0
 11
22.24845978402135
 21
89.308827580489634
 31
0.0
  0
LINE
  5
D465
  8
0
 10
40.74845978402135
 20
83.642160913822977
 30
0.0
 11
40.74845978402135
 21
89.308827580489634
 31
0.0
  0
LINE
  5
D466
  8
0
 10
23.74845978402135
 20
89.308827580489634
 30
0.0
 11
23.74845978402135
 21
83.642160913822977
 31
0.0
  0
LINE
  5
D467
  8
0
 10
42.24845978402135
 20
77.97549424715632
 30
0.0
 11
41.652869117515849
 21
83.642160913822977
 31
0.0
  0
LINE
  5
D468
  8
0
 10
22.844050450526851
 20
83.642160913822977
 30
0.0
 11
22.24845978402135
 21
77.97549424715632
 31
0.0
  0
LINE
  5
D469
  8
0
 10
40.24845978402135
 20
74.575494247156314
 30
0.0
 11
40.24845978402135
 21
77.97549424715632
 31
0.0
  0
LINE
  5
D46A
  8
0
 10
24.24845978402135
 20
77.97549424715632
 30
0.0
 11
24.24845978402135
 21
74.575494247156314
 31
0.0
  0
LINE
  5
D46B
  8
0
 10
23.381793117354668
 20
99.508827580489651
 30
0.0
 11
41.115126450688017
 21
99.508827580489651
 31
0.0
  0
LINE
  5
D46D
  8
0
 10
22.24845978402135
 20
97.242160913823014
 30
0.0
 11
42.24845978402135
 21
97.242160913823014
 31
0.0
  0
LINE
  5
D46E
  8
0
 10
23.381793117354668
 20
91.575494247156314
 30
0.0
 11
41.115126450688017
 21
91.575494247156314
 31
0.0
  0
LINE
  5
D470
  8
0
 10
22.24845978402135
 20
89.308827580489634
 30
0.0
 11
42.24845978402135
 21
89.308827580489634
 31
0.0
  0
LINE
  5
D471
  8
0
 10
22.844050450526851
 20
83.642160913822977
 30
0.0
 11
41.652869117515849
 21
83.642160913822977
 31
0.0
  0
LINE
  5
D472
  8
0
 10
22.24845978402135
 20
77.97549424715632
 30
0.0
 11
42.24845978402135
 21
77.97549424715632
 31
0.0
  0
LINE
  5
D473
  8
0
 10
42.24845978402135
 20
74.575494247156314
 30
0.0
 11
22.24845978402135
 21
74.575494247156314
 31
0.0
  0
LINE
  5
D475
  8
0
 10
22.24845978402135
 20
70.70882758048964
 30
0.0
 11
22.24845978402135
 21
74.575494247156314
 31
0.0
  0
LINE
  5
D476
  8
0
 10
22.24845978402135
 20
70.70882758048964
 30
0.0
 11
23.381793117354668
 21
69.575494247156314
 31
0.0
  0
LINE
  5
D478
  8
0
 10
42.24845978402135
 20
70.70882758048964
 30
0.0
 11
42.24845978402135
 21
74.575494247156314
 31
0.0
  0
LINE
  5
D479
  8
0
 10
41.115126450688017
 20
69.575494247156314
 30
0.0
 11
42.24845978402135
 21
70.70882758048964
 31
0.0
  0
LINE
  5
D47A
  8
0
 10
41.115126450688017
 20
69.575494247156314
 30
0.0
 11
23.381793117354668
 21
69.575494247156314
 31
0.0
  0
LINE
  5
D47E
  8
0
 10
22.24845978402135
 20
105.17549424715629
 30
0.0
 11
42.24845978402135
 21
105.17549424715629
 31
0.0
  0
LINE
  5
D47F
  8
0
 10
22.24845978402135
 20
105.17549424715629
 30
0.0
 11
22.60581418392465
 21
108.5754942471563
 31
0.0
  0
LINE
  5
D480
  8
0
 10
22.60581418392465
 20
108.5754942471563
 30
0.0
 11
41.891105384118049
 21
108.5754942471563
 31
0.0
  0
LINE
  5
D481
  8
0
 10
41.891105384118049
 20
108.5754942471563
 30
0.0
 11
42.24845978402135
 21
105.17549424715629
 31
0.0
  0
LINE
  5
D485
  8
0
 10
41.748459784021378
 20
34.377337036339732
 30
0.0
 11
41.748459784021378
 21
23.40768192173692
 31
0.0
  0
LINE
  5
D489
  8
0
 10
22.74845978402135
 20
23.407681921736899
 30
0.0
 11
22.74845978402135
 21
34.37733703633981
 31
0.0
  0
LINE
  5
D4AA
  8
1
 10
19.248459784021382
 20
28.892509479038299
 30
0.0
 11
45.248459784021371
 21
28.892509479038299
 31
0.0
  0
LINE
  5
D4AB
  8
1
 10
32.248459784021378
 20
15.89250947903829
 30
0.0
 11
32.248459784021378
 21
41.892509479038289
 31
0.0
  0
LINE
  5
D4AD
  8
0
 10
22.24845978402135
 20
18.892509479038321
 30
0.0
 11
22.24845978402135
 21
38.892509479038317
 31
0.0
  0
LINE
  5
D4AF
  8
0
 10
42.24845978402135
 20
18.892509479038321
 30
0.0
 11
42.24845978402135
 21
38.892509479038317
 31
0.0
  0
LINE
  5
D4B1
  8
0
 10
22.24845978402135
 20
18.892509479038321
 30
0.0
 11
30.568967859710138
 21
18.892509479038321
 31
0.0
  0
LINE
  5
D4B7
  8
0
 10
22.24845978402135
 20
38.892509479038317
 30
0.0
 11
30.568967859710089
 21
38.892509479038317
 31
0.0
  0
LINE
  5
D5E2
  8
0
 10
32.248459784021378
 20
17.922854364435441
 30
0.0
 11
41.748459784021378
 21
23.407681921736899
 31
0.0
  0
LINE
  5
D5E3
  8
0
 10
22.74845978402135
 20
34.377337036339782
 30
0.0
 11
32.24845978402135
 21
39.862164593641211
 31
0.0
  0
LINE
  5
D5E5
  8
0
 10
41.748459784021378
 20
34.37733703633976
 30
0.0
 11
32.248459784021321
 21
39.862164593641268
 31
0.0
  0
LINE
  5
D5E6
  8
0
 10
32.24845978402135
 20
17.922854364435441
 30
0.0
 11
22.74845978402135
 21
23.40768192173692
 31
0.0
  0
ARC
  5
D5F5
  8
0
 10
36.99845978402135
 20
84.765101189210156
 30
0.0
 40
25.18960694205385
 50
259.13066689565659
 51
280.86933310434341
  0
ARC
  5
D5F6
  8
0
 10
27.49845978402135
 20
84.765101189210156
 30
0.0
 40
25.18960694205385
 50
259.13066689565659
 51
280.86933310434341
  0
LINE
  5
D5F7
  8
0
 10
73.296479342465375
 20
69.575494247156314
 30
0.0
 11
73.296479342465375
 21
64.575494247156314
 31
0.0
  0
LINE
  5
D5F8
  8
0
 10
85.296479342465375
 20
64.575494247156314
 30
0.0
 11
85.296479342465375
 21
69.575494247156314
 31
0.0
  0
LINE
  5
D5F9
  8
0
 10
90.266134457068276
 20
59.575494247156307
 30
0.0
 11
68.326824227862431
 21
59.575494247156307
 31
0.0
  0
LINE
  5
D5FA
  8
0
 10
90.266134457068276
 20
64.575494247156314
 30
0.0
 11
90.266134457068276
 21
59.575494247156307
 31
0.0
  0
LINE
  5
D5FB
  8
0
 10
68.326824227862431
 20
64.575494247156314
 30
0.0
 11
68.326824227862431
 21
59.575494247156307
 31
0.0
  0
LINE
  5
D5FC
  8
0
 10
68.326824227862431
 20
64.575494247156314
 30
0.0
 11
90.266134457068276
 21
64.575494247156314
 31
0.0
  0
LINE
  5
D5FD
  8
0
 10
73.811651785163946
 20
64.575494247156314
 30
0.0
 11
73.811651785163946
 21
60.027401257826739
 31
0.0
  0
LINE
  5
D5FE
  8
0
 10
87.296479342465375
 20
99.508827580489651
 30
0.0
 11
87.296479342465375
 21
105.17549424715629
 31
0.0
  0
LINE
  5
D5FF
  8
0
 10
71.296479342465375
 20
105.17549424715629
 30
0.0
 11
71.296479342465375
 21
99.508827580489651
 31
0.0
  0
ARC
  5
D600
  8
0
 10
70.429812675798701
 20
98.375494247156325
 30
0.0
 40
1.1333333333333291
 50
90.0
 51
180.0
  0
ARC
  5
D601
  8
0
 10
88.163146009132049
 20
98.375494247156325
 30
0.0
 40
1.1333333333333311
 50
0.0
 51
90.0
  0
LINE
  5
D602
  8
0
 10
89.296479342465375
 20
97.242160913823014
 30
0.0
 11
89.296479342465375
 21
98.375494247156325
 31
0.0
  0
LINE
  5
D603
  8
0
 10
69.296479342465375
 20
98.375494247156325
 30
0.0
 11
69.296479342465375
 21
97.242160913823014
 31
0.0
  0
LINE
  5
D604
  8
0
 10
87.296479342465375
 20
91.575494247156314
 30
0.0
 11
87.296479342465375
 21
97.242160913823014
 31
0.0
  0
LINE
  5
D605
  8
0
 10
71.296479342465375
 20
97.242160913822971
 30
0.0
 11
71.296479342465375
 21
91.575494247156314
 31
0.0
  0
ARC
  5
D606
  8
0
 10
70.429812675798701
 20
90.442160913822988
 30
0.0
 40
1.1333333333333351
 50
90.0
 51
180.0
  0
ARC
  5
D607
  8
0
 10
88.163146009132049
 20
90.442160913822988
 30
0.0
 40
1.133333333333334
 50
0.0
 51
90.0
  0
LINE
  5
D608
  8
0
 10
89.296479342465375
 20
89.308827580489634
 30
0.0
 11
89.296479342465375
 21
90.442160913822988
 31
0.0
  0
LINE
  5
D609
  8
0
 10
69.296479342465375
 20
90.442160913822988
 30
0.0
 11
69.296479342465375
 21
89.308827580489634
 31
0.0
  0
LINE
  5
D60A
  8
0
 10
87.796479342465375
 20
83.642160913822977
 30
0.0
 11
87.796479342465375
 21
89.308827580489634
 31
0.0
  0
LINE
  5
D60B
  8
0
 10
70.796479342465375
 20
89.308827580489634
 30
0.0
 11
70.796479342465375
 21
83.642160913822977
 31
0.0
  0
LINE
  5
D60C
  8
0
 10
89.296479342465375
 20
77.97549424715632
 30
0.0
 11
88.700888675959874
 21
83.642160913822977
 31
0.0
  0
LINE
  5
D60D
  8
0
 10
69.892070008970876
 20
83.642160913822977
 30
0.0
 11
69.296479342465375
 21
77.97549424715632
 31
0.0
  0
LINE
  5
D60E
  8
0
 10
87.296479342465375
 20
74.575494247156314
 30
0.0
 11
87.296479342465375
 21
77.97549424715632
 31
0.0
  0
LINE
  5
D60F
  8
0
 10
71.296479342465375
 20
77.97549424715632
 30
0.0
 11
71.296479342465375
 21
74.575494247156314
 31
0.0
  0
LINE
  5
D610
  8
0
 10
70.429812675798701
 20
99.508827580489651
 30
0.0
 11
88.163146009132049
 21
99.508827580489651
 31
0.0
  0
LINE
  5
D611
  8
0
 10
69.296479342465375
 20
97.242160913823014
 30
0.0
 11
89.296479342465375
 21
97.242160913823014
 31
0.0
  0
LINE
  5
D612
  8
0
 10
70.429812675798701
 20
91.575494247156314
 30
0.0
 11
88.163146009132049
 21
91.575494247156314
 31
0.0
  0
LINE
  5
D613
  8
0
 10
69.296479342465375
 20
89.308827580489634
 30
0.0
 11
89.296479342465375
 21
89.308827580489634
 31
0.0
  0
LINE
  5
D614
  8
0
 10
69.892070008970876
 20
83.642160913822977
 30
0.0
 11
88.700888675959874
 21
83.642160913822977
 31
0.0
  0
LINE
  5
D615
  8
0
 10
69.296479342465375
 20
77.97549424715632
 30
0.0
 11
89.296479342465375
 21
77.97549424715632
 31
0.0
  0
LINE
  5
D616
  8
0
 10
89.296479342465375
 20
74.575494247156314
 30
0.0
 11
69.296479342465375
 21
74.575494247156314
 31
0.0
  0
LINE
  5
D617
  8
0
 10
69.296479342465375
 20
70.70882758048964
 30
0.0
 11
69.296479342465375
 21
74.575494247156314
 31
0.0
  0
LINE
  5
D618
  8
0
 10
69.296479342465375
 20
70.70882758048964
 30
0.0
 11
70.429812675798701
 21
69.575494247156314
 31
0.0
  0
LINE
  5
D619
  8
0
 10
89.296479342465375
 20
70.70882758048964
 30
0.0
 11
89.296479342465375
 21
74.575494247156314
 31
0.0
  0
LINE
  5
D61A
  8
0
 10
88.163146009132049
 20
69.575494247156314
 30
0.0
 11
89.296479342465375
 21
70.70882758048964
 31
0.0
  0
LINE
  5
D61B
  8
0
 10
88.163146009132049
 20
69.575494247156314
 30
0.0
 11
70.429812675798701
 21
69.575494247156314
 31
0.0
  0
LINE
  5
D61C
  8
0
 10
69.296479342465375
 20
105.17549424715629
 30
0.0
 11
89.296479342465375
 21
105.17549424715629
 31
0.0
  0
LINE
  5
D61D
  8
0
 10
69.296479342465375
 20
105.17549424715629
 30
0.0
 11
69.653833742368676
 21
108.5754942471563
 31
0.0
  0
LINE
  5
D61E
  8
0
 10
69.653833742368676
 20
108.5754942471563
 30
0.0
 11
88.939124942562074
 21
108.5754942471563
 31
0.0
  0
LINE
  5
D61F
  8
0
 10
88.939124942562074
 20
108.5754942471563
 30
0.0
 11
89.296479342465375
 21
105.17549424715629
 31
0.0
  0
ARC
  5
D620
  8
0
 10
79.296479342465489
 20
93.086319001447976
 30
0.0
 40
33.510824754291662
 50
260.57982706742189
 51
279.42017293257811
  0
ARC
  5
D621
  8
0
 10
71.069238006513302
 20
68.122665564732273
 30
0.0
 40
8.5471713175759696
 50
251.28528172201209
 51
288.71471827798558
  0
LINE
  5
D624
  8
0
 10
33.927951708332621
 20
18.892509479038321
 30
0.0
 11
42.24845978402135
 21
18.892509479038321
 31
0.0
  0
LINE
  5
D625
  8
0
 10
33.927951708332643
 20
38.892509479038317
 30
0.0
 11
42.24845978402135
 21
38.892509479038317
 31
0.0
  0
LINE
  5
D629
  8
1
 10
32.24845978402135
 20
56.575494247156307
 30
0.0
 11
32.24845978402135
 21
111.5754942471563
 31
0.0
  0
LINE
  5
D63A
  8
1
 10
79.296479342465375
 20
56.575494247156307
 30
0.0
 11
79.296479342465375
 21
111.5754942471563
 31
0.0
  0
LINE
  5
D648
  8
0
 10
84.781306899766804
 20
64.575494247156314
 30
0.0
 11
84.781306899766804
 21
60.027401257826739
 31
0.0
  0
ARC
  5
D649
  8
0
 10
87.523720678417448
 20
68.122665564732273
 30
0.0
 40
8.5471713175759696
 50
251.2852817220143
 51
288.71471827798558
  0
LINE
  5
D657
  8
2
 10
37.174959784021333
 20
96.575494247156342
 30
0.0
 11
37.174959784021361
 21
69.575494247156314
 31
0.0
  0
LINE
  5
D658
  8
2
 10
27.321959784021661
 20
96.575494247156342
 30
0.0
 11
27.321959784021349
 21
69.575494247156314
 31
0.0
  0
LINE
  5
D6A5
  8
2
 10
73.296479342465361
 20
95.501994247156318
 30
0.0
 11
73.296479342465361
 21
69.575494247156314
 31
0.0
  0
LINE
  5
D6A6
  8
2
 10
85.296479342465361
 20
69.575494247156314
 30
0.0
 11
85.296479342465361
 21
95.501994247156318
 31
0.0
  0
LINE
  5
D6A7
  8
2
 10
74.369979342465356
 20
96.575494247156314
 30
0.0
 11
73.296479342465361
 21
95.501994247156318
 31
0.0
  0
LINE
  5
D6A8
  8
2
 10
85.296479342465361
 20
95.501994247156318
 30
0.0
 11
84.222979342465365
 21
96.575494247156314
 31
0.0
  0
LINE
  5
D6A9
  8
2
 10
85.296479342465361
 20
95.501994247156318
 30
0.0
 11
73.296479342465361
 21
95.501994247156318
 31
0.0
  0
LINE
  5
D6AA
  8
2
 10
84.222979342465365
 20
96.575494247156314
 30
0.0
 11
74.369979342465356
 21
96.575494247156314
 31
0.0
  0
LINE
  5
D6AB
  8
2
 10
85.296479342465375
 20
95.501994247156318
 30
0.0
 11
85.296479342465332
 21
108.5754942471563
 31
0.0
  0
LINE
  5
D6AC
  8
2
 10
73.296479342465361
 20
95.501994247156318
 30
0.0
 11
73.296479342465389
 21
108.5754942471563
 31
0.0
  0
LINE
  5
D6AD
  8
3
 10
84.222979342465365
 20
69.575494247156342
 30
0.0
 11
84.222979342465365
 21
67.135494247156316
 31
0.0
  0
LINE
  5
D6AE
  8
3
 10
85.296479342465361
 20
64.575494247156314
 30
0.0
 11
84.222979342465365
 21
67.135494247156316
 31
0.0
  0
LINE
  5
D6AF
  8
0
 10
85.296479342465361
 20
67.135494247156316
 30
0.0
 11
73.296479342465361
 21
67.135494247156316
 31
0.0
  0
LINE
  5
D6B0
  8
3
 10
74.369979342465385
 20
69.575494247156342
 30
0.0
 11
74.369979342465356
 21
67.135494247156316
 31
0.0
  0
LINE
  5
D6B1
  8
3
 10
73.296479342465361
 20
64.575494247156314
 30
0.0
 11
74.369979342465356
 21
67.135494247156316
 31
0.0
  0
LINE
  5
D6B2
  8
2
 10
84.222979342465337
 20
96.575494247156342
 30
0.0
 11
84.222979342465365
 21
69.575494247156314
 31
0.0
  0
LINE
  5
D6B3
  8
2
 10
74.369979342465669
 20
96.575494247156342
 30
0.0
 11
74.369979342465356
 21
69.575494247156314
 31
0.0
  0
TEXT
  5
D774
  8
0
 62
     3
 10
0.0
 20
0.0
 30
0.0
 40
10.0
  1
NDAQ20-M12X30
  7
STANDARD1
  0
ENDSEC
  0
EOF
