  0
SECTION
  2
HEADER
  9
$ACADVER
  1
AC1009
  9
$INSBASE
 10
0.0
 20
0.0
 30
0.0
  9
$EXTMIN
 10
0.0
 20
-2.960436562073669
 30
0.0
  9
$EXTMAX
 10
114.8429950869877
 20
129.22550162578381
 30
0.0
  9
$LIMMIN
 10
0.0
 20
0.0
  9
$LIMMAX
 10
375.0
 20
270.0
  9
$ORTHOMODE
 70
     1
  9
$REGENMODE
 70
     1
  9
$FILLMODE
 70
     1
  9
$QTEXTMODE
 70
     0
  9
$MIRRTEXT
 70
     0
  9
$DRAGMODE
 70
     2
  9
$LTSCALE
 40
6.0
  9
$OSMODE
 70
  3071
  9
$ATTMODE
 70
     1
  9
$TEXTSIZE
 40
0.2
  9
$TRACEWID
 40
0.05
  9
$TEXTSTYLE
  7
STANDARD
  9
$CLAYER
  8
0
  9
$CELTYPE
  6
BYLAYER
  9
$CECOLOR
 62
   256
  9
$DIMSCALE
 40
1.0
  9
$DIMASZ
 40
3.0
  9
$DIMEXO
 40
1.0
  9
$DIMDLI
 40
6.0
  9
$DIMRND
 40
0.0
  9
$DIMDLE
 40
0.0
  9
$DIMEXE
 40
1.0
  9
$DIMTP
 40
495.0
  9
$DIMTM
 40
0.0
  9
$DIMTXT
 40
3.0
  9
$DIMCEN
 40
0.0
  9
$DIMTSZ
 40
0.0
  9
$DIMTOL
 70
     0
  9
$DIMLIM
 70
     0
  9
$DIMTIH
 70
     0
  9
$DIMTOH
 70
     0
  9
$DIMSE1
 70
     0
  9
$DIMSE2
 70
     0
  9
$DIMTAD
 70
     1
  9
$DIMZIN
 70
     0
  9
$DIMBLK
  1

  9
$DIMASO
 70
     0
  9
$DIMSHO
 70
     0
  9
$DIMPOST
  1

  9
$DIMAPOST
  1

  9
$DIMALT
 70
     0
  9
$DIMALTD
 70
     2
  9
$DIMALTF
 40
25.399999999999999
  9
$DIMLFAC
 40
1.0
  9
$DIMTOFL
 70
     1
  9
$DIMTVP
 40
0.0
  9
$DIMTIX
 70
     1
  9
$DIMSOXD
 70
     0
  9
$DIMSAH
 70
     0
  9
$DIMBLK1
  1

  9
$DIMBLK2
  1

  9
$DIMSTYLE
  2
STANDARD
  9
$DIMCLRD
 70
     0
  9
$DIMCLRE
 70
     0
  9
$DIMCLRT
 70
     4
  9
$DIMTFAC
 40
1.0
  9
$DIMGAP
 40
1.0
  9
$LUNITS
 70
     2
  9
$LUPREC
 70
     4
  9
$SKETCHINC
 40
0.1
  9
$FILLETRAD
 40
2.0
  9
$AUNITS
 70
     0
  9
$AUPREC
 70
     0
  9
$MENU
  1
C:\R13\WIN\SUPPORT\ACAD-I
  9
$ELEVATION
 40
0.0
  9
$PELEVATION
 40
0.0
  9
$THICKNESS
 40
0.0
  9
$LIMCHECK
 70
     0
  9
$BLIPMODE
 70
     0
  9
$CHAMFERA
 40
0.0
  9
$CHAMFERB
 40
0.0
  9
$SKPOLY
 70
     0
  9
$TDCREATE
 40
2451963.5438110419
  9
$TDUPDATE
 40
2456597.6877114242
  9
$TDINDWG
 40
0.1004729051
  9
$TDUSRTIMER
 40
0.1004729051
  9
$USRTIMER
 70
     1
  9
$ANGBASE
 50
0.0
  9
$ANGDIR
 70
     0
  9
$PDMODE
 70
     0
  9
$PDSIZE
 40
0.0
  9
$PLINEWID
 40
0.0
  9
$COORDS
 70
     1
  9
$SPLFRAME
 70
     0
  9
$SPLINETYPE
 70
     6
  9
$SPLINESEGS
 70
     8
  9
$ATTDIA
 70
     0
  9
$ATTREQ
 70
     1
  9
$HANDLING
 70
     1
  9
$HANDSEED
  5
E885
  9
$SURFTAB1
 70
     6
  9
$SURFTAB2
 70
     6
  9
$SURFTYPE
 70
     6
  9
$SURFU
 70
     6
  9
$SURFV
 70
     6
  9
$UCSNAME
  2

  9
$UCSORG
 10
0.0
 20
0.0
 30
0.0
  9
$UCSXDIR
 10
1.0
 20
0.0
 30
0.0
  9
$UCSYDIR
 10
0.0
 20
1.0
 30
0.0
  9
$PUCSNAME
  2

  9
$PUCSORG
 10
0.0
 20
0.0
 30
0.0
  9
$PUCSXDIR
 10
1.0
 20
0.0
 30
0.0
  9
$PUCSYDIR
 10
0.0
 20
1.0
 30
0.0
  9
$USERI1
 70
     4
  9
$USERI2
 70
     1
  9
$USERI3
 70
     0
  9
$USERI4
 70
     0
  9
$USERI5
 70
     0
  9
$USERR1
 40
1.0
  9
$USERR2
 40
3.0
  9
$USERR3
 40
3.0
  9
$USERR4
 40
3.0
  9
$USERR5
 40
10.0
  9
$WORLDVIEW
 70
     1
  9
$SHADEDGE
 70
     3
  9
$SHADEDIF
 70
    70
  9
$TILEMODE
 70
     1
  9
$MAXACTVP
 70
    16
  9
$PLIMCHECK
 70
     0
  9
$PEXTMIN
 10
1.0000000000000000E+020
 20
1.0000000000000000E+020
 30
1.0000000000000000E+020
  9
$PEXTMAX
 10
-1.0000000000000000E+020
 20
-1.0000000000000000E+020
 30
-1.0000000000000000E+020
  9
$PLIMMIN
 10
0.0
 20
0.0
  9
$PLIMMAX
 10
12.0
 20
9.0
  9
$UNITMODE
 70
     0
  9
$VISRETAIN
 70
     0
  9
$PLINEGEN
 70
     0
  9
$PSLTSCALE
 70
     0
  0
ENDSEC
  0
SECTION
  2
TABLES
  0
TABLE
  2
VPORT
 70
     1
  0
VPORT
  2
*ACTIVE
 70
     0
 10
0.0
 20
0.0
 11
1.0
 21
1.0
 12
187.49427839065231
 22
134.10366293909439
 13
0.0
 23
0.0
 14
10.0
 24
10.0
 15
10.0
 25
10.0
 16
0.0
 26
0.0
 36
1.0
 17
0.0
 27
0.0
 37
0.0
 40
277.29405978699532
 41
2.304913294797688
 42
50.0
 43
0.0
 44
0.0
 50
0.0
 51
0.0
 71
     0
 72
   100
 73
     1
 74
     0
 75
     0
 76
     0
 77
     0
 78
     0
  0
ENDTAB
  0
TABLE
  2
LTYPE
 70
     4
  0
LTYPE
  2
CONTINUOUS
 70
     0
  3
Solid Line
 72
    65
 73
     0
 40
0.0
  0
LTYPE
  2
CENTER
 70
     0
  3
____ _ ____ _ ____ _ ____ _ ____ _ ____ _ ____
 72
    65
 73
     4
 40
2.0
 49
1.25
 49
-0.25
 49
0.25
 49
-0.25
  0
LTYPE
  2
HIDDEN
 70
     0
  3
_ _ _ _ _ _ _ _ _ _ _ _ _ _ _ _ _ _ _ _ _ _ _
 72
    65
 73
     2
 40
0.375
 49
0.25
 49
-0.125
  0
LTYPE
  2
PHANTOM2
 70
     0
  3
___ _ _ ___ _ _ ___ _ _ ___ _ _
 72
    65
 73
     6
 40
1.25
 49
0.625
 49
-0.125
 49
0.125
 49
-0.125
 49
0.125
 49
-0.125
  0
ENDTAB
  0
TABLE
  2
LAYER
 70
     5
  0
LAYER
  2
0
 70
     0
 62
     7
  6
CONTINUOUS
  0
LAYER
  2
1
 70
     0
 62
     1
  6
CENTER
  0
LAYER
  2
3
 70
     0
 62
     3
  6
CONTINUOUS
  0
LAYER
  2
2
 70
     0
 62
     2
  6
HIDDEN
  0
LAYER
  2
DEFPOINTS
 70
     0
 62
     7
  6
CONTINUOUS
  0
ENDTAB
  0
TABLE
  2
STYLE
 70
     2
  0
STYLE
  2
STANDARD
 70
     0
 40
0.0
 41
1.0
 50
0.0
 71
     0
 42
0.2
  3
SIMPLEX
  4
BIGFONT
  0
STYLE
  2
STANDARD1
 70
     0
 40
0.0
 41
1.0
 50
0.0
 71
     0
 42
3.0
  3
txt
  4

  0
ENDTAB
  0
TABLE
  2
VIEW
 70
     0
  0
ENDTAB
  0
TABLE
  2
UCS
 70
     0
  0
ENDTAB
  0
TABLE
  2
APPID
 70
    29
  0
APPID
  2
ACAD
 70
     0
  0
APPID
  2
GENIUS_GENOREF_13
 70
     0
  0
APPID
  2
GENIUS_GENOENT_13
 70
     0
  0
APPID
  2
GENIUS_GENBH_13
 70
     0
  0
APPID
  2
GENIUS_GENOBJ_13
 70
     0
  0
APPID
  2
GENIUS_GENODEF_13
 70
     0
  0
APPID
  2
GENIUS_GENOLIS_13
 70
     0
  0
APPID
  2
GENIUS_GENOBJ-NBEHI-BHF_13
 70
     0
  0
APPID
  2
GENIUS_GENOBJ-NBEHI-BHB_13
 70
     0
  0
APPID
  2
GENIUS_GENOBJ-F-PART_13
 70
     0
  0
APPID
  2
GENIUS_GEFSTDP_13
 70
     0
  0
APPID
  2
GENIUS_GENOBJ-N-RSSYM_13
 70
     0
  0
APPID
  2
GENIUS_GENSYMENT_13
 70
     0
  0
APPID
  2
GENIUS_GENOBJ-N-TIT_13
 70
     0
  0
APPID
  2
GENIUS_GENTITLE_13
 70
     0
  0
APPID
  2
GENIUS_GENZVEED_13
 70
     0
  0
APPID
  2
GENIUS_GENOBJ-N-LEADER_13
 70
     0
  0
APPID
  2
GENIUS_GENOBJ-N-FIL_13
 70
     0
  0
APPID
  2
GENIUS_GENOBJ-N-SEC_13
 70
     0
  0
APPID
  2
GENIUS_GENOBJ-N-CRS_13
 70
     0
  0
APPID
  2
GENIUS_GENOBJ-N-ZOO_13
 70
     0
  0
APPID
  2
GENIUS_GENZOO_13
 70
     0
  0
APPID
  2
GENIUS_GENOBJ-F-TOL_13
 70
     0
  0
APPID
  2
GENIUS_GENFIL_13
 70
     0
  0
APPID
  2
GENIUS_GENOBJ-N-CHA_13
 70
     0
  0
APPID
  2
_CALL_MAC$
 70
     0
  0
APPID
  2
ACAD_NAV_VCDISPLAY
 70
     0
  0
APPID
  2
ACAD_EXEMPT_FROM_CAD_STANDARDS
 70
     0
  0
APPID
  2
ACAD_MLEADERVER
 70
     0
  0
ENDTAB
  0
TABLE
  2
DIMSTYLE
 70
     1
  0
DIMSTYLE
  2
STANDARD
 70
     0
  3

  4

  5

  6

  7

 40
1.0
 41
0.18
 42
0.0625
 43
0.38
 44
0.18
 45
0.0
 46
0.0
 47
0.0
 48
0.0
140
0.18
141
0.09
142
0.0
143
25.399999999999999
144
1.0
145
0.0
146
1.0
147
0.09
 71
     0
 72
     0
 73
     1
 74
     1
 75
     0
 76
     0
 77
     0
 78
     0
170
     0
171
     2
172
     0
173
     0
174
     0
175
     0
176
     0
177
     0
178
     0
  0
ENDTAB
  0
ENDSEC
  0
SECTION
  2
BLOCKS
  0
BLOCK
  8
0
  2
$MODEL_SPACE
 70
     0
 10
0.0
 20
0.0
 30
0.0
  3
$MODEL_SPACE
  1

  0
ENDBLK
  5
CF6E
  8
0
  0
BLOCK
 67
     1
  8
0
  2
$PAPER_SPACE
 70
     0
 10
0.0
 20
0.0
 30
0.0
  3
$PAPER_SPACE
  1

  0
ENDBLK
  5
CF6C
 67
     1
  8
0
  0
ENDSEC
  0
SECTION
  2
ENTITIES
  0
LINE
  5
E458
  8
2
 10
33.342995086987692
 20
117.9985016257838
 30
0.0
 11
33.342995086987692
 21
87.225501625783764
 31
0.0
  0
LINE
  5
E459
  8
2
 10
49.342995086987678
 20
87.225501625783764
 30
0.0
 11
49.342995086987678
 21
117.9985016257838
 31
0.0
  0
LINE
  5
E45A
  8
2
 10
34.56999508698766
 20
119.22550162578381
 30
0.0
 11
33.342995086987692
 21
117.9985016257838
 31
0.0
  0
LINE
  5
E45B
  8
2
 10
49.342995086987678
 20
117.9985016257838
 30
0.0
 11
48.115995086987709
 21
119.22550162578381
 31
0.0
  0
LINE
  5
E45D
  8
2
 10
49.342995086987678
 20
117.9985016257838
 30
0.0
 11
33.342995086987692
 21
117.9985016257838
 31
0.0
  0
LINE
  5
E45E
  8
2
 10
48.115995086987709
 20
119.22550162578381
 30
0.0
 11
34.56999508698766
 21
119.22550162578381
 31
0.0
  0
LINE
  5
E461
  8
2
 10
48.115995086987652
 20
87.225501625783764
 30
0.0
 11
48.115995086987652
 21
119.22550162578381
 31
0.0
  0
LINE
  5
E462
  8
2
 10
34.56999508698761
 20
119.22550162578381
 30
0.0
 11
34.56999508698761
 21
87.225501625783764
 31
0.0
  0
LINE
  5
E470
  8
1
 10
41.342995086987678
 20
129.22550162578381
 30
0.0
 11
41.342995086987678
 21
74.225501625783778
 31
0.0
  0
LINE
  5
E471
  8
0
 10
33.342995086987692
 20
87.225501625783764
 30
0.0
 11
33.342995086987692
 21
82.225501625783764
 31
0.0
  0
LINE
  5
E472
  8
0
 10
49.342995086987678
 20
82.225501625783764
 30
0.0
 11
49.342995086987678
 21
87.225501625783764
 31
0.0
  0
LINE
  5
E473
  8
0
 10
54.842995086987678
 20
77.225501625783778
 30
0.0
 11
27.842995086987688
 21
77.225501625783778
 31
0.0
  0
POLYLINE
  5
E474
  8
0
 66
     1
 10
0.0
 20
0.0
 30
0.0
  0
VERTEX
  5
E7AD
  8
0
 10
54.842995086987678
 20
77.867685272525961
 30
0.0
  0
VERTEX
  5
E7AE
  8
0
 10
54.160713735899087
 20
77.670590334441599
 30
0.0
  0
VERTEX
  5
E7AF
  8
0
 10
53.383586319256999
 20
77.487255326076848
 30
0.0
  0
VERTEX
  5
E7B0
  8
0
 10
53.164349841753157
 20
77.443867464200309
 30
0.0
  0
VERTEX
  5
E7B1
  8
0
 10
52.946061125850179
 20
77.404426327724124
 30
0.0
  0
VERTEX
  5
E7B2
  8
0
 10
52.837222134455942
 20
77.386179921628141
 30
0.0
  0
VERTEX
  5
E7B3
  8
0
 10
52.728560105428869
 20
77.368913888963121
 30
0.0
  0
VERTEX
  5
E7B4
  8
0
 10
52.511687194622823
 20
77.337317910443829
 30
0.0
  0
VERTEX
  5
E7B5
  8
0
 10
52.295282892741113
 20
77.309631949538613
 30
0.0
  0
VERTEX
  5
E7B6
  8
0
 10
52.079187386329231
 20
77.285855384857413
 30
0.0
  0
VERTEX
  5
E7B7
  8
0
 10
51.863240146248188
 20
77.265993464759902
 30
0.0
  0
VERTEX
  5
E7B8
  8
0
 10
51.647279517585162
 20
77.250057378510633
 30
0.0
  0
VERTEX
  5
E7B9
  8
0
 10
51.539243254535393
 20
77.243566666951565
 30
0.0
  0
VERTEX
  5
E7BA
  8
0
 10
51.431142300129352
 20
77.238064350767587
 30
0.0
  0
VERTEX
  5
E7BB
  8
0
 10
51.214663317040959
 20
77.230037760270719
 30
0.0
  0
VERTEX
  5
E7BC
  8
0
 10
50.997674969210948
 20
77.226007283785393
 30
0.0
  0
VERTEX
  5
E7BD
  8
0
 10
50.888936633006089
 20
77.225501625783778
 30
0.0
  0
SEQEND
  5
E7BE
  8
0
  0
POLYLINE
  5
E475
  8
0
 66
     1
 10
0.0
 20
0.0
 30
0.0
  0
VERTEX
  5
E7BF
  8
0
 10
50.888936633006089
 20
77.225501625783778
 30
0.0
  0
VERTEX
  5
E7C0
  8
0
 10
50.780198296800677
 20
77.226007283785393
 30
0.0
  0
VERTEX
  5
E7C1
  8
0
 10
50.563209948969643
 20
77.230037760270719
 30
0.0
  0
VERTEX
  5
E7C2
  8
0
 10
50.346730965880397
 20
77.238064350767587
 30
0.0
  0
VERTEX
  5
E7C3
  8
0
 10
50.238630011473958
 20
77.243566666951565
 30
0.0
  0
VERTEX
  5
E7C4
  8
0
 10
50.130593748423912
 20
77.250057378510633
 30
0.0
  0
VERTEX
  5
E7C5
  8
0
 10
49.914633119760254
 20
77.265993464759902
 30
0.0
  0
VERTEX
  5
E7C6
  8
0
 10
49.698685879678749
 20
77.285855384857413
 30
0.0
  0
VERTEX
  5
E7C7
  8
0
 10
49.482590373266532
 20
77.309631949538598
 30
0.0
  0
VERTEX
  5
E7C8
  8
0
 10
49.266186071384588
 20
77.337317910443815
 30
0.0
  0
VERTEX
  5
E7C9
  8
0
 10
49.049313160578492
 20
77.368913888963107
 30
0.0
  0
VERTEX
  5
E7CA
  8
0
 10
48.940651131551469
 20
77.386179921628127
 30
0.0
  0
VERTEX
  5
E7CB
  8
0
 10
48.83181214015724
 20
77.40442632772411
 30
0.0
  0
VERTEX
  5
E7CC
  8
0
 10
48.613523424254311
 20
77.443867464200281
 30
0.0
  0
VERTEX
  5
E7CD
  8
0
 10
48.394286946750753
 20
77.48725532607682
 30
0.0
  0
VERTEX
  5
E7CE
  8
0
 10
47.617159530110477
 20
77.67059033444157
 30
0.0
  0
VERTEX
  5
E7CF
  8
0
 10
46.934878179024452
 20
77.867685272525961
 30
0.0
  0
SEQEND
  5
E7D0
  8
0
  0
LINE
  5
E476
  8
0
 10
54.842995086987678
 20
82.225501625783764
 30
0.0
 11
54.842995086987678
 21
77.225501625783778
 31
0.0
  0
LINE
  5
E477
  8
0
 10
27.842995086987688
 20
82.225501625783764
 30
0.0
 11
27.842995086987688
 21
77.225501625783778
 31
0.0
  0
POLYLINE
  5
E478
  8
0
 66
     1
 10
0.0
 20
0.0
 30
0.0
  0
VERTEX
  5
E7D1
  8
0
 10
31.79705354096928
 20
77.225501625783778
 30
0.0
  0
VERTEX
  5
E7D2
  8
0
 10
31.68831520476385
 20
77.226007283785393
 30
0.0
  0
VERTEX
  5
E7D3
  8
0
 10
31.47132685693288
 20
77.230037760270719
 30
0.0
  0
VERTEX
  5
E7D4
  8
0
 10
31.25484787384363
 20
77.238064350767587
 30
0.0
  0
VERTEX
  5
E7D5
  8
0
 10
31.146746919437192
 20
77.243566666951565
 30
0.0
  0
VERTEX
  5
E7D6
  8
0
 10
31.038710656387138
 20
77.250057378510633
 30
0.0
  0
VERTEX
  5
E7D7
  8
0
 10
30.82275002772349
 20
77.265993464759902
 30
0.0
  0
VERTEX
  5
E7D8
  8
0
 10
30.606802787641978
 20
77.285855384857413
 30
0.0
  0
VERTEX
  5
E7D9
  8
0
 10
30.390707281229769
 20
77.309631949538598
 30
0.0
  0
VERTEX
  5
E7DA
  8
0
 10
30.174302979347772
 20
77.337317910443815
 30
0.0
  0
VERTEX
  5
E7DB
  8
0
 10
29.957430068541729
 20
77.368913888963107
 30
0.0
  0
VERTEX
  5
E7DC
  8
0
 10
29.848768039514649
 20
77.386179921628127
 30
0.0
  0
VERTEX
  5
E7DD
  8
0
 10
29.73992904812042
 20
77.40442632772411
 30
0.0
  0
VERTEX
  5
E7DE
  8
0
 10
29.52164033221754
 20
77.443867464200281
 30
0.0
  0
VERTEX
  5
E7DF
  8
0
 10
29.30240385471393
 20
77.48725532607682
 30
0.0
  0
VERTEX
  5
E7E0
  8
0
 10
28.525276438073721
 20
77.67059033444157
 30
0.0
  0
VERTEX
  5
E7E1
  8
0
 10
27.842995086987688
 20
77.867685272525961
 30
0.0
  0
SEQEND
  5
E7E2
  8
0
  0
LINE
  5
E479
  8
0
 10
27.842995086987688
 20
82.225501625783764
 30
0.0
 11
54.842995086987678
 21
82.225501625783764
 31
0.0
  0
POLYLINE
  5
E47A
  8
0
 66
     1
 10
0.0
 20
0.0
 30
0.0
  0
VERTEX
  5
E7E3
  8
0
 10
35.751111994950918
 20
77.867685272525961
 30
0.0
  0
VERTEX
  5
E7E4
  8
0
 10
35.06883064386227
 20
77.670590334441599
 30
0.0
  0
VERTEX
  5
E7E5
  8
0
 10
34.291703227220303
 20
77.487255326076848
 30
0.0
  0
VERTEX
  5
E7E6
  8
0
 10
34.072466749716448
 20
77.443867464200309
 30
0.0
  0
VERTEX
  5
E7E7
  8
0
 10
33.854178033813362
 20
77.404426327724124
 30
0.0
  0
VERTEX
  5
E7E8
  8
0
 10
33.745339042419118
 20
77.386179921628155
 30
0.0
  0
VERTEX
  5
E7E9
  8
0
 10
33.636677013392053
 20
77.368913888963121
 30
0.0
  0
VERTEX
  5
E7EA
  8
0
 10
33.419804102586113
 20
77.337317910443829
 30
0.0
  0
VERTEX
  5
E7EB
  8
0
 10
33.203399800704346
 20
77.309631949538613
 30
0.0
  0
VERTEX
  5
E7EC
  8
0
 10
32.987304294292471
 20
77.285855384857413
 30
0.0
  0
VERTEX
  5
E7ED
  8
0
 10
32.771357054211421
 20
77.265993464759902
 30
0.0
  0
VERTEX
  5
E7EE
  8
0
 10
32.555396425548338
 20
77.250057378510633
 30
0.0
  0
VERTEX
  5
E7EF
  8
0
 10
32.447360162498633
 20
77.243566666951565
 30
0.0
  0
VERTEX
  5
E7F0
  8
0
 10
32.339259208092592
 20
77.238064350767587
 30
0.0
  0
VERTEX
  5
E7F1
  8
0
 10
32.122780225004192
 20
77.230037760270719
 30
0.0
  0
VERTEX
  5
E7F2
  8
0
 10
31.905791877174181
 20
77.226007283785393
 30
0.0
  0
VERTEX
  5
E7F3
  8
0
 10
31.79705354096928
 20
77.225501625783778
 30
0.0
  0
SEQEND
  5
E7F4
  8
0
  0
POLYLINE
  5
E47B
  8
0
 66
     1
 10
0.0
 20
0.0
 30
0.0
  0
VERTEX
  5
E7F5
  8
0
 10
41.342995086987678
 20
77.225501625783778
 30
0.0
  0
VERTEX
  5
E7F6
  8
0
 10
41.189215857176123
 20
77.226007283785393
 30
0.0
  0
VERTEX
  5
E7F7
  8
0
 10
40.882347992796547
 20
77.230037760270719
 30
0.0
  0
VERTEX
  5
E7F8
  8
0
 10
40.576200478943001
 20
77.238064350767587
 30
0.0
  0
VERTEX
  5
E7F9
  8
0
 10
40.423322643115959
 20
77.243566666951565
 30
0.0
  0
VERTEX
  5
E7FA
  8
0
 10
40.270536294682408
 20
77.250057378510633
 30
0.0
  0
VERTEX
  5
E7FB
  8
0
 10
39.965121844687701
 20
77.265993464759902
 30
0.0
  0
VERTEX
  5
E7FC
  8
0
 10
39.659726329007412
 20
77.285855384857413
 30
0.0
  0
VERTEX
  5
E7FD
  8
0
 10
39.354121133071367
 20
77.309631949538598
 30
0.0
  0
VERTEX
  5
E7FE
  8
0
 10
39.048079234393981
 20
77.337317910443815
 30
0.0
  0
VERTEX
  5
E7FF
  8
0
 10
38.741374622620697
 20
77.368913888963107
 30
0.0
  0
VERTEX
  5
E800
  8
0
 10
38.587703307455691
 20
77.386179921628127
 30
0.0
  0
VERTEX
  5
E801
  8
0
 10
38.433781729710972
 20
77.40442632772411
 30
0.0
  0
VERTEX
  5
E802
  8
0
 10
38.125074867168053
 20
77.443867464200281
 30
0.0
  0
VERTEX
  5
E803
  8
0
 10
37.815027667315583
 20
77.48725532607682
 30
0.0
  0
VERTEX
  5
E804
  8
0
 10
36.716003535011048
 20
77.67059033444157
 30
0.0
  0
VERTEX
  5
E805
  8
0
 10
35.751111994950918
 20
77.867685272525961
 30
0.0
  0
SEQEND
  5
E806
  8
0
  0
LINE
  5
E47C
  8
0
 10
35.751111994950861
 20
82.225501625783764
 30
0.0
 11
35.751111994950861
 21
77.867685272525961
 31
0.0
  0
LINE
  5
E47D
  8
0
 10
46.934878179024452
 20
82.225501625783764
 30
0.0
 11
46.934878179024452
 21
77.867685272525961
 31
0.0
  0
POLYLINE
  5
E47E
  8
0
 66
     1
 10
0.0
 20
0.0
 30
0.0
  0
VERTEX
  5
E807
  8
0
 10
46.934878179024452
 20
77.867685272525961
 30
0.0
  0
VERTEX
  5
E808
  8
0
 10
45.969986638960677
 20
77.670590334441599
 30
0.0
  0
VERTEX
  5
E809
  8
0
 10
44.870962506653541
 20
77.487255326076848
 30
0.0
  0
VERTEX
  5
E80A
  8
0
 10
44.56091530680078
 20
77.443867464200309
 30
0.0
  0
VERTEX
  5
E80B
  8
0
 10
44.252208444257683
 20
77.404426327724124
 30
0.0
  0
VERTEX
  5
E80C
  8
0
 10
44.098286866512922
 20
77.386179921628141
 30
0.0
  0
VERTEX
  5
E80D
  8
0
 10
43.944615551347837
 20
77.368913888963135
 30
0.0
  0
VERTEX
  5
E80E
  8
0
 10
43.637910939574681
 20
77.337317910443829
 30
0.0
  0
VERTEX
  5
E80F
  8
0
 10
43.331869040897629
 20
77.309631949538613
 30
0.0
  0
VERTEX
  5
E810
  8
0
 10
43.026263844962038
 20
77.285855384857413
 30
0.0
  0
VERTEX
  5
E811
  8
0
 10
42.720868329282439
 20
77.265993464759902
 30
0.0
  0
VERTEX
  5
E812
  8
0
 10
42.415453879288521
 20
77.250057378510633
 30
0.0
  0
VERTEX
  5
E813
  8
0
 10
42.262667530855481
 20
77.243566666951565
 30
0.0
  0
VERTEX
  5
E814
  8
0
 10
42.109789695028951
 20
77.238064350767587
 30
0.0
  0
VERTEX
  5
E815
  8
0
 10
41.803642181176663
 20
77.230037760270719
 30
0.0
  0
VERTEX
  5
E816
  8
0
 10
41.496774316798501
 20
77.226007283785393
 30
0.0
  0
VERTEX
  5
E817
  8
0
 10
41.342995086987678
 20
77.225501625783778
 30
0.0
  0
SEQEND
  5
E818
  8
0
  0
LINE
  5
E47F
  8
3
 10
48.115995086987652
 20
87.225501625783764
 30
0.0
 11
48.115995086987709
 21
85.185501625783786
 31
0.0
  0
LINE
  5
E480
  8
3
 10
49.342995086987678
 20
82.225501625783764
 30
0.0
 11
48.115995086987709
 21
85.185501625783786
 31
0.0
  0
LINE
  5
E481
  8
0
 10
49.342995086987678
 20
85.185501625783786
 30
0.0
 11
33.342995086987692
 21
85.185501625783758
 31
0.0
  0
LINE
  5
E482
  8
3
 10
34.56999508698761
 20
87.225501625783764
 30
0.0
 11
34.56999508698766
 21
85.185501625783758
 31
0.0
  0
LINE
  5
E483
  8
3
 10
33.342995086987692
 20
82.225501625783764
 30
0.0
 11
34.56999508698766
 21
85.185501625783758
 31
0.0
  0
LINE
  5
E484
  8
0
 10
51.842995086987678
 20
117.1588349591171
 30
0.0
 11
51.842995086987678
 21
122.8255016257838
 31
0.0
  0
LINE
  5
E485
  8
0
 10
30.842995086987688
 20
122.8255016257838
 30
0.0
 11
30.842995086987688
 21
117.1588349591171
 31
0.0
  0
ARC
  5
E486
  8
0
 10
29.976328420321011
 20
116.0255016257838
 30
0.0
 40
1.1333333333333291
 50
90.0
 51
180.0
  0
ARC
  5
E487
  8
0
 10
52.709661753654359
 20
116.0255016257838
 30
0.0
 40
1.1333333333333311
 50
0.0
 51
90.0
  0
LINE
  5
E488
  8
0
 10
53.842995086987678
 20
114.89216829245041
 30
0.0
 11
53.842995086987678
 21
116.0255016257838
 31
0.0
  0
LINE
  5
E489
  8
0
 10
28.842995086987688
 20
116.0255016257838
 30
0.0
 11
28.842995086987688
 21
114.89216829245041
 31
0.0
  0
LINE
  5
E48A
  8
0
 10
51.842995086987678
 20
109.22550162578371
 30
0.0
 11
51.842995086987678
 21
114.89216829245041
 31
0.0
  0
LINE
  5
E48B
  8
0
 10
30.842995086987688
 20
114.89216829245041
 30
0.0
 11
30.842995086987688
 21
109.22550162578371
 31
0.0
  0
ARC
  5
E48C
  8
0
 10
29.976328420321011
 20
108.0921682924504
 30
0.0
 40
1.1333333333333351
 50
90.0
 51
180.0
  0
ARC
  5
E48D
  8
0
 10
52.709661753654359
 20
108.0921682924504
 30
0.0
 40
1.133333333333334
 50
0.0
 51
90.0
  0
LINE
  5
E48E
  8
0
 10
53.842995086987678
 20
106.9588349591171
 30
0.0
 11
53.842995086987678
 21
108.0921682924504
 31
0.0
  0
LINE
  5
E48F
  8
0
 10
28.842995086987688
 20
108.0921682924504
 30
0.0
 11
28.842995086987688
 21
106.9588349591171
 31
0.0
  0
LINE
  5
E490
  8
0
 10
52.342995086987678
 20
101.2921682924504
 30
0.0
 11
52.342995086987678
 21
106.9588349591171
 31
0.0
  0
LINE
  5
E491
  8
0
 10
30.342995086987688
 20
106.9588349591171
 30
0.0
 11
30.342995086987688
 21
101.2921682924504
 31
0.0
  0
LINE
  5
E492
  8
0
 10
53.842995086987678
 20
95.625501625783784
 30
0.0
 11
53.247404420482212
 21
101.2921682924504
 31
0.0
  0
LINE
  5
E493
  8
0
 10
29.438585753493161
 20
101.2921682924504
 30
0.0
 11
28.842995086987688
 21
95.625501625783784
 31
0.0
  0
LINE
  5
E494
  8
0
 10
51.842995086987678
 20
92.225501625783764
 30
0.0
 11
51.842995086987678
 21
95.625501625783784
 31
0.0
  0
LINE
  5
E495
  8
0
 10
30.842995086987688
 20
95.625501625783784
 30
0.0
 11
30.842995086987688
 21
92.225501625783764
 31
0.0
  0
LINE
  5
E496
  8
0
 10
29.976328420321011
 20
117.1588349591171
 30
0.0
 11
52.709661753654359
 21
117.1588349591171
 31
0.0
  0
LINE
  5
E498
  8
0
 10
28.842995086987688
 20
114.89216829245041
 30
0.0
 11
53.842995086987678
 21
114.89216829245041
 31
0.0
  0
LINE
  5
E499
  8
0
 10
29.976328420321011
 20
109.22550162578371
 30
0.0
 11
52.709661753654359
 21
109.22550162578371
 31
0.0
  0
LINE
  5
E49B
  8
0
 10
28.842995086987688
 20
106.9588349591171
 30
0.0
 11
53.842995086987678
 21
106.9588349591171
 31
0.0
  0
LINE
  5
E49C
  8
0
 10
29.438585753493161
 20
101.2921682924504
 30
0.0
 11
53.247404420482212
 21
101.2921682924504
 31
0.0
  0
LINE
  5
E49D
  8
0
 10
28.842995086987688
 20
95.625501625783784
 30
0.0
 11
53.842995086987678
 21
95.625501625783784
 31
0.0
  0
LINE
  5
E49E
  8
0
 10
53.842995086987678
 20
92.225501625783764
 30
0.0
 11
28.842995086987688
 21
92.225501625783764
 31
0.0
  0
LINE
  5
E4A0
  8
0
 10
28.842995086987688
 20
88.358834959117118
 30
0.0
 11
28.842995086987688
 21
92.225501625783764
 31
0.0
  0
LINE
  5
E4A1
  8
0
 10
28.842995086987688
 20
88.358834959117118
 30
0.0
 11
29.976328420321011
 21
87.225501625783764
 31
0.0
  0
LINE
  5
E4A3
  8
0
 10
53.842995086987678
 20
88.358834959117118
 30
0.0
 11
53.842995086987678
 21
92.225501625783764
 31
0.0
  0
LINE
  5
E4A4
  8
0
 10
52.709661753654359
 20
87.225501625783764
 30
0.0
 11
53.842995086987678
 21
88.358834959117118
 31
0.0
  0
LINE
  5
E4A5
  8
0
 10
52.709661753654359
 20
87.225501625783764
 30
0.0
 11
29.976328420321011
 21
87.225501625783764
 31
0.0
  0
LINE
  5
E4A9
  8
0
 10
28.842995086987688
 20
122.8255016257838
 30
0.0
 11
53.842995086987678
 21
122.8255016257838
 31
0.0
  0
LINE
  5
E4AA
  8
0
 10
28.842995086987688
 20
122.8255016257838
 30
0.0
 11
29.200349486891021
 21
126.22550162578381
 31
0.0
  0
LINE
  5
E4AB
  8
0
 10
29.200349486891021
 20
126.22550162578381
 30
0.0
 11
53.485640687084349
 21
126.22550162578381
 31
0.0
  0
LINE
  5
E4AC
  8
0
 10
53.485640687084349
 20
126.22550162578381
 30
0.0
 11
53.842995086987678
 21
122.8255016257838
 31
0.0
  0
LINE
  5
E5CF
  8
1
 10
24.842995086987681
 20
32.225501625783778
 30
0.0
 11
57.842995086987692
 21
32.225501625783778
 31
0.0
  0
LINE
  5
E5D0
  8
1
 10
41.342995086987621
 20
15.72550162578375
 30
0.0
 11
41.342995086987621
 21
48.72550162578375
 31
0.0
  0
LINE
  5
E5D1
  8
0
 10
46.934878179024452
 20
18.72550162578375
 30
0.0
 11
54.842995086987678
 21
26.633618533746979
 31
0.0
  0
LINE
  5
E5D3
  8
0
 10
54.842995086987678
 20
26.633618533746979
 30
0.0
 11
54.842995086987678
 21
37.817384717820516
 31
0.0
  0
LINE
  5
E5D5
  8
0
 10
54.842995086987678
 20
37.817384717820502
 30
0.0
 11
46.934878179024452
 21
45.72550162578375
 31
0.0
  0
LINE
  5
E5D6
  8
0
 10
46.934878179024501
 20
45.72550162578375
 30
0.0
 11
35.751111994950918
 21
45.72550162578375
 31
0.0
  0
LINE
  5
E5D7
  8
0
 10
35.751111994950918
 20
45.72550162578375
 30
0.0
 11
27.842995086987688
 21
37.817384717820516
 31
0.0
  0
LINE
  5
E5D9
  8
0
 10
27.842995086987688
 20
37.817384717820516
 30
0.0
 11
27.842995086987688
 21
26.633618533746951
 31
0.0
  0
LINE
  5
E5DB
  8
0
 10
27.842995086987688
 20
26.633618533746962
 30
0.0
 11
35.751111994950861
 21
18.72550162578375
 31
0.0
  0
LINE
  5
E5DC
  8
0
 10
35.751111994950861
 20
18.72550162578375
 30
0.0
 11
46.934878179024452
 21
18.72550162578375
 31
0.0
  0
LINE
  5
E5DF
  8
0
 10
53.842995086987678
 20
19.72550162578375
 30
0.0
 11
53.842995086987678
 21
25.633618533747079
 31
0.0
  0
LINE
  5
E5E0
  8
0
 10
28.842995086987688
 20
19.72550162578375
 30
0.0
 11
28.842995086987688
 21
25.633618533747001
 31
0.0
  0
LINE
  5
E5E4
  8
0
 10
28.842995086987688
 20
44.725501625783743
 30
0.0
 11
34.751111994950918
 21
44.725501625783743
 31
0.0
  0
LINE
  5
E5E6
  8
0
 10
28.842995086987688
 20
19.72550162578375
 30
0.0
 11
34.751111994950918
 21
19.72550162578375
 31
0.0
  0
LINE
  5
E610
  8
2
 10
93.342995086987685
 20
117.9985016257838
 30
0.0
 11
93.342995086987685
 21
87.225501625783764
 31
0.0
  0
LINE
  5
E611
  8
2
 10
109.3429950869877
 20
87.225501625783764
 30
0.0
 11
109.3429950869877
 21
117.9985016257838
 31
0.0
  0
LINE
  5
E612
  8
2
 10
94.56999508698766
 20
119.22550162578381
 30
0.0
 11
93.342995086987685
 21
117.9985016257838
 31
0.0
  0
LINE
  5
E613
  8
2
 10
109.3429950869877
 20
117.9985016257838
 30
0.0
 11
108.1159950869877
 21
119.22550162578381
 31
0.0
  0
LINE
  5
E615
  8
2
 10
93.342995086987685
 20
117.9985016257838
 30
0.0
 11
109.3429950869877
 21
117.9985016257838
 31
0.0
  0
LINE
  5
E616
  8
2
 10
94.56999508698766
 20
119.22550162578381
 30
0.0
 11
108.1159950869877
 21
119.22550162578381
 31
0.0
  0
LINE
  5
E624
  8
1
 10
101.3429950869877
 20
129.22550162578381
 30
0.0
 11
101.3429950869877
 21
74.225501625783778
 31
0.0
  0
LINE
  5
E625
  8
0
 10
93.342995086987685
 20
87.225501625783764
 30
0.0
 11
93.342995086987685
 21
82.225501625783764
 31
0.0
  0
LINE
  5
E626
  8
0
 10
109.3429950869877
 20
82.225501625783764
 30
0.0
 11
109.3429950869877
 21
87.225501625783764
 31
0.0
  0
LINE
  5
E627
  8
0
 10
114.8429950869877
 20
77.225501625783778
 30
0.0
 11
87.842995086987685
 21
77.225501625783778
 31
0.0
  0
LINE
  5
E628
  8
0
 10
87.842995086987685
 20
82.225501625783764
 30
0.0
 11
114.8429950869877
 21
82.225501625783764
 31
0.0
  0
POLYLINE
  5
E629
  8
0
 66
     1
 10
0.0
 20
0.0
 30
0.0
  0
VERTEX
  5
E819
  8
0
 10
95.751111994950918
 20
77.867685272525961
 30
0.0
  0
VERTEX
  5
E81A
  8
0
 10
95.068830643862285
 20
77.670590334441599
 30
0.0
  0
VERTEX
  5
E81B
  8
0
 10
94.291703227220296
 20
77.487255326076848
 30
0.0
  0
VERTEX
  5
E81C
  8
0
 10
94.072466749716455
 20
77.443867464200309
 30
0.0
  0
VERTEX
  5
E81D
  8
0
 10
93.854178033813355
 20
77.404426327724124
 30
0.0
  0
VERTEX
  5
E81E
  8
0
 10
93.745339042419118
 20
77.386179921628141
 30
0.0
  0
VERTEX
  5
E81F
  8
0
 10
93.636677013392045
 20
77.368913888963121
 30
0.0
  0
VERTEX
  5
E820
  8
0
 10
93.419804102586113
 20
77.337317910443829
 30
0.0
  0
VERTEX
  5
E821
  8
0
 10
93.203399800704346
 20
77.309631949538613
 30
0.0
  0
VERTEX
  5
E822
  8
0
 10
92.987304294292457
 20
77.285855384857413
 30
0.0
  0
VERTEX
  5
E823
  8
0
 10
92.771357054211435
 20
77.265993464759902
 30
0.0
  0
VERTEX
  5
E824
  8
0
 10
92.555396425548338
 20
77.250057378510633
 30
0.0
  0
VERTEX
  5
E825
  8
0
 10
92.447360162498626
 20
77.243566666951565
 30
0.0
  0
VERTEX
  5
E826
  8
0
 10
92.339259208092585
 20
77.238064350767587
 30
0.0
  0
VERTEX
  5
E827
  8
0
 10
92.122780225004135
 20
77.230037760270719
 30
0.0
  0
VERTEX
  5
E828
  8
0
 10
91.905791877174181
 20
77.226007283785393
 30
0.0
  0
VERTEX
  5
E829
  8
0
 10
91.797053540969273
 20
77.225501625783778
 30
0.0
  0
SEQEND
  5
E82A
  8
0
  0
POLYLINE
  5
E62A
  8
0
 66
     1
 10
0.0
 20
0.0
 30
0.0
  0
VERTEX
  5
E82B
  8
0
 10
91.797053540969273
 20
77.225501625783778
 30
0.0
  0
VERTEX
  5
E82C
  8
0
 10
91.688315204763853
 20
77.226007283785393
 30
0.0
  0
VERTEX
  5
E82D
  8
0
 10
91.471326856932876
 20
77.230037760270719
 30
0.0
  0
VERTEX
  5
E82E
  8
0
 10
91.254847873843644
 20
77.238064350767587
 30
0.0
  0
VERTEX
  5
E82F
  8
0
 10
91.146746919437192
 20
77.243566666951565
 30
0.0
  0
VERTEX
  5
E830
  8
0
 10
91.038710656387124
 20
77.250057378510633
 30
0.0
  0
VERTEX
  5
E831
  8
0
 10
90.822750027723487
 20
77.265993464759902
 30
0.0
  0
VERTEX
  5
E832
  8
0
 10
90.606802787641982
 20
77.285855384857413
 30
0.0
  0
VERTEX
  5
E833
  8
0
 10
90.390707281229766
 20
77.309631949538598
 30
0.0
  0
VERTEX
  5
E834
  8
0
 10
90.174302979347786
 20
77.337317910443815
 30
0.0
  0
VERTEX
  5
E835
  8
0
 10
89.957430068541726
 20
77.368913888963107
 30
0.0
  0
VERTEX
  5
E836
  8
0
 10
89.848768039514653
 20
77.386179921628127
 30
0.0
  0
VERTEX
  5
E837
  8
0
 10
89.739929048120416
 20
77.40442632772411
 30
0.0
  0
VERTEX
  5
E838
  8
0
 10
89.521640332217544
 20
77.443867464200281
 30
0.0
  0
VERTEX
  5
E839
  8
0
 10
89.302403854713916
 20
77.48725532607682
 30
0.0
  0
VERTEX
  5
E83A
  8
0
 10
88.525276438073718
 20
77.67059033444157
 30
0.0
  0
VERTEX
  5
E83B
  8
0
 10
87.842995086987685
 20
77.867685272525961
 30
0.0
  0
SEQEND
  5
E83C
  8
0
  0
LINE
  5
E62B
  8
0
 10
95.751111994950861
 20
82.225501625783764
 30
0.0
 11
95.751111994950861
 21
77.867685272525961
 31
0.0
  0
POLYLINE
  5
E62C
  8
0
 66
     1
 10
0.0
 20
0.0
 30
0.0
  0
VERTEX
  5
E83D
  8
0
 10
106.93487817902439
 20
77.867685272525961
 30
0.0
  0
VERTEX
  5
E83E
  8
0
 10
105.96998663896071
 20
77.670590334441599
 30
0.0
  0
VERTEX
  5
E83F
  8
0
 10
104.8709625066535
 20
77.487255326076848
 30
0.0
  0
VERTEX
  5
E840
  8
0
 10
104.56091530680079
 20
77.443867464200309
 30
0.0
  0
VERTEX
  5
E841
  8
0
 10
104.2522084442577
 20
77.404426327724124
 30
0.0
  0
VERTEX
  5
E842
  8
0
 10
104.09828686651289
 20
77.386179921628141
 30
0.0
  0
VERTEX
  5
E843
  8
0
 10
103.94461555134779
 20
77.368913888963135
 30
0.0
  0
VERTEX
  5
E844
  8
0
 10
103.6379109395747
 20
77.337317910443829
 30
0.0
  0
VERTEX
  5
E845
  8
0
 10
103.3318690408976
 20
77.309631949538613
 30
0.0
  0
VERTEX
  5
E846
  8
0
 10
103.026263844962
 20
77.285855384857413
 30
0.0
  0
VERTEX
  5
E847
  8
0
 10
102.7208683292824
 20
77.265993464759902
 30
0.0
  0
VERTEX
  5
E848
  8
0
 10
102.41545387928851
 20
77.250057378510633
 30
0.0
  0
VERTEX
  5
E849
  8
0
 10
102.2626675308555
 20
77.243566666951565
 30
0.0
  0
VERTEX
  5
E84A
  8
0
 10
102.10978969502889
 20
77.238064350767587
 30
0.0
  0
VERTEX
  5
E84B
  8
0
 10
101.8036421811766
 20
77.230037760270719
 30
0.0
  0
VERTEX
  5
E84C
  8
0
 10
101.49677431679849
 20
77.226007283785393
 30
0.0
  0
VERTEX
  5
E84D
  8
0
 10
101.3429950869877
 20
77.225501625783778
 30
0.0
  0
SEQEND
  5
E84E
  8
0
  0
POLYLINE
  5
E62D
  8
0
 66
     1
 10
0.0
 20
0.0
 30
0.0
  0
VERTEX
  5
E84F
  8
0
 10
101.3429950869877
 20
77.225501625783778
 30
0.0
  0
VERTEX
  5
E850
  8
0
 10
101.18921585717609
 20
77.226007283785393
 30
0.0
  0
VERTEX
  5
E851
  8
0
 10
100.8823479927965
 20
77.230037760270719
 30
0.0
  0
VERTEX
  5
E852
  8
0
 10
100.57620047894299
 20
77.238064350767587
 30
0.0
  0
VERTEX
  5
E853
  8
0
 10
100.4233226431159
 20
77.243566666951565
 30
0.0
  0
VERTEX
  5
E854
  8
0
 10
100.2705362946824
 20
77.250057378510633
 30
0.0
  0
VERTEX
  5
E855
  8
0
 10
99.965121844687701
 20
77.265993464759902
 30
0.0
  0
VERTEX
  5
E856
  8
0
 10
99.659726329007427
 20
77.285855384857413
 30
0.0
  0
VERTEX
  5
E857
  8
0
 10
99.354121133071374
 20
77.309631949538598
 30
0.0
  0
VERTEX
  5
E858
  8
0
 10
99.048079234393995
 20
77.337317910443815
 30
0.0
  0
VERTEX
  5
E859
  8
0
 10
98.741374622620697
 20
77.368913888963107
 30
0.0
  0
VERTEX
  5
E85A
  8
0
 10
98.587703307455683
 20
77.386179921628127
 30
0.0
  0
VERTEX
  5
E85B
  8
0
 10
98.433781729710986
 20
77.40442632772411
 30
0.0
  0
VERTEX
  5
E85C
  8
0
 10
98.125074867168053
 20
77.443867464200281
 30
0.0
  0
VERTEX
  5
E85D
  8
0
 10
97.815027667315576
 20
77.48725532607682
 30
0.0
  0
VERTEX
  5
E85E
  8
0
 10
96.716003535011055
 20
77.67059033444157
 30
0.0
  0
VERTEX
  5
E85F
  8
0
 10
95.751111994950918
 20
77.867685272525961
 30
0.0
  0
SEQEND
  5
E860
  8
0
  0
LINE
  5
E62E
  8
0
 10
106.93487817902439
 20
82.225501625783764
 30
0.0
 11
106.93487817902439
 21
77.867685272525961
 31
0.0
  0
POLYLINE
  5
E62F
  8
0
 66
     1
 10
0.0
 20
0.0
 30
0.0
  0
VERTEX
  5
E861
  8
0
 10
114.8429950869877
 20
77.867685272525961
 30
0.0
  0
VERTEX
  5
E862
  8
0
 10
114.16071373589899
 20
77.670590334441599
 30
0.0
  0
VERTEX
  5
E863
  8
0
 10
113.38358631925701
 20
77.487255326076848
 30
0.0
  0
VERTEX
  5
E864
  8
0
 10
113.16434984175319
 20
77.443867464200309
 30
0.0
  0
VERTEX
  5
E865
  8
0
 10
112.94606112585009
 20
77.404426327724124
 30
0.0
  0
VERTEX
  5
E866
  8
0
 10
112.8372221344559
 20
77.386179921628141
 30
0.0
  0
VERTEX
  5
E867
  8
0
 10
112.7285601054288
 20
77.368913888963121
 30
0.0
  0
VERTEX
  5
E868
  8
0
 10
112.51168719462289
 20
77.337317910443829
 30
0.0
  0
VERTEX
  5
E869
  8
0
 10
112.2952828927411
 20
77.309631949538613
 30
0.0
  0
VERTEX
  5
E86A
  8
0
 10
112.0791873863292
 20
77.285855384857413
 30
0.0
  0
VERTEX
  5
E86B
  8
0
 10
111.8632401462482
 20
77.265993464759902
 30
0.0
  0
VERTEX
  5
E86C
  8
0
 10
111.6472795175851
 20
77.250057378510633
 30
0.0
  0
VERTEX
  5
E86D
  8
0
 10
111.53924325453541
 20
77.243566666951565
 30
0.0
  0
VERTEX
  5
E86E
  8
0
 10
111.4311423001293
 20
77.238064350767587
 30
0.0
  0
VERTEX
  5
E86F
  8
0
 10
111.2146633170409
 20
77.230037760270719
 30
0.0
  0
VERTEX
  5
E870
  8
0
 10
110.99767496921091
 20
77.226007283785393
 30
0.0
  0
VERTEX
  5
E871
  8
0
 10
110.8889366330061
 20
77.225501625783778
 30
0.0
  0
SEQEND
  5
E872
  8
0
  0
POLYLINE
  5
E630
  8
0
 66
     1
 10
0.0
 20
0.0
 30
0.0
  0
VERTEX
  5
E873
  8
0
 10
110.8889366330061
 20
77.225501625783778
 30
0.0
  0
VERTEX
  5
E874
  8
0
 10
110.78019829680071
 20
77.226007283785393
 30
0.0
  0
VERTEX
  5
E875
  8
0
 10
110.5632099489696
 20
77.230037760270719
 30
0.0
  0
VERTEX
  5
E876
  8
0
 10
110.3467309658804
 20
77.238064350767587
 30
0.0
  0
VERTEX
  5
E877
  8
0
 10
110.2386300114739
 20
77.243566666951565
 30
0.0
  0
VERTEX
  5
E878
  8
0
 10
110.13059374842391
 20
77.250057378510633
 30
0.0
  0
VERTEX
  5
E879
  8
0
 10
109.9146331197602
 20
77.265993464759902
 30
0.0
  0
VERTEX
  5
E87A
  8
0
 10
109.69868587967871
 20
77.285855384857413
 30
0.0
  0
VERTEX
  5
E87B
  8
0
 10
109.4825903732665
 20
77.309631949538598
 30
0.0
  0
VERTEX
  5
E87C
  8
0
 10
109.2661860713846
 20
77.337317910443815
 30
0.0
  0
VERTEX
  5
E87D
  8
0
 10
109.04931316057851
 20
77.368913888963107
 30
0.0
  0
VERTEX
  5
E87E
  8
0
 10
108.94065113155141
 20
77.386179921628127
 30
0.0
  0
VERTEX
  5
E87F
  8
0
 10
108.8318121401572
 20
77.40442632772411
 30
0.0
  0
VERTEX
  5
E880
  8
0
 10
108.6135234242543
 20
77.443867464200281
 30
0.0
  0
VERTEX
  5
E881
  8
0
 10
108.3942869467507
 20
77.48725532607682
 30
0.0
  0
VERTEX
  5
E882
  8
0
 10
107.6171595301105
 20
77.67059033444157
 30
0.0
  0
VERTEX
  5
E883
  8
0
 10
106.93487817902439
 20
77.867685272525961
 30
0.0
  0
SEQEND
  5
E884
  8
0
  0
LINE
  5
E631
  8
0
 10
114.8429950869877
 20
82.225501625783764
 30
0.0
 11
114.8429950869877
 21
77.225501625783778
 31
0.0
  0
LINE
  5
E632
  8
0
 10
87.842995086987685
 20
82.225501625783764
 30
0.0
 11
87.842995086987685
 21
77.225501625783778
 31
0.0
  0
LINE
  5
E633
  8
3
 10
108.1159950869877
 20
87.225501625783764
 30
0.0
 11
108.1159950869877
 21
85.185501625783786
 31
0.0
  0
LINE
  5
E634
  8
3
 10
109.3429950869877
 20
82.225501625783764
 30
0.0
 11
108.1159950869877
 21
85.185501625783786
 31
0.0
  0
LINE
  5
E635
  8
0
 10
109.3429950869877
 20
85.185501625783786
 30
0.0
 11
93.342995086987685
 21
85.185501625783758
 31
0.0
  0
LINE
  5
E636
  8
3
 10
94.569995086987603
 20
87.225501625783764
 30
0.0
 11
94.56999508698766
 21
85.185501625783758
 31
0.0
  0
LINE
  5
E637
  8
3
 10
93.342995086987685
 20
82.225501625783764
 30
0.0
 11
94.56999508698766
 21
85.185501625783758
 31
0.0
  0
LINE
  5
E638
  8
0
 10
111.8429950869877
 20
117.1588349591171
 30
0.0
 11
111.8429950869877
 21
122.8255016257838
 31
0.0
  0
LINE
  5
E639
  8
0
 10
90.842995086987685
 20
122.8255016257838
 30
0.0
 11
90.842995086987685
 21
117.1588349591171
 31
0.0
  0
ARC
  5
E63A
  8
0
 10
89.976328420321025
 20
116.0255016257838
 30
0.0
 40
1.1333333333333291
 50
90.0
 51
180.0
  0
ARC
  5
E63B
  8
0
 10
112.7096617536543
 20
116.0255016257838
 30
0.0
 40
1.1333333333333311
 50
0.0
 51
90.0
  0
LINE
  5
E63C
  8
0
 10
113.8429950869877
 20
114.89216829245041
 30
0.0
 11
113.8429950869877
 21
116.0255016257838
 31
0.0
  0
LINE
  5
E63D
  8
0
 10
88.842995086987685
 20
116.0255016257838
 30
0.0
 11
88.842995086987685
 21
114.89216829245041
 31
0.0
  0
LINE
  5
E63E
  8
0
 10
111.8429950869877
 20
109.22550162578371
 30
0.0
 11
111.8429950869877
 21
114.89216829245041
 31
0.0
  0
LINE
  5
E63F
  8
0
 10
90.842995086987685
 20
114.89216829245041
 30
0.0
 11
90.842995086987685
 21
109.22550162578371
 31
0.0
  0
ARC
  5
E640
  8
0
 10
89.976328420321025
 20
108.0921682924504
 30
0.0
 40
1.1333333333333351
 50
90.0
 51
180.0
  0
ARC
  5
E641
  8
0
 10
112.7096617536543
 20
108.0921682924504
 30
0.0
 40
1.133333333333334
 50
0.0
 51
90.0
  0
LINE
  5
E642
  8
0
 10
113.8429950869877
 20
106.9588349591171
 30
0.0
 11
113.8429950869877
 21
108.0921682924504
 31
0.0
  0
LINE
  5
E643
  8
0
 10
88.842995086987685
 20
108.0921682924504
 30
0.0
 11
88.842995086987685
 21
106.9588349591171
 31
0.0
  0
LINE
  5
E644
  8
0
 10
112.3429950869877
 20
101.2921682924504
 30
0.0
 11
112.3429950869877
 21
106.9588349591171
 31
0.0
  0
LINE
  5
E645
  8
0
 10
90.342995086987685
 20
106.9588349591171
 30
0.0
 11
90.342995086987685
 21
101.2921682924504
 31
0.0
  0
LINE
  5
E646
  8
0
 10
113.8429950869877
 20
95.625501625783784
 30
0.0
 11
113.2474044204822
 21
101.2921682924504
 31
0.0
  0
LINE
  5
E647
  8
0
 10
89.438585753493143
 20
101.2921682924504
 30
0.0
 11
88.842995086987685
 21
95.625501625783784
 31
0.0
  0
LINE
  5
E648
  8
0
 10
111.8429950869877
 20
92.225501625783764
 30
0.0
 11
111.8429950869877
 21
95.625501625783784
 31
0.0
  0
LINE
  5
E649
  8
0
 10
90.842995086987685
 20
95.625501625783784
 30
0.0
 11
90.842995086987685
 21
92.225501625783764
 31
0.0
  0
LINE
  5
E64A
  8
0
 10
89.976328420321025
 20
117.1588349591171
 30
0.0
 11
112.7096617536543
 21
117.1588349591171
 31
0.0
  0
LINE
  5
E64C
  8
0
 10
88.842995086987685
 20
114.89216829245041
 30
0.0
 11
113.8429950869877
 21
114.89216829245041
 31
0.0
  0
LINE
  5
E64D
  8
0
 10
89.976328420321025
 20
109.22550162578371
 30
0.0
 11
112.7096617536543
 21
109.22550162578371
 31
0.0
  0
LINE
  5
E64F
  8
0
 10
88.842995086987685
 20
106.9588349591171
 30
0.0
 11
113.8429950869877
 21
106.9588349591171
 31
0.0
  0
LINE
  5
E650
  8
0
 10
89.438585753493143
 20
101.2921682924504
 30
0.0
 11
113.2474044204822
 21
101.2921682924504
 31
0.0
  0
LINE
  5
E651
  8
0
 10
88.842995086987685
 20
95.625501625783784
 30
0.0
 11
113.8429950869877
 21
95.625501625783784
 31
0.0
  0
LINE
  5
E653
  8
0
 10
112.7096617536543
 20
87.225501625783764
 30
0.0
 11
89.976328420321025
 21
87.225501625783764
 31
0.0
  0
LINE
  5
E656
  8
0
 10
113.8429950869877
 20
88.358834959117118
 30
0.0
 11
113.8429950869877
 21
92.225501625783764
 31
0.0
  0
LINE
  5
E657
  8
0
 10
88.842995086987685
 20
88.358834959117118
 30
0.0
 11
88.842995086987685
 21
92.225501625783764
 31
0.0
  0
LINE
  5
E658
  8
0
 10
113.8429950869877
 20
92.225501625783764
 30
0.0
 11
88.842995086987685
 21
92.225501625783764
 31
0.0
  0
LINE
  5
E65B
  8
0
 10
112.7096617536543
 20
87.225501625783764
 30
0.0
 11
113.8429950869877
 21
88.358834959117118
 31
0.0
  0
LINE
  5
E65C
  8
0
 10
88.842995086987685
 20
88.358834959117118
 30
0.0
 11
89.976328420321025
 21
87.225501625783764
 31
0.0
  0
LINE
  5
E65D
  8
0
 10
89.200349486891014
 20
126.22550162578381
 30
0.0
 11
113.4856406870843
 21
126.22550162578381
 31
0.0
  0
LINE
  5
E65E
  8
0
 10
88.842995086987685
 20
122.8255016257838
 30
0.0
 11
113.8429950869877
 21
122.8255016257838
 31
0.0
  0
LINE
  5
E65F
  8
0
 10
113.8429950869877
 20
122.8255016257838
 30
0.0
 11
113.4856406870843
 21
126.22550162578381
 31
0.0
  0
LINE
  5
E660
  8
0
 10
89.200349486891014
 20
126.22550162578381
 30
0.0
 11
88.842995086987685
 21
122.8255016257838
 31
0.0
  0
LINE
  5
E67D
  8
0
 10
47.934878179024452
 20
44.725501625783743
 30
0.0
 11
53.842995086987678
 21
44.725501625783743
 31
0.0
  0
LINE
  5
E67E
  8
0
 10
28.842995086987742
 20
38.817384717820538
 30
0.0
 11
28.842995086987688
 21
44.725501625783743
 31
0.0
  0
LINE
  5
E67F
  8
0
 10
47.934878179024388
 20
19.72550162578375
 30
0.0
 11
53.842995086987678
 21
19.72550162578375
 31
0.0
  0
LINE
  5
E680
  8
0
 10
53.842995086987678
 20
38.817384717820502
 30
0.0
 11
53.842995086987678
 21
44.725501625783743
 31
0.0
  0
LINE
  5
E687
  8
2
 10
33.342995086987692
 20
126.22550162578371
 30
0.0
 11
33.342995086987692
 21
117.9985016257838
 31
0.0
  0
LINE
  5
E688
  8
2
 10
49.342995086987678
 20
117.9985016257838
 30
0.0
 11
49.342995086987742
 21
126.22550162578371
 31
0.0
  0
LINE
  5
E68D
  8
2
 10
108.1159950869876
 20
87.225501625783764
 30
0.0
 11
108.1159950869876
 21
119.22550162578381
 31
0.0
  0
LINE
  5
E68E
  8
2
 10
94.569995086987603
 20
119.22550162578381
 30
0.0
 11
94.569995086987603
 21
87.225501625783764
 31
0.0
  0
LINE
  5
E68F
  8
2
 10
93.342995086987685
 20
126.22550162578371
 30
0.0
 11
93.342995086987685
 21
117.9985016257838
 31
0.0
  0
LINE
  5
E690
  8
2
 10
109.3429950869877
 20
117.9985016257838
 30
0.0
 11
109.3429950869877
 21
126.22550162578371
 31
0.0
  0
TEXT
  5
E754
  8
0
 62
     3
 10
0.0
 20
0.0
 30
0.0
 40
10.0
  1
NDAQ25-M16X30
  7
STANDARD1
  0
ENDSEC
  0
EOF
