  0
SECTION
  2
HEADER
  9
$ACADVER
  1
AC1009
  9
$INSBASE
 10
0.0
 20
0.0
 30
0.0
  9
$EXTMIN
 10
0.0
 20
-2.960436562073669
 30
0.0
  9
$EXTMAX
 10
94.748459784021378
 20
112.8925094790383
 30
0.0
  9
$LIMMIN
 10
0.0
 20
0.0
  9
$LIMMAX
 10
375.0
 20
270.0
  9
$ORTHOMODE
 70
     1
  9
$REGENMODE
 70
     1
  9
$FILLMODE
 70
     1
  9
$QTEXTMODE
 70
     0
  9
$MIRRTEXT
 70
     0
  9
$DRAGMODE
 70
     2
  9
$LTSCALE
 40
6.0
  9
$OSMODE
 70
    37
  9
$ATTMODE
 70
     1
  9
$TEXTSIZE
 40
0.2
  9
$TRACEWID
 40
0.05
  9
$TEXTSTYLE
  7
STANDARD
  9
$CLAYER
  8
0
  9
$CELTYPE
  6
BYLAYER
  9
$CECOLOR
 62
   256
  9
$DIMSCALE
 40
1.0
  9
$DIMASZ
 40
3.0
  9
$DIMEXO
 40
1.0
  9
$DIMDLI
 40
6.0
  9
$DIMRND
 40
0.0
  9
$DIMDLE
 40
0.0
  9
$DIMEXE
 40
1.0
  9
$DIMTP
 40
495.0
  9
$DIMTM
 40
0.0
  9
$DIMTXT
 40
3.0
  9
$DIMCEN
 40
0.0
  9
$DIMTSZ
 40
0.0
  9
$DIMTOL
 70
     0
  9
$DIMLIM
 70
     0
  9
$DIMTIH
 70
     0
  9
$DIMTOH
 70
     0
  9
$DIMSE1
 70
     0
  9
$DIMSE2
 70
     0
  9
$DIMTAD
 70
     1
  9
$DIMZIN
 70
     0
  9
$DIMBLK
  1

  9
$DIMASO
 70
     0
  9
$DIMSHO
 70
     0
  9
$DIMPOST
  1

  9
$DIMAPOST
  1

  9
$DIMALT
 70
     0
  9
$DIMALTD
 70
     2
  9
$DIMALTF
 40
25.399999999999999
  9
$DIMLFAC
 40
1.0
  9
$DIMTOFL
 70
     1
  9
$DIMTVP
 40
0.0
  9
$DIMTIX
 70
     1
  9
$DIMSOXD
 70
     0
  9
$DIMSAH
 70
     0
  9
$DIMBLK1
  1

  9
$DIMBLK2
  1

  9
$DIMSTYLE
  2
STANDARD
  9
$DIMCLRD
 70
     0
  9
$DIMCLRE
 70
     0
  9
$DIMCLRT
 70
     4
  9
$DIMTFAC
 40
1.0
  9
$DIMGAP
 40
1.0
  9
$LUNITS
 70
     2
  9
$LUPREC
 70
     4
  9
$SKETCHINC
 40
0.1
  9
$FILLETRAD
 40
2.0
  9
$AUNITS
 70
     0
  9
$AUPREC
 70
     0
  9
$MENU
  1
C:\R13\WIN\SUPPORT\ACAD-I
  9
$ELEVATION
 40
0.0
  9
$PELEVATION
 40
0.0
  9
$THICKNESS
 40
0.0
  9
$LIMCHECK
 70
     0
  9
$BLIPMODE
 70
     0
  9
$CHAMFERA
 40
0.0
  9
$CHAMFERB
 40
0.0
  9
$SKPOLY
 70
     0
  9
$TDCREATE
 40
2451963.5438110419
  9
$TDUPDATE
 40
2456598.7257425701
  9
$TDINDWG
 40
0.1504970486
  9
$TDUSRTIMER
 40
2456598.1151101282
  9
$USRTIMER
 70
     1
  9
$ANGBASE
 50
0.0
  9
$ANGDIR
 70
     0
  9
$PDMODE
 70
     0
  9
$PDSIZE
 40
0.0
  9
$PLINEWID
 40
0.0
  9
$COORDS
 70
     1
  9
$SPLFRAME
 70
     0
  9
$SPLINETYPE
 70
     6
  9
$SPLINESEGS
 70
     8
  9
$ATTDIA
 70
     0
  9
$ATTREQ
 70
     1
  9
$HANDLING
 70
     1
  9
$HANDSEED
  5
E920
  9
$SURFTAB1
 70
     6
  9
$SURFTAB2
 70
     6
  9
$SURFTYPE
 70
     6
  9
$SURFU
 70
     6
  9
$SURFV
 70
     6
  9
$UCSNAME
  2

  9
$UCSORG
 10
0.0
 20
0.0
 30
0.0
  9
$UCSXDIR
 10
1.0
 20
0.0
 30
0.0
  9
$UCSYDIR
 10
0.0
 20
1.0
 30
0.0
  9
$PUCSNAME
  2

  9
$PUCSORG
 10
0.0
 20
0.0
 30
0.0
  9
$PUCSXDIR
 10
1.0
 20
0.0
 30
0.0
  9
$PUCSYDIR
 10
0.0
 20
1.0
 30
0.0
  9
$USERI1
 70
     4
  9
$USERI2
 70
     1
  9
$USERI3
 70
     0
  9
$USERI4
 70
     0
  9
$USERI5
 70
     0
  9
$USERR1
 40
1.0
  9
$USERR2
 40
3.0
  9
$USERR3
 40
3.0
  9
$USERR4
 40
3.0
  9
$USERR5
 40
10.0
  9
$WORLDVIEW
 70
     1
  9
$SHADEDGE
 70
     3
  9
$SHADEDIF
 70
    70
  9
$TILEMODE
 70
     1
  9
$MAXACTVP
 70
    16
  9
$PLIMCHECK
 70
     0
  9
$PEXTMIN
 10
1.0000000000000000E+020
 20
1.0000000000000000E+020
 30
1.0000000000000000E+020
  9
$PEXTMAX
 10
-1.0000000000000000E+020
 20
-1.0000000000000000E+020
 30
-1.0000000000000000E+020
  9
$PLIMMIN
 10
0.0
 20
0.0
  9
$PLIMMAX
 10
12.0
 20
9.0
  9
$UNITMODE
 70
     0
  9
$VISRETAIN
 70
     0
  9
$PLINEGEN
 70
     0
  9
$PSLTSCALE
 70
     0
  0
ENDSEC
  0
SECTION
  2
TABLES
  0
TABLE
  2
VPORT
 70
     1
  0
VPORT
  2
*ACTIVE
 70
     0
 10
0.0
 20
0.0
 11
1.0
 21
1.0
 12
187.49427839065231
 22
177.52205812711131
 13
0.0
 23
0.0
 14
10.0
 24
10.0
 15
10.0
 25
10.0
 16
0.0
 26
0.0
 36
1.0
 17
0.0
 27
0.0
 37
0.0
 40
364.13085016302909
 41
1.755244755244755
 42
50.0
 43
0.0
 44
0.0
 50
0.0
 51
0.0
 71
     0
 72
   100
 73
     1
 74
     0
 75
     0
 76
     0
 77
     0
 78
     0
  0
ENDTAB
  0
TABLE
  2
LTYPE
 70
     4
  0
LTYPE
  2
CONTINUOUS
 70
     0
  3
Solid Line
 72
    65
 73
     0
 40
0.0
  0
LTYPE
  2
CENTER
 70
     0
  3
____ _ ____ _ ____ _ ____ _ ____ _ ____ _ ____
 72
    65
 73
     4
 40
2.0
 49
1.25
 49
-0.25
 49
0.25
 49
-0.25
  0
LTYPE
  2
HIDDEN
 70
     0
  3
_ _ _ _ _ _ _ _ _ _ _ _ _ _ _ _ _ _ _ _ _ _ _
 72
    65
 73
     2
 40
0.375
 49
0.25
 49
-0.125
  0
LTYPE
  2
PHANTOM2
 70
     0
  3
___ _ _ ___ _ _ ___ _ _ ___ _ _
 72
    65
 73
     6
 40
1.25
 49
0.625
 49
-0.125
 49
0.125
 49
-0.125
 49
0.125
 49
-0.125
  0
ENDTAB
  0
TABLE
  2
LAYER
 70
     5
  0
LAYER
  2
0
 70
     0
 62
     7
  6
CONTINUOUS
  0
LAYER
  2
1
 70
     0
 62
     1
  6
CENTER
  0
LAYER
  2
3
 70
     0
 62
     3
  6
CONTINUOUS
  0
LAYER
  2
2
 70
     0
 62
     2
  6
HIDDEN
  0
LAYER
  2
DEFPOINTS
 70
     0
 62
     7
  6
CONTINUOUS
  0
ENDTAB
  0
TABLE
  2
STYLE
 70
     2
  0
STYLE
  2
STANDARD
 70
     0
 40
0.0
 41
1.0
 50
0.0
 71
     0
 42
0.2
  3
SIMPLEX
  4
BIGFONT
  0
STYLE
  2
STANDARD1
 70
     0
 40
0.0
 41
1.0
 50
0.0
 71
     0
 42
3.0
  3
txt
  4

  0
ENDTAB
  0
TABLE
  2
VIEW
 70
     0
  0
ENDTAB
  0
TABLE
  2
UCS
 70
     0
  0
ENDTAB
  0
TABLE
  2
APPID
 70
    29
  0
APPID
  2
ACAD
 70
     0
  0
APPID
  2
GENIUS_GENOREF_13
 70
     0
  0
APPID
  2
GENIUS_GENOENT_13
 70
     0
  0
APPID
  2
GENIUS_GENBH_13
 70
     0
  0
APPID
  2
GENIUS_GENOBJ_13
 70
     0
  0
APPID
  2
GENIUS_GENODEF_13
 70
     0
  0
APPID
  2
GENIUS_GENOLIS_13
 70
     0
  0
APPID
  2
GENIUS_GENOBJ-NBEHI-BHF_13
 70
     0
  0
APPID
  2
GENIUS_GENOBJ-NBEHI-BHB_13
 70
     0
  0
APPID
  2
GENIUS_GENOBJ-F-PART_13
 70
     0
  0
APPID
  2
GENIUS_GEFSTDP_13
 70
     0
  0
APPID
  2
GENIUS_GENOBJ-N-RSSYM_13
 70
     0
  0
APPID
  2
GENIUS_GENSYMENT_13
 70
     0
  0
APPID
  2
GENIUS_GENOBJ-N-TIT_13
 70
     0
  0
APPID
  2
GENIUS_GENTITLE_13
 70
     0
  0
APPID
  2
GENIUS_GENZVEED_13
 70
     0
  0
APPID
  2
GENIUS_GENOBJ-N-LEADER_13
 70
     0
  0
APPID
  2
GENIUS_GENOBJ-N-FIL_13
 70
     0
  0
APPID
  2
GENIUS_GENOBJ-N-SEC_13
 70
     0
  0
APPID
  2
GENIUS_GENOBJ-N-CRS_13
 70
     0
  0
APPID
  2
GENIUS_GENOBJ-N-ZOO_13
 70
     0
  0
APPID
  2
GENIUS_GENZOO_13
 70
     0
  0
APPID
  2
GENIUS_GENOBJ-F-TOL_13
 70
     0
  0
APPID
  2
GENIUS_GENFIL_13
 70
     0
  0
APPID
  2
GENIUS_GENOBJ-N-CHA_13
 70
     0
  0
APPID
  2
_CALL_MAC$
 70
     0
  0
APPID
  2
ACAD_NAV_VCDISPLAY
 70
     0
  0
APPID
  2
ACAD_EXEMPT_FROM_CAD_STANDARDS
 70
     0
  0
APPID
  2
ACAD_MLEADERVER
 70
     0
  0
ENDTAB
  0
TABLE
  2
DIMSTYLE
 70
     1
  0
DIMSTYLE
  2
STANDARD
 70
     0
  3

  4

  5

  6

  7

 40
1.0
 41
0.18
 42
0.0625
 43
0.38
 44
0.18
 45
0.0
 46
0.0
 47
0.0
 48
0.0
140
0.18
141
0.09
142
0.0
143
25.399999999999999
144
1.0
145
0.0
146
1.0
147
0.09
 71
     0
 72
     0
 73
     1
 74
     1
 75
     0
 76
     0
 77
     0
 78
     0
170
     0
171
     2
172
     0
173
     0
174
     0
175
     0
176
     0
177
     0
178
     0
  0
ENDTAB
  0
ENDSEC
  0
SECTION
  2
BLOCKS
  0
BLOCK
  8
0
  2
$MODEL_SPACE
 70
     0
 10
0.0
 20
0.0
 30
0.0
  3
$MODEL_SPACE
  1

  0
ENDBLK
  5
CF6E
  8
0
  0
BLOCK
 67
     1
  8
0
  2
$PAPER_SPACE
 70
     0
 10
0.0
 20
0.0
 30
0.0
  3
$PAPER_SPACE
  1

  0
ENDBLK
  5
CF6C
 67
     1
  8
0
  0
ENDSEC
  0
SECTION
  2
ENTITIES
  0
LINE
  5
E365
  8
2
 10
26.598459784021429
 20
105.3925094790383
 30
0.0
 11
24.742906284556291
 21
104.3212051666263
 31
0.0
  0
LINE
  5
E366
  8
2
 10
39.754013283486529
 20
104.3212051666263
 30
0.0
 11
37.898459784021377
 21
105.3925094790383
 31
0.0
  0
LINE
  5
E367
  8
2
 10
24.742906284556291
 20
99.963813791450235
 30
0.0
 11
26.598459784021429
 21
98.892509479038296
 31
0.0
  0
LINE
  5
E368
  8
2
 10
37.898459784021377
 20
98.892509479038296
 30
0.0
 11
39.754013283486529
 21
99.963813791450235
 31
0.0
  0
POLYLINE
  5
E373
  8
2
 66
     1
 10
0.0
 20
0.0
 30
0.0
  0
VERTEX
  5
E740
  8
2
 10
36.001236533753968
 20
104.3212051666263
 30
0.0
  0
VERTEX
  5
E741
  8
2
 10
36.120165206850743
 20
104.38821071081151
 30
0.0
  0
VERTEX
  5
E742
  8
2
 10
36.350071359034018
 20
104.5079061560202
 30
0.0
  0
VERTEX
  5
E743
  8
2
 10
36.570812785337239
 20
104.60974630495799
 30
0.0
  0
VERTEX
  5
E744
  8
2
 10
36.678239750297386
 20
104.6543677106049
 30
0.0
  0
VERTEX
  5
E745
  8
2
 10
36.783946379276927
 20
104.6949707246342
 30
0.0
  0
VERTEX
  5
E746
  8
2
 10
36.990873562672171
 20
104.7645808396004
 30
0.0
  0
VERTEX
  5
E747
  8
2
 10
37.192873761390388
 20
104.81937068379089
 30
0.0
  0
VERTEX
  5
E748
  8
2
 10
37.391132649702463
 20
104.85995029779831
 30
0.0
  0
VERTEX
  5
E749
  8
2
 10
37.586766542065277
 20
104.8867631015944
 30
0.0
  0
VERTEX
  5
E74A
  8
2
 10
37.780844031864831
 20
104.9000981887006
 30
0.0
  0
VERTEX
  5
E74B
  8
2
 10
37.877624908620248
 20
104.9017617502271
 30
0.0
  0
VERTEX
  5
E74C
  8
2
 10
37.974405785375673
 20
104.9000981887006
 30
0.0
  0
VERTEX
  5
E74D
  8
2
 10
38.168483275175277
 20
104.8867631015944
 30
0.0
  0
VERTEX
  5
E74E
  8
2
 10
38.364117167538041
 20
104.85995029779831
 30
0.0
  0
VERTEX
  5
E74F
  8
2
 10
38.562376055850109
 20
104.81937068379089
 30
0.0
  0
VERTEX
  5
E750
  8
2
 10
38.76437625456839
 20
104.7645808396004
 30
0.0
  0
VERTEX
  5
E751
  8
2
 10
38.97130343796357
 20
104.6949707246342
 30
0.0
  0
VERTEX
  5
E752
  8
2
 10
39.07701006694316
 20
104.6543677106049
 30
0.0
  0
VERTEX
  5
E753
  8
2
 10
39.184437031903258
 20
104.60974630495799
 30
0.0
  0
VERTEX
  5
E754
  8
2
 10
39.405178458206542
 20
104.5079061560202
 30
0.0
  0
VERTEX
  5
E755
  8
2
 10
39.635084610389747
 20
104.38821071081151
 30
0.0
  0
VERTEX
  5
E756
  8
2
 10
39.754013283486529
 20
104.3212051666263
 30
0.0
  0
SEQEND
  5
E757
  8
2
  0
POLYLINE
  5
E374
  8
2
 66
     1
 10
0.0
 20
0.0
 30
0.0
  0
VERTEX
  5
E758
  8
2
 10
39.754013283486529
 20
99.963813791450235
 30
0.0
  0
VERTEX
  5
E759
  8
2
 10
39.635084610389747
 20
99.896808247265142
 30
0.0
  0
VERTEX
  5
E75A
  8
2
 10
39.405178458206542
 20
99.777112802056365
 30
0.0
  0
VERTEX
  5
E75B
  8
2
 10
39.184437031903258
 20
99.675272653118526
 30
0.0
  0
VERTEX
  5
E75C
  8
2
 10
39.07701006694316
 20
99.630651247471675
 30
0.0
  0
VERTEX
  5
E75D
  8
2
 10
38.97130343796357
 20
99.590048233442332
 30
0.0
  0
VERTEX
  5
E75E
  8
2
 10
38.76437625456839
 20
99.520438118476193
 30
0.0
  0
VERTEX
  5
E75F
  8
2
 10
38.562376055850109
 20
99.465648274285684
 30
0.0
  0
VERTEX
  5
E760
  8
2
 10
38.364117167538041
 20
99.425068660278342
 30
0.0
  0
VERTEX
  5
E761
  8
2
 10
38.168483275175277
 20
99.398255856482194
 30
0.0
  0
VERTEX
  5
E762
  8
2
 10
37.974405785375673
 20
99.384920769376009
 30
0.0
  0
VERTEX
  5
E763
  8
2
 10
37.877624908620248
 20
99.383257207849482
 30
0.0
  0
VERTEX
  5
E764
  8
2
 10
37.780844031864831
 20
99.384920769376009
 30
0.0
  0
VERTEX
  5
E765
  8
2
 10
37.586766542065277
 20
99.398255856482194
 30
0.0
  0
VERTEX
  5
E766
  8
2
 10
37.391132649702463
 20
99.425068660278342
 30
0.0
  0
VERTEX
  5
E767
  8
2
 10
37.192873761390388
 20
99.465648274285684
 30
0.0
  0
VERTEX
  5
E768
  8
2
 10
36.990873562672171
 20
99.520438118476164
 30
0.0
  0
VERTEX
  5
E769
  8
2
 10
36.783946379276927
 20
99.590048233442332
 30
0.0
  0
VERTEX
  5
E76A
  8
2
 10
36.678239750297386
 20
99.630651247471675
 30
0.0
  0
VERTEX
  5
E76B
  8
2
 10
36.570812785337239
 20
99.675272653118526
 30
0.0
  0
VERTEX
  5
E76C
  8
2
 10
36.350071359034018
 20
99.777112802056365
 30
0.0
  0
VERTEX
  5
E76D
  8
2
 10
36.120165206850743
 20
99.896808247265142
 30
0.0
  0
VERTEX
  5
E76E
  8
2
 10
36.001236533753968
 20
99.963813791450235
 30
0.0
  0
SEQEND
  5
E76F
  8
2
  0
POLYLINE
  5
E377
  8
2
 66
     1
 10
0.0
 20
0.0
 30
0.0
  0
VERTEX
  5
E770
  8
2
 10
36.001236533753968
 20
104.3212051666263
 30
0.0
  0
VERTEX
  5
E771
  8
2
 10
35.763379187560417
 20
104.38821071081151
 30
0.0
  0
VERTEX
  5
E772
  8
2
 10
35.30356688319398
 20
104.5079061560202
 30
0.0
  0
VERTEX
  5
E773
  8
2
 10
34.862084030587432
 20
104.60974630495799
 30
0.0
  0
VERTEX
  5
E774
  8
2
 10
34.64723010066723
 20
104.6543677106049
 30
0.0
  0
VERTEX
  5
E775
  8
2
 10
34.435816842708107
 20
104.6949707246342
 30
0.0
  0
VERTEX
  5
E776
  8
2
 10
34.02196247591769
 20
104.7645808396004
 30
0.0
  0
VERTEX
  5
E777
  8
2
 10
33.617962078481071
 20
104.81937068379089
 30
0.0
  0
VERTEX
  5
E778
  8
2
 10
33.221444301856991
 20
104.85995029779831
 30
0.0
  0
VERTEX
  5
E779
  8
2
 10
32.830176517131413
 20
104.8867631015943
 30
0.0
  0
VERTEX
  5
E77A
  8
2
 10
32.442021537532298
 20
104.9000981887006
 30
0.0
  0
VERTEX
  5
E77B
  8
2
 10
32.248459784021406
 20
104.9017617502271
 30
0.0
  0
VERTEX
  5
E77C
  8
2
 10
32.054898030510508
 20
104.9000981887006
 30
0.0
  0
VERTEX
  5
E77D
  8
2
 10
31.666743050911411
 20
104.8867631015943
 30
0.0
  0
VERTEX
  5
E77E
  8
2
 10
31.275475266185818
 20
104.85995029779831
 30
0.0
  0
VERTEX
  5
E77F
  8
2
 10
30.878957489561738
 20
104.81937068379089
 30
0.0
  0
VERTEX
  5
E780
  8
2
 10
30.47495709212512
 20
104.7645808396004
 30
0.0
  0
VERTEX
  5
E781
  8
2
 10
30.06110272533471
 20
104.6949707246342
 30
0.0
  0
VERTEX
  5
E782
  8
2
 10
29.84968946737558
 20
104.6543677106049
 30
0.0
  0
VERTEX
  5
E783
  8
2
 10
29.634835537455391
 20
104.60974630495799
 30
0.0
  0
VERTEX
  5
E784
  8
2
 10
29.193352684848829
 20
104.5079061560202
 30
0.0
  0
VERTEX
  5
E785
  8
2
 10
28.733540380482399
 20
104.38821071081151
 30
0.0
  0
VERTEX
  5
E786
  8
2
 10
28.495683034288849
 20
104.3212051666263
 30
0.0
  0
SEQEND
  5
E787
  8
2
  0
POLYLINE
  5
E378
  8
2
 66
     1
 10
0.0
 20
0.0
 30
0.0
  0
VERTEX
  5
E788
  8
2
 10
24.742906284556291
 20
99.963813791450235
 30
0.0
  0
VERTEX
  5
E789
  8
2
 10
24.861834957653059
 20
99.896808247265142
 30
0.0
  0
VERTEX
  5
E78A
  8
2
 10
25.091741109836281
 20
99.777112802056365
 30
0.0
  0
VERTEX
  5
E78B
  8
2
 10
25.312482536139559
 20
99.675272653118526
 30
0.0
  0
VERTEX
  5
E78C
  8
2
 10
25.41990950109966
 20
99.630651247471675
 30
0.0
  0
VERTEX
  5
E78D
  8
2
 10
25.525616130079239
 20
99.590048233442332
 30
0.0
  0
VERTEX
  5
E78E
  8
2
 10
25.732543313474419
 20
99.520438118476193
 30
0.0
  0
VERTEX
  5
E78F
  8
2
 10
25.9345435121927
 20
99.465648274285684
 30
0.0
  0
VERTEX
  5
E790
  8
2
 10
26.132802400504769
 20
99.425068660278342
 30
0.0
  0
VERTEX
  5
E791
  8
2
 10
26.32843629286754
 20
99.398255856482194
 30
0.0
  0
VERTEX
  5
E792
  8
2
 10
26.522513782667151
 20
99.384920769376009
 30
0.0
  0
VERTEX
  5
E793
  8
2
 10
26.619294659422561
 20
99.383257207849482
 30
0.0
  0
VERTEX
  5
E794
  8
2
 10
26.716075536177989
 20
99.384920769376009
 30
0.0
  0
VERTEX
  5
E795
  8
2
 10
26.910153025977539
 20
99.398255856482194
 30
0.0
  0
VERTEX
  5
E796
  8
2
 10
27.10578691834036
 20
99.425068660278342
 30
0.0
  0
VERTEX
  5
E797
  8
2
 10
27.304045806652429
 20
99.465648274285684
 30
0.0
  0
VERTEX
  5
E798
  8
2
 10
27.506046005370649
 20
99.520438118476164
 30
0.0
  0
VERTEX
  5
E799
  8
2
 10
27.71297318876589
 20
99.590048233442332
 30
0.0
  0
VERTEX
  5
E79A
  8
2
 10
27.818679817745419
 20
99.630651247471675
 30
0.0
  0
VERTEX
  5
E79B
  8
2
 10
27.926106782705581
 20
99.675272653118526
 30
0.0
  0
VERTEX
  5
E79C
  8
2
 10
28.146848209008791
 20
99.777112802056365
 30
0.0
  0
VERTEX
  5
E79D
  8
2
 10
28.37675436119207
 20
99.896808247265142
 30
0.0
  0
VERTEX
  5
E79E
  8
2
 10
28.495683034288849
 20
99.963813791450235
 30
0.0
  0
SEQEND
  5
E79F
  8
2
  0
POLYLINE
  5
E37A
  8
2
 66
     1
 10
0.0
 20
0.0
 30
0.0
  0
VERTEX
  5
E7A0
  8
2
 10
24.742906284556291
 20
104.3212051666263
 30
0.0
  0
VERTEX
  5
E7A1
  8
2
 10
24.861834957653059
 20
104.38821071081151
 30
0.0
  0
VERTEX
  5
E7A2
  8
2
 10
25.091741109836281
 20
104.5079061560202
 30
0.0
  0
VERTEX
  5
E7A3
  8
2
 10
25.312482536139559
 20
104.60974630495799
 30
0.0
  0
VERTEX
  5
E7A4
  8
2
 10
25.41990950109966
 20
104.6543677106049
 30
0.0
  0
VERTEX
  5
E7A5
  8
2
 10
25.525616130079239
 20
104.6949707246342
 30
0.0
  0
VERTEX
  5
E7A6
  8
2
 10
25.732543313474419
 20
104.7645808396004
 30
0.0
  0
VERTEX
  5
E7A7
  8
2
 10
25.9345435121927
 20
104.81937068379089
 30
0.0
  0
VERTEX
  5
E7A8
  8
2
 10
26.132802400504769
 20
104.85995029779821
 30
0.0
  0
VERTEX
  5
E7A9
  8
2
 10
26.32843629286754
 20
104.8867631015943
 30
0.0
  0
VERTEX
  5
E7AA
  8
2
 10
26.522513782667151
 20
104.9000981887006
 30
0.0
  0
VERTEX
  5
E7AB
  8
2
 10
26.619294659422561
 20
104.9017617502271
 30
0.0
  0
VERTEX
  5
E7AC
  8
2
 10
26.716075536177989
 20
104.9000981887006
 30
0.0
  0
VERTEX
  5
E7AD
  8
2
 10
26.910153025977539
 20
104.8867631015944
 30
0.0
  0
VERTEX
  5
E7AE
  8
2
 10
27.10578691834036
 20
104.85995029779831
 30
0.0
  0
VERTEX
  5
E7AF
  8
2
 10
27.304045806652429
 20
104.81937068379089
 30
0.0
  0
VERTEX
  5
E7B0
  8
2
 10
27.506046005370649
 20
104.7645808396004
 30
0.0
  0
VERTEX
  5
E7B1
  8
2
 10
27.71297318876589
 20
104.6949707246342
 30
0.0
  0
VERTEX
  5
E7B2
  8
2
 10
27.818679817745419
 20
104.6543677106049
 30
0.0
  0
VERTEX
  5
E7B3
  8
2
 10
27.926106782705581
 20
104.60974630495799
 30
0.0
  0
VERTEX
  5
E7B4
  8
2
 10
28.146848209008791
 20
104.5079061560202
 30
0.0
  0
VERTEX
  5
E7B5
  8
2
 10
28.37675436119207
 20
104.38821071081151
 30
0.0
  0
VERTEX
  5
E7B6
  8
2
 10
28.495683034288849
 20
104.3212051666263
 30
0.0
  0
SEQEND
  5
E7B7
  8
2
  0
LINE
  5
E37C
  8
2
 10
28.495683034288849
 20
104.3212051666263
 30
0.0
 11
28.495683034288849
 21
99.963813791450235
 31
0.0
  0
LINE
  5
E37E
  8
2
 10
36.001236533753968
 20
104.3212051666263
 30
0.0
 11
36.001236533753968
 21
99.963813791450235
 31
0.0
  0
POLYLINE
  5
E37F
  8
2
 66
     1
 10
0.0
 20
0.0
 30
0.0
  0
VERTEX
  5
E7B8
  8
2
 10
36.001236533753968
 20
99.963813791450235
 30
0.0
  0
VERTEX
  5
E7B9
  8
2
 10
35.763379187560417
 20
99.896808247265142
 30
0.0
  0
VERTEX
  5
E7BA
  8
2
 10
35.30356688319398
 20
99.777112802056365
 30
0.0
  0
VERTEX
  5
E7BB
  8
2
 10
34.862084030587432
 20
99.675272653118526
 30
0.0
  0
VERTEX
  5
E7BC
  8
2
 10
34.64723010066723
 20
99.630651247471675
 30
0.0
  0
VERTEX
  5
E7BD
  8
2
 10
34.435816842708107
 20
99.590048233442332
 30
0.0
  0
VERTEX
  5
E7BE
  8
2
 10
34.02196247591769
 20
99.520438118476193
 30
0.0
  0
VERTEX
  5
E7BF
  8
2
 10
33.617962078481071
 20
99.465648274285684
 30
0.0
  0
VERTEX
  5
E7C0
  8
2
 10
33.221444301856991
 20
99.425068660278342
 30
0.0
  0
VERTEX
  5
E7C1
  8
2
 10
32.830176517131413
 20
99.398255856482194
 30
0.0
  0
VERTEX
  5
E7C2
  8
2
 10
32.442021537532298
 20
99.384920769376009
 30
0.0
  0
VERTEX
  5
E7C3
  8
2
 10
32.248459784021406
 20
99.383257207849482
 30
0.0
  0
VERTEX
  5
E7C4
  8
2
 10
32.054898030510508
 20
99.384920769376009
 30
0.0
  0
VERTEX
  5
E7C5
  8
2
 10
31.666743050911411
 20
99.398255856482194
 30
0.0
  0
VERTEX
  5
E7C6
  8
2
 10
31.275475266185818
 20
99.425068660278342
 30
0.0
  0
VERTEX
  5
E7C7
  8
2
 10
30.878957489561738
 20
99.465648274285684
 30
0.0
  0
VERTEX
  5
E7C8
  8
2
 10
30.47495709212512
 20
99.520438118476193
 30
0.0
  0
VERTEX
  5
E7C9
  8
2
 10
30.06110272533471
 20
99.590048233442332
 30
0.0
  0
VERTEX
  5
E7CA
  8
2
 10
29.84968946737558
 20
99.630651247471675
 30
0.0
  0
VERTEX
  5
E7CB
  8
2
 10
29.634835537455391
 20
99.675272653118526
 30
0.0
  0
VERTEX
  5
E7CC
  8
2
 10
29.193352684848829
 20
99.777112802056365
 30
0.0
  0
VERTEX
  5
E7CD
  8
2
 10
28.733540380482399
 20
99.896808247265142
 30
0.0
  0
VERTEX
  5
E7CE
  8
2
 10
28.495683034288849
 20
99.963813791450235
 30
0.0
  0
SEQEND
  5
E7CF
  8
2
  0
LINE
  5
E3B9
  8
2
 10
36.448459784021402
 20
79.39250947903831
 30
0.0
 11
36.448459784021402
 21
68.892509479038296
 31
0.0
  0
LINE
  5
E3BA
  8
2
 10
36.448459784021402
 20
98.892509479038296
 30
0.0
 11
36.448459784021402
 21
85.892509479038296
 31
0.0
  0
LINE
  5
E3C0
  8
2
 10
36.448459784021402
 20
109.8925094790383
 30
0.0
 11
36.448459784021402
 21
105.3925094790383
 31
0.0
  0
LINE
  5
E3C1
  8
2
 10
39.754013283486529
 20
105.3925094790383
 30
0.0
 11
39.754013283486529
 21
98.892509479038296
 31
0.0
  0
LINE
  5
E3C4
  8
2
 10
39.754013283486529
 20
98.892509479038296
 30
0.0
 11
24.742906284556291
 21
98.892509479038296
 31
0.0
  0
LINE
  5
E3C5
  8
2
 10
24.742906284556291
 20
105.3925094790383
 30
0.0
 11
39.754013283486529
 21
105.3925094790383
 31
0.0
  0
LINE
  5
E3CB
  8
2
 10
28.048459784021421
 20
105.3925094790383
 30
0.0
 11
28.048459784021421
 21
109.8925094790383
 31
0.0
  0
LINE
  5
E3CC
  8
2
 10
24.742906284556291
 20
98.892509479038296
 30
0.0
 11
24.742906284556291
 21
105.3925094790383
 31
0.0
  0
LINE
  5
E3CD
  8
2
 10
28.048459784021421
 20
85.892509479038296
 30
0.0
 11
28.048459784021421
 21
98.892509479038296
 31
0.0
  0
LINE
  5
E3CF
  8
2
 10
28.048459784021421
 20
68.892509479038296
 30
0.0
 11
28.048459784021421
 21
79.39250947903831
 31
0.0
  0
LINE
  5
E3DB
  8
1
 10
32.248459784021406
 20
65.892509479038296
 30
0.0
 11
32.248459784021406
 21
112.8925094790383
 31
0.0
  0
LINE
  5
E3E4
  8
0
 10
19.74845978402141
 20
70.142509479038296
 30
0.0
 11
19.74845978402141
 21
73.892509479038296
 31
0.0
  0
LINE
  5
E3E5
  8
0
 10
20.99845978402141
 20
68.892509479038296
 30
0.0
 11
19.74845978402141
 21
70.142509479038296
 31
0.0
  0
LINE
  5
E3E6
  8
0
 10
19.74845978402141
 20
70.142509479038296
 30
0.0
 11
44.748459784021399
 21
70.142509479038296
 31
0.0
  0
LINE
  5
E3E7
  8
0
 10
44.748459784021399
 20
70.142509479038296
 30
0.0
 11
43.498459784021399
 21
68.892509479038296
 31
0.0
  0
LINE
  5
E3E8
  8
0
 10
43.498459784021399
 20
68.892509479038296
 30
0.0
 11
20.99845978402141
 21
68.892509479038296
 31
0.0
  0
LINE
  5
E3E9
  8
0
 10
44.748459784021399
 20
73.892509479038296
 30
0.0
 11
44.748459784021399
 21
70.142509479038296
 31
0.0
  0
LINE
  5
E3EA
  8
0
 10
44.748459784021399
 20
73.892509479038296
 30
0.0
 11
19.74845978402141
 21
73.892509479038296
 31
0.0
  0
LINE
  5
E3EB
  8
0
 10
21.24845978402141
 20
73.892509479038296
 30
0.0
 11
21.24845978402141
 21
108.0925094790383
 31
0.0
  0
LINE
  5
E3EC
  8
0
 10
22.24845978402141
 20
73.892509479038296
 30
0.0
 11
22.24845978402141
 21
108.0925094790383
 31
0.0
  0
LINE
  5
E3ED
  8
0
 10
42.248459784021399
 20
73.892509479038296
 30
0.0
 11
42.248459784021399
 21
108.0925094790383
 31
0.0
  0
LINE
  5
E3EE
  8
0
 10
43.248459784021399
 20
73.892509479038296
 30
0.0
 11
43.248459784021399
 21
108.0925094790383
 31
0.0
  0
LINE
  5
E3EF
  8
0
 10
41.148459784021377
 20
108.0925094790383
 30
0.0
 11
41.148459784021377
 21
109.8925094790383
 31
0.0
  0
LINE
  5
E3F0
  8
0
 10
23.348459784021401
 20
108.0925094790383
 30
0.0
 11
23.348459784021401
 21
109.8925094790383
 31
0.0
  0
LINE
  5
E3F1
  8
0
 10
22.348459784021401
 20
109.8925094790383
 30
0.0
 11
42.148459784021377
 21
109.8925094790383
 31
0.0
  0
LINE
  5
E3F2
  8
0
 10
22.348459784021401
 20
108.0925094790383
 30
0.0
 11
22.348459784021401
 21
109.8925094790383
 31
0.0
  0
LINE
  5
E3F3
  8
0
 10
43.248459784021399
 20
108.0925094790383
 30
0.0
 11
21.24845978402141
 21
108.0925094790383
 31
0.0
  0
LINE
  5
E3F4
  8
0
 10
42.148459784021377
 20
108.0925094790383
 30
0.0
 11
42.148459784021377
 21
109.8925094790383
 31
0.0
  0
LINE
  5
E410
  8
0
 10
20.99845978402141
 20
27.642509479038281
 30
0.0
 11
19.74845978402141
 21
26.392509479038281
 31
0.0
  0
LINE
  5
E411
  8
0
 10
44.748459784021399
 20
26.392509479038281
 30
0.0
 11
43.498459784021399
 21
27.642509479038281
 31
0.0
  0
LINE
  5
E412
  8
0
 10
20.99845978402141
 20
50.142509479038281
 30
0.0
 11
20.99845978402141
 21
27.642509479038281
 31
0.0
  0
LINE
  5
E413
  8
0
 10
43.498459784021399
 20
27.642509479038281
 30
0.0
 11
20.99845978402141
 21
27.642509479038281
 31
0.0
  0
LINE
  5
E414
  8
0
 10
43.49845978402135
 20
50.142509479038281
 30
0.0
 11
43.498459784021399
 21
27.642509479038281
 31
0.0
  0
LINE
  5
E415
  8
2
 10
28.495683034288849
 20
32.392509479038281
 30
0.0
 11
24.742906284556291
 21
38.892509479038281
 31
0.0
  0
LINE
  5
E416
  8
2
 10
36.001236533753968
 20
32.392509479038281
 30
0.0
 11
28.495683034288849
 21
32.392509479038281
 31
0.0
  0
LINE
  5
E417
  8
2
 10
39.754013283486529
 20
38.892509479038281
 30
0.0
 11
36.001236533753968
 21
32.392509479038281
 31
0.0
  0
LINE
  5
E41E
  8
0
 10
43.498459784021399
 20
50.142509479038281
 30
0.0
 11
44.748459784021399
 21
51.392509479038281
 31
0.0
  0
LINE
  5
E41F
  8
0
 10
19.74845978402141
 20
51.392509479038281
 30
0.0
 11
20.99845978402141
 21
50.142509479038281
 31
0.0
  0
LINE
  5
E421
  8
0
 10
20.99845978402141
 20
50.142509479038281
 30
0.0
 11
43.498459784021399
 21
50.142509479038281
 31
0.0
  0
LINE
  5
E423
  8
2
 10
36.001236533753968
 20
45.392509479038281
 30
0.0
 11
39.754013283486529
 21
38.892509479038281
 31
0.0
  0
LINE
  5
E424
  8
2
 10
28.495683034288849
 20
45.392509479038281
 30
0.0
 11
36.001236533753968
 21
45.392509479038281
 31
0.0
  0
LINE
  5
E425
  8
2
 10
24.742906284556291
 20
38.892509479038281
 30
0.0
 11
28.495683034288849
 21
45.392509479038281
 31
0.0
  0
LINE
  5
E428
  8
1
 10
32.248459784021406
 20
23.392509479038281
 30
0.0
 11
32.248459784021406
 21
54.392509479038281
 31
0.0
  0
LINE
  5
E429
  8
1
 10
16.74845978402141
 20
38.892509479038281
 30
0.0
 11
47.748459784021399
 21
38.892509479038281
 31
0.0
  0
CIRCLE
  5
E42C
  8
0
 10
32.248459784021406
 20
38.892509479038281
 30
0.0
 40
3.323500000000001
  0
LINE
  5
E431
  8
0
 10
44.748459784021399
 20
26.392509479038281
 30
0.0
 11
19.74845978402141
 21
26.392509479038281
 31
0.0
  0
LINE
  5
E440
  8
0
 10
19.74845978402141
 20
26.392509479038281
 30
0.0
 11
19.74845978402141
 21
51.392509479038281
 31
0.0
  0
LINE
  5
E441
  8
0
 10
19.74845978402141
 20
51.392509479038281
 30
0.0
 11
44.748459784021399
 21
51.392509479038281
 31
0.0
  0
LINE
  5
E442
  8
0
 10
44.748459784021399
 20
51.392509479038281
 30
0.0
 11
44.748459784021399
 21
26.392509479038281
 31
0.0
  0
LINE
  5
E44F
  8
2
 10
76.598459784021401
 20
105.3925094790383
 30
0.0
 11
75.748459784021364
 21
104.9017617502271
 31
0.0
  0
LINE
  5
E450
  8
2
 10
88.748459784021378
 20
104.9017617502271
 30
0.0
 11
87.898459784021355
 21
105.3925094790383
 31
0.0
  0
LINE
  5
E451
  8
2
 10
75.748459784021364
 20
99.383257207849482
 30
0.0
 11
76.598459784021401
 21
98.892509479038296
 31
0.0
  0
LINE
  5
E452
  8
2
 10
87.898459784021355
 20
98.892509479038296
 30
0.0
 11
88.748459784021378
 21
99.383257207849482
 31
0.0
  0
POLYLINE
  5
E45D
  8
2
 66
     1
 10
0.0
 20
0.0
 30
0.0
  0
VERTEX
  5
E7D0
  8
2
 10
75.748459784021364
 20
104.3212051666263
 30
0.0
  0
VERTEX
  5
E7D1
  8
2
 10
75.954450288301729
 20
104.38821071081151
 30
0.0
  0
VERTEX
  5
E7D2
  8
2
 10
76.352659424855773
 20
104.5079061560202
 30
0.0
  0
VERTEX
  5
E7D3
  8
2
 10
76.7349947905482
 20
104.60974630495799
 30
0.0
  0
VERTEX
  5
E7D4
  8
2
 10
76.921063751962066
 20
104.6543677106049
 30
0.0
  0
VERTEX
  5
E7D5
  8
2
 10
77.104153004051483
 20
104.6949707246342
 30
0.0
  0
VERTEX
  5
E7D6
  8
2
 10
77.462561399159114
 20
104.7645808396004
 30
0.0
  0
VERTEX
  5
E7D7
  8
2
 10
77.812436006478237
 20
104.81937068379089
 30
0.0
  0
VERTEX
  5
E7D8
  8
2
 10
78.155830474086784
 20
104.85995029779831
 30
0.0
  0
VERTEX
  5
E7D9
  8
2
 10
78.494678315341588
 20
104.8867631015944
 30
0.0
  0
VERTEX
  5
E7DA
  8
2
 10
78.83083038827985
 20
104.9000981887006
 30
0.0
  0
VERTEX
  5
E7DB
  8
2
 10
78.998459784021364
 20
104.9017617502271
 30
0.0
  0
VERTEX
  5
E7DC
  8
2
 10
79.166089179762849
 20
104.9000981887006
 30
0.0
  0
VERTEX
  5
E7DD
  8
2
 10
79.502241252701111
 20
104.8867631015944
 30
0.0
  0
VERTEX
  5
E7DE
  8
2
 10
79.841089093955901
 20
104.85995029779831
 30
0.0
  0
VERTEX
  5
E7DF
  8
2
 10
80.184483561564534
 20
104.81937068379089
 30
0.0
  0
VERTEX
  5
E7E0
  8
2
 10
80.534358168883585
 20
104.7645808396004
 30
0.0
  0
VERTEX
  5
E7E1
  8
2
 10
80.892766563991216
 20
104.6949707246342
 30
0.0
  0
VERTEX
  5
E7E2
  8
2
 10
81.075855816080633
 20
104.6543677106049
 30
0.0
  0
VERTEX
  5
E7E3
  8
2
 10
81.261924777494499
 20
104.60974630495799
 30
0.0
  0
VERTEX
  5
E7E4
  8
2
 10
81.644260143186969
 20
104.5079061560202
 30
0.0
  0
VERTEX
  5
E7E5
  8
2
 10
82.04246927974097
 20
104.38821071081151
 30
0.0
  0
VERTEX
  5
E7E6
  8
2
 10
82.248459784021378
 20
104.3212051666263
 30
0.0
  0
SEQEND
  5
E7E7
  8
2
  0
POLYLINE
  5
E45E
  8
2
 66
     1
 10
0.0
 20
0.0
 30
0.0
  0
VERTEX
  5
E7E8
  8
2
 10
82.248459784021378
 20
99.963813791450235
 30
0.0
  0
VERTEX
  5
E7E9
  8
2
 10
82.04246927974097
 20
99.896808247265142
 30
0.0
  0
VERTEX
  5
E7EA
  8
2
 10
81.644260143186969
 20
99.777112802056365
 30
0.0
  0
VERTEX
  5
E7EB
  8
2
 10
81.261924777494499
 20
99.675272653118526
 30
0.0
  0
VERTEX
  5
E7EC
  8
2
 10
81.075855816080633
 20
99.630651247471675
 30
0.0
  0
VERTEX
  5
E7ED
  8
2
 10
80.892766563991216
 20
99.590048233442332
 30
0.0
  0
VERTEX
  5
E7EE
  8
2
 10
80.534358168883585
 20
99.520438118476193
 30
0.0
  0
VERTEX
  5
E7EF
  8
2
 10
80.184483561564534
 20
99.465648274285684
 30
0.0
  0
VERTEX
  5
E7F0
  8
2
 10
79.841089093955901
 20
99.425068660278342
 30
0.0
  0
VERTEX
  5
E7F1
  8
2
 10
79.502241252701111
 20
99.398255856482194
 30
0.0
  0
VERTEX
  5
E7F2
  8
2
 10
79.166089179762849
 20
99.384920769376009
 30
0.0
  0
VERTEX
  5
E7F3
  8
2
 10
78.998459784021364
 20
99.383257207849482
 30
0.0
  0
VERTEX
  5
E7F4
  8
2
 10
78.83083038827985
 20
99.384920769376009
 30
0.0
  0
VERTEX
  5
E7F5
  8
2
 10
78.494678315341588
 20
99.398255856482194
 30
0.0
  0
VERTEX
  5
E7F6
  8
2
 10
78.155830474086784
 20
99.425068660278342
 30
0.0
  0
VERTEX
  5
E7F7
  8
2
 10
77.812436006478237
 20
99.465648274285684
 30
0.0
  0
VERTEX
  5
E7F8
  8
2
 10
77.462561399159114
 20
99.520438118476164
 30
0.0
  0
VERTEX
  5
E7F9
  8
2
 10
77.104153004051483
 20
99.590048233442332
 30
0.0
  0
VERTEX
  5
E7FA
  8
2
 10
76.921063751962066
 20
99.630651247471675
 30
0.0
  0
VERTEX
  5
E7FB
  8
2
 10
76.7349947905482
 20
99.675272653118526
 30
0.0
  0
VERTEX
  5
E7FC
  8
2
 10
76.352659424855773
 20
99.777112802056365
 30
0.0
  0
VERTEX
  5
E7FD
  8
2
 10
75.954450288301729
 20
99.896808247265142
 30
0.0
  0
VERTEX
  5
E7FE
  8
2
 10
75.748459784021364
 20
99.963813791450235
 30
0.0
  0
SEQEND
  5
E7FF
  8
2
  0
LINE
  5
E45F
  8
2
 10
82.248459784021378
 20
104.3212051666263
 30
0.0
 11
82.248459784021378
 21
99.963813791450235
 31
0.0
  0
POLYLINE
  5
E460
  8
2
 66
     1
 10
0.0
 20
0.0
 30
0.0
  0
VERTEX
  5
E800
  8
2
 10
82.248459784021378
 20
104.3212051666263
 30
0.0
  0
VERTEX
  5
E801
  8
2
 10
82.454450288301729
 20
104.38821071081151
 30
0.0
  0
VERTEX
  5
E802
  8
2
 10
82.852659424855787
 20
104.5079061560202
 30
0.0
  0
VERTEX
  5
E803
  8
2
 10
83.2349947905482
 20
104.60974630495799
 30
0.0
  0
VERTEX
  5
E804
  8
2
 10
83.421063751962066
 20
104.6543677106049
 30
0.0
  0
VERTEX
  5
E805
  8
2
 10
83.604153004051497
 20
104.6949707246342
 30
0.0
  0
VERTEX
  5
E806
  8
2
 10
83.962561399159114
 20
104.7645808396004
 30
0.0
  0
VERTEX
  5
E807
  8
2
 10
84.312436006478237
 20
104.81937068379089
 30
0.0
  0
VERTEX
  5
E808
  8
2
 10
84.655830474086798
 20
104.85995029779821
 30
0.0
  0
VERTEX
  5
E809
  8
2
 10
84.994678315341588
 20
104.8867631015943
 30
0.0
  0
VERTEX
  5
E80A
  8
2
 10
85.33083038827985
 20
104.9000981887006
 30
0.0
  0
VERTEX
  5
E80B
  8
2
 10
85.498459784021364
 20
104.9017617502271
 30
0.0
  0
VERTEX
  5
E80C
  8
2
 10
85.666089179762849
 20
104.9000981887006
 30
0.0
  0
VERTEX
  5
E80D
  8
2
 10
86.002241252701111
 20
104.8867631015944
 30
0.0
  0
VERTEX
  5
E80E
  8
2
 10
86.341089093955915
 20
104.85995029779831
 30
0.0
  0
VERTEX
  5
E80F
  8
2
 10
86.684483561564505
 20
104.81937068379089
 30
0.0
  0
VERTEX
  5
E810
  8
2
 10
87.034358168883585
 20
104.7645808396004
 30
0.0
  0
VERTEX
  5
E811
  8
2
 10
87.392766563991273
 20
104.6949707246342
 30
0.0
  0
VERTEX
  5
E812
  8
2
 10
87.575855816080633
 20
104.6543677106049
 30
0.0
  0
VERTEX
  5
E813
  8
2
 10
87.761924777494499
 20
104.60974630495799
 30
0.0
  0
VERTEX
  5
E814
  8
2
 10
88.144260143186983
 20
104.5079061560202
 30
0.0
  0
VERTEX
  5
E815
  8
2
 10
88.54246927974097
 20
104.38821071081151
 30
0.0
  0
VERTEX
  5
E816
  8
2
 10
88.748459784021378
 20
104.3212051666263
 30
0.0
  0
SEQEND
  5
E817
  8
2
  0
POLYLINE
  5
E461
  8
2
 66
     1
 10
0.0
 20
0.0
 30
0.0
  0
VERTEX
  5
E818
  8
2
 10
88.748459784021378
 20
99.963813791450235
 30
0.0
  0
VERTEX
  5
E819
  8
2
 10
88.54246927974097
 20
99.896808247265142
 30
0.0
  0
VERTEX
  5
E81A
  8
2
 10
88.144260143186983
 20
99.777112802056365
 30
0.0
  0
VERTEX
  5
E81B
  8
2
 10
87.761924777494499
 20
99.675272653118526
 30
0.0
  0
VERTEX
  5
E81C
  8
2
 10
87.575855816080633
 20
99.630651247471675
 30
0.0
  0
VERTEX
  5
E81D
  8
2
 10
87.392766563991216
 20
99.590048233442332
 30
0.0
  0
VERTEX
  5
E81E
  8
2
 10
87.034358168883585
 20
99.520438118476164
 30
0.0
  0
VERTEX
  5
E81F
  8
2
 10
86.684483561564505
 20
99.465648274285684
 30
0.0
  0
VERTEX
  5
E820
  8
2
 10
86.341089093955915
 20
99.425068660278342
 30
0.0
  0
VERTEX
  5
E821
  8
2
 10
86.002241252701111
 20
99.398255856482194
 30
0.0
  0
VERTEX
  5
E822
  8
2
 10
85.666089179762849
 20
99.384920769376009
 30
0.0
  0
VERTEX
  5
E823
  8
2
 10
85.498459784021364
 20
99.383257207849482
 30
0.0
  0
VERTEX
  5
E824
  8
2
 10
85.33083038827985
 20
99.384920769376009
 30
0.0
  0
VERTEX
  5
E825
  8
2
 10
84.994678315341588
 20
99.398255856482194
 30
0.0
  0
VERTEX
  5
E826
  8
2
 10
84.655830474086798
 20
99.425068660278342
 30
0.0
  0
VERTEX
  5
E827
  8
2
 10
84.312436006478237
 20
99.465648274285684
 30
0.0
  0
VERTEX
  5
E828
  8
2
 10
83.962561399159114
 20
99.520438118476193
 30
0.0
  0
VERTEX
  5
E829
  8
2
 10
83.604153004051497
 20
99.590048233442332
 30
0.0
  0
VERTEX
  5
E82A
  8
2
 10
83.421063751962066
 20
99.630651247471675
 30
0.0
  0
VERTEX
  5
E82B
  8
2
 10
83.2349947905482
 20
99.675272653118526
 30
0.0
  0
VERTEX
  5
E82C
  8
2
 10
82.852659424855787
 20
99.777112802056365
 30
0.0
  0
VERTEX
  5
E82D
  8
2
 10
82.454450288301729
 20
99.896808247265142
 30
0.0
  0
VERTEX
  5
E82E
  8
2
 10
82.248459784021378
 20
99.963813791450235
 30
0.0
  0
SEQEND
  5
E82F
  8
2
  0
LINE
  5
E481
  8
2
 10
78.048459784021333
 20
98.892509479038296
 30
0.0
 11
78.048459784021333
 21
85.892509479038296
 31
0.0
  0
LINE
  5
E482
  8
2
 10
78.048459784021333
 20
79.39250947903831
 30
0.0
 11
78.048459784021333
 21
68.892509479038296
 31
0.0
  0
LINE
  5
E483
  8
2
 10
78.048459784021333
 20
109.8925094790383
 30
0.0
 11
78.048459784021333
 21
105.3925094790383
 31
0.0
  0
LINE
  5
E48C
  8
2
 10
75.748459784021364
 20
98.892509479038296
 30
0.0
 11
75.748459784021364
 21
105.3925094790383
 31
0.0
  0
LINE
  5
E48D
  8
2
 10
75.748459784021364
 20
98.892509479038296
 30
0.0
 11
88.748459784021378
 21
98.892509479038296
 31
0.0
  0
LINE
  5
E497
  8
2
 10
86.448459784021367
 20
85.892509479038296
 30
0.0
 11
86.448459784021367
 21
98.892509479038296
 31
0.0
  0
LINE
  5
E498
  8
2
 10
86.448459784021367
 20
68.892509479038296
 30
0.0
 11
86.448459784021367
 21
79.39250947903831
 31
0.0
  0
LINE
  5
E499
  8
2
 10
86.448459784021367
 20
105.3925094790383
 30
0.0
 11
86.448459784021367
 21
109.8925094790383
 31
0.0
  0
LINE
  5
E4A3
  8
2
 10
88.748459784021378
 20
98.892509479038296
 30
0.0
 11
88.748459784021378
 21
105.3925094790383
 31
0.0
  0
LINE
  5
E4A4
  8
2
 10
88.748459784021378
 20
105.3925094790383
 30
0.0
 11
75.748459784021364
 21
105.3925094790383
 31
0.0
  0
LINE
  5
E4AA
  8
1
 10
82.248459784021378
 20
65.892509479038296
 30
0.0
 11
82.248459784021378
 21
112.8925094790383
 31
0.0
  0
LINE
  5
E4AD
  8
0
 10
69.748459784021378
 20
70.142509479038296
 30
0.0
 11
70.998459784021378
 21
68.892509479038296
 31
0.0
  0
LINE
  5
E4AE
  8
0
 10
93.498459784021378
 20
68.89250947903831
 30
0.0
 11
70.998459784021378
 21
68.892509479038296
 31
0.0
  0
LINE
  5
E4AF
  8
0
 10
94.748459784021378
 20
70.142509479038296
 30
0.0
 11
69.748459784021378
 21
70.142509479038296
 31
0.0
  0
LINE
  5
E4B0
  8
0
 10
69.748459784021378
 20
73.892509479038296
 30
0.0
 11
69.748459784021378
 21
70.142509479038296
 31
0.0
  0
LINE
  5
E4B1
  8
0
 10
94.748459784021378
 20
73.892509479038296
 30
0.0
 11
69.748459784021378
 21
73.892509479038296
 31
0.0
  0
LINE
  5
E4B2
  8
0
 10
71.248459784021378
 20
73.892509479038296
 30
0.0
 11
71.248459784021378
 21
108.0925094790383
 31
0.0
  0
LINE
  5
E4B3
  8
0
 10
72.248459784021378
 20
73.892509479038296
 30
0.0
 11
72.248459784021378
 21
108.0925094790383
 31
0.0
  0
LINE
  5
E4B4
  8
0
 10
72.348459784021401
 20
109.8925094790383
 30
0.0
 11
92.148459784021412
 21
109.8925094790383
 31
0.0
  0
LINE
  5
E4B5
  8
0
 10
72.348459784021401
 20
108.0925094790383
 30
0.0
 11
72.348459784021401
 21
109.8925094790383
 31
0.0
  0
LINE
  5
E4B6
  8
0
 10
93.248459784021364
 20
108.0925094790383
 30
0.0
 11
71.248459784021378
 21
108.0925094790383
 31
0.0
  0
LINE
  5
E4B8
  8
0
 10
73.348459784021401
 20
108.0925094790383
 30
0.0
 11
73.348459784021401
 21
109.8925094790383
 31
0.0
  0
LINE
  5
E4B9
  8
0
 10
94.748459784021378
 20
70.142509479038296
 30
0.0
 11
94.748459784021378
 21
73.892509479038296
 31
0.0
  0
LINE
  5
E4BB
  8
0
 10
93.498459784021378
 20
68.892509479038296
 30
0.0
 11
94.748459784021378
 21
70.142509479038296
 31
0.0
  0
LINE
  5
E4BE
  8
0
 10
92.248459784021378
 20
73.892509479038296
 30
0.0
 11
92.248459784021378
 21
108.0925094790383
 31
0.0
  0
LINE
  5
E4BF
  8
0
 10
93.248459784021364
 20
73.892509479038296
 30
0.0
 11
93.248459784021364
 21
108.0925094790383
 31
0.0
  0
LINE
  5
E4C0
  8
0
 10
92.148459784021355
 20
108.0925094790383
 30
0.0
 11
92.148459784021355
 21
109.8925094790383
 31
0.0
  0
LINE
  5
E4C2
  8
0
 10
91.148459784021355
 20
108.0925094790383
 30
0.0
 11
91.148459784021355
 21
109.8925094790383
 31
0.0
  0
CIRCLE
  5
E518
  8
3
 10
32.248459784021406
 20
38.892509479038281
 30
0.0
 40
4.0
  0
LINE
  5
E52F
  8
2
 10
26.598459784021429
 20
85.892509479038296
 30
0.0
 11
24.742906284556291
 21
84.821205166626356
 31
0.0
  0
LINE
  5
E530
  8
2
 10
39.754013283486529
 20
84.821205166626356
 30
0.0
 11
37.898459784021377
 21
85.892509479038296
 31
0.0
  0
LINE
  5
E531
  8
2
 10
24.742906284556291
 20
80.463813791450235
 30
0.0
 11
26.598459784021429
 21
79.39250947903831
 31
0.0
  0
LINE
  5
E532
  8
2
 10
37.898459784021377
 20
79.39250947903831
 30
0.0
 11
39.754013283486529
 21
80.463813791450235
 31
0.0
  0
POLYLINE
  5
E533
  8
2
 66
     1
 10
0.0
 20
0.0
 30
0.0
  0
VERTEX
  5
E830
  8
2
 10
36.001236533753968
 20
84.821205166626356
 30
0.0
  0
VERTEX
  5
E831
  8
2
 10
36.120165206850743
 20
84.888210710811464
 30
0.0
  0
VERTEX
  5
E832
  8
2
 10
36.350071359034018
 20
85.007906156020255
 30
0.0
  0
VERTEX
  5
E833
  8
2
 10
36.570812785337239
 20
85.109746304958065
 30
0.0
  0
VERTEX
  5
E834
  8
2
 10
36.678239750297386
 20
85.15436771060493
 30
0.0
  0
VERTEX
  5
E835
  8
2
 10
36.783946379276927
 20
85.19497072463426
 30
0.0
  0
VERTEX
  5
E836
  8
2
 10
36.990873562672171
 20
85.264580839600427
 30
0.0
  0
VERTEX
  5
E837
  8
2
 10
37.192873761390388
 20
85.319370683790936
 30
0.0
  0
VERTEX
  5
E838
  8
2
 10
37.391132649702463
 20
85.359950297798292
 30
0.0
  0
VERTEX
  5
E839
  8
2
 10
37.586766542065277
 20
85.386763101594426
 30
0.0
  0
VERTEX
  5
E83A
  8
2
 10
37.780844031864831
 20
85.400098188700596
 30
0.0
  0
VERTEX
  5
E83B
  8
2
 10
37.877624908620248
 20
85.401761750227109
 30
0.0
  0
VERTEX
  5
E83C
  8
2
 10
37.974405785375673
 20
85.400098188700596
 30
0.0
  0
VERTEX
  5
E83D
  8
2
 10
38.168483275175277
 20
85.386763101594426
 30
0.0
  0
VERTEX
  5
E83E
  8
2
 10
38.364117167538041
 20
85.359950297798292
 30
0.0
  0
VERTEX
  5
E83F
  8
2
 10
38.562376055850109
 20
85.319370683790936
 30
0.0
  0
VERTEX
  5
E840
  8
2
 10
38.76437625456839
 20
85.264580839600427
 30
0.0
  0
VERTEX
  5
E841
  8
2
 10
38.97130343796357
 20
85.19497072463426
 30
0.0
  0
VERTEX
  5
E842
  8
2
 10
39.07701006694316
 20
85.15436771060493
 30
0.0
  0
VERTEX
  5
E843
  8
2
 10
39.184437031903258
 20
85.109746304958065
 30
0.0
  0
VERTEX
  5
E844
  8
2
 10
39.405178458206542
 20
85.007906156020255
 30
0.0
  0
VERTEX
  5
E845
  8
2
 10
39.635084610389747
 20
84.888210710811464
 30
0.0
  0
VERTEX
  5
E846
  8
2
 10
39.754013283486529
 20
84.821205166626356
 30
0.0
  0
SEQEND
  5
E847
  8
2
  0
POLYLINE
  5
E534
  8
2
 66
     1
 10
0.0
 20
0.0
 30
0.0
  0
VERTEX
  5
E848
  8
2
 10
39.754013283486529
 20
80.463813791450235
 30
0.0
  0
VERTEX
  5
E849
  8
2
 10
39.635084610389747
 20
80.396808247265156
 30
0.0
  0
VERTEX
  5
E84A
  8
2
 10
39.405178458206542
 20
80.277112802056379
 30
0.0
  0
VERTEX
  5
E84B
  8
2
 10
39.184437031903258
 20
80.175272653118526
 30
0.0
  0
VERTEX
  5
E84C
  8
2
 10
39.07701006694316
 20
80.130651247471675
 30
0.0
  0
VERTEX
  5
E84D
  8
2
 10
38.97130343796357
 20
80.090048233442346
 30
0.0
  0
VERTEX
  5
E84E
  8
2
 10
38.76437625456839
 20
80.020438118476207
 30
0.0
  0
VERTEX
  5
E84F
  8
2
 10
38.562376055850109
 20
79.965648274285698
 30
0.0
  0
VERTEX
  5
E850
  8
2
 10
38.364117167538041
 20
79.925068660278342
 30
0.0
  0
VERTEX
  5
E851
  8
2
 10
38.168483275175277
 20
79.898255856482209
 30
0.0
  0
VERTEX
  5
E852
  8
2
 10
37.974405785375673
 20
79.884920769376023
 30
0.0
  0
VERTEX
  5
E853
  8
2
 10
37.877624908620248
 20
79.883257207849496
 30
0.0
  0
VERTEX
  5
E854
  8
2
 10
37.780844031864831
 20
79.884920769376023
 30
0.0
  0
VERTEX
  5
E855
  8
2
 10
37.586766542065277
 20
79.898255856482209
 30
0.0
  0
VERTEX
  5
E856
  8
2
 10
37.391132649702463
 20
79.925068660278342
 30
0.0
  0
VERTEX
  5
E857
  8
2
 10
37.192873761390388
 20
79.965648274285698
 30
0.0
  0
VERTEX
  5
E858
  8
2
 10
36.990873562672171
 20
80.020438118476179
 30
0.0
  0
VERTEX
  5
E859
  8
2
 10
36.783946379276927
 20
80.090048233442346
 30
0.0
  0
VERTEX
  5
E85A
  8
2
 10
36.678239750297386
 20
80.130651247471675
 30
0.0
  0
VERTEX
  5
E85B
  8
2
 10
36.570812785337239
 20
80.175272653118526
 30
0.0
  0
VERTEX
  5
E85C
  8
2
 10
36.350071359034018
 20
80.277112802056379
 30
0.0
  0
VERTEX
  5
E85D
  8
2
 10
36.120165206850743
 20
80.396808247265156
 30
0.0
  0
VERTEX
  5
E85E
  8
2
 10
36.001236533753968
 20
80.463813791450235
 30
0.0
  0
SEQEND
  5
E85F
  8
2
  0
POLYLINE
  5
E535
  8
2
 66
     1
 10
0.0
 20
0.0
 30
0.0
  0
VERTEX
  5
E860
  8
2
 10
36.001236533753968
 20
84.821205166626356
 30
0.0
  0
VERTEX
  5
E861
  8
2
 10
35.763379187560417
 20
84.888210710811464
 30
0.0
  0
VERTEX
  5
E862
  8
2
 10
35.30356688319398
 20
85.007906156020255
 30
0.0
  0
VERTEX
  5
E863
  8
2
 10
34.862084030587432
 20
85.109746304958065
 30
0.0
  0
VERTEX
  5
E864
  8
2
 10
34.64723010066723
 20
85.15436771060493
 30
0.0
  0
VERTEX
  5
E865
  8
2
 10
34.435816842708107
 20
85.19497072463426
 30
0.0
  0
VERTEX
  5
E866
  8
2
 10
34.02196247591769
 20
85.264580839600427
 30
0.0
  0
VERTEX
  5
E867
  8
2
 10
33.617962078481071
 20
85.319370683790936
 30
0.0
  0
VERTEX
  5
E868
  8
2
 10
33.221444301856991
 20
85.359950297798292
 30
0.0
  0
VERTEX
  5
E869
  8
2
 10
32.830176517131413
 20
85.386763101594354
 30
0.0
  0
VERTEX
  5
E86A
  8
2
 10
32.442021537532298
 20
85.400098188700596
 30
0.0
  0
VERTEX
  5
E86B
  8
2
 10
32.248459784021406
 20
85.401761750227109
 30
0.0
  0
VERTEX
  5
E86C
  8
2
 10
32.054898030510508
 20
85.400098188700596
 30
0.0
  0
VERTEX
  5
E86D
  8
2
 10
31.666743050911411
 20
85.386763101594354
 30
0.0
  0
VERTEX
  5
E86E
  8
2
 10
31.275475266185818
 20
85.359950297798292
 30
0.0
  0
VERTEX
  5
E86F
  8
2
 10
30.878957489561738
 20
85.319370683790936
 30
0.0
  0
VERTEX
  5
E870
  8
2
 10
30.47495709212512
 20
85.264580839600427
 30
0.0
  0
VERTEX
  5
E871
  8
2
 10
30.06110272533471
 20
85.19497072463426
 30
0.0
  0
VERTEX
  5
E872
  8
2
 10
29.84968946737558
 20
85.15436771060493
 30
0.0
  0
VERTEX
  5
E873
  8
2
 10
29.634835537455391
 20
85.109746304958065
 30
0.0
  0
VERTEX
  5
E874
  8
2
 10
29.193352684848829
 20
85.007906156020255
 30
0.0
  0
VERTEX
  5
E875
  8
2
 10
28.733540380482399
 20
84.888210710811464
 30
0.0
  0
VERTEX
  5
E876
  8
2
 10
28.495683034288849
 20
84.821205166626356
 30
0.0
  0
SEQEND
  5
E877
  8
2
  0
POLYLINE
  5
E536
  8
2
 66
     1
 10
0.0
 20
0.0
 30
0.0
  0
VERTEX
  5
E878
  8
2
 10
24.742906284556291
 20
80.463813791450235
 30
0.0
  0
VERTEX
  5
E879
  8
2
 10
24.861834957653059
 20
80.396808247265156
 30
0.0
  0
VERTEX
  5
E87A
  8
2
 10
25.091741109836281
 20
80.277112802056379
 30
0.0
  0
VERTEX
  5
E87B
  8
2
 10
25.312482536139559
 20
80.175272653118526
 30
0.0
  0
VERTEX
  5
E87C
  8
2
 10
25.41990950109966
 20
80.130651247471675
 30
0.0
  0
VERTEX
  5
E87D
  8
2
 10
25.525616130079239
 20
80.090048233442346
 30
0.0
  0
VERTEX
  5
E87E
  8
2
 10
25.732543313474419
 20
80.020438118476207
 30
0.0
  0
VERTEX
  5
E87F
  8
2
 10
25.9345435121927
 20
79.965648274285698
 30
0.0
  0
VERTEX
  5
E880
  8
2
 10
26.132802400504769
 20
79.925068660278342
 30
0.0
  0
VERTEX
  5
E881
  8
2
 10
26.32843629286754
 20
79.898255856482209
 30
0.0
  0
VERTEX
  5
E882
  8
2
 10
26.522513782667151
 20
79.884920769376023
 30
0.0
  0
VERTEX
  5
E883
  8
2
 10
26.619294659422561
 20
79.883257207849496
 30
0.0
  0
VERTEX
  5
E884
  8
2
 10
26.716075536177989
 20
79.884920769376023
 30
0.0
  0
VERTEX
  5
E885
  8
2
 10
26.910153025977539
 20
79.898255856482209
 30
0.0
  0
VERTEX
  5
E886
  8
2
 10
27.10578691834036
 20
79.925068660278342
 30
0.0
  0
VERTEX
  5
E887
  8
2
 10
27.304045806652429
 20
79.965648274285698
 30
0.0
  0
VERTEX
  5
E888
  8
2
 10
27.506046005370649
 20
80.020438118476179
 30
0.0
  0
VERTEX
  5
E889
  8
2
 10
27.71297318876589
 20
80.090048233442346
 30
0.0
  0
VERTEX
  5
E88A
  8
2
 10
27.818679817745419
 20
80.130651247471675
 30
0.0
  0
VERTEX
  5
E88B
  8
2
 10
27.926106782705581
 20
80.175272653118526
 30
0.0
  0
VERTEX
  5
E88C
  8
2
 10
28.146848209008791
 20
80.277112802056379
 30
0.0
  0
VERTEX
  5
E88D
  8
2
 10
28.37675436119207
 20
80.396808247265156
 30
0.0
  0
VERTEX
  5
E88E
  8
2
 10
28.495683034288849
 20
80.463813791450235
 30
0.0
  0
SEQEND
  5
E88F
  8
2
  0
POLYLINE
  5
E537
  8
2
 66
     1
 10
0.0
 20
0.0
 30
0.0
  0
VERTEX
  5
E890
  8
2
 10
24.742906284556291
 20
84.821205166626356
 30
0.0
  0
VERTEX
  5
E891
  8
2
 10
24.861834957653059
 20
84.888210710811464
 30
0.0
  0
VERTEX
  5
E892
  8
2
 10
25.091741109836281
 20
85.007906156020255
 30
0.0
  0
VERTEX
  5
E893
  8
2
 10
25.312482536139559
 20
85.109746304958065
 30
0.0
  0
VERTEX
  5
E894
  8
2
 10
25.41990950109966
 20
85.15436771060493
 30
0.0
  0
VERTEX
  5
E895
  8
2
 10
25.525616130079239
 20
85.19497072463426
 30
0.0
  0
VERTEX
  5
E896
  8
2
 10
25.732543313474419
 20
85.264580839600427
 30
0.0
  0
VERTEX
  5
E897
  8
2
 10
25.9345435121927
 20
85.319370683790936
 30
0.0
  0
VERTEX
  5
E898
  8
2
 10
26.132802400504769
 20
85.359950297798292
 30
0.0
  0
VERTEX
  5
E899
  8
2
 10
26.32843629286754
 20
85.386763101594354
 30
0.0
  0
VERTEX
  5
E89A
  8
2
 10
26.522513782667151
 20
85.400098188700596
 30
0.0
  0
VERTEX
  5
E89B
  8
2
 10
26.619294659422561
 20
85.401761750227109
 30
0.0
  0
VERTEX
  5
E89C
  8
2
 10
26.716075536177989
 20
85.400098188700596
 30
0.0
  0
VERTEX
  5
E89D
  8
2
 10
26.910153025977539
 20
85.386763101594426
 30
0.0
  0
VERTEX
  5
E89E
  8
2
 10
27.10578691834036
 20
85.359950297798292
 30
0.0
  0
VERTEX
  5
E89F
  8
2
 10
27.304045806652429
 20
85.319370683790936
 30
0.0
  0
VERTEX
  5
E8A0
  8
2
 10
27.506046005370649
 20
85.264580839600427
 30
0.0
  0
VERTEX
  5
E8A1
  8
2
 10
27.71297318876589
 20
85.19497072463426
 30
0.0
  0
VERTEX
  5
E8A2
  8
2
 10
27.818679817745419
 20
85.15436771060493
 30
0.0
  0
VERTEX
  5
E8A3
  8
2
 10
27.926106782705581
 20
85.109746304958065
 30
0.0
  0
VERTEX
  5
E8A4
  8
2
 10
28.146848209008791
 20
85.007906156020255
 30
0.0
  0
VERTEX
  5
E8A5
  8
2
 10
28.37675436119207
 20
84.888210710811464
 30
0.0
  0
VERTEX
  5
E8A6
  8
2
 10
28.495683034288849
 20
84.821205166626356
 30
0.0
  0
SEQEND
  5
E8A7
  8
2
  0
LINE
  5
E538
  8
2
 10
28.495683034288849
 20
84.821205166626356
 30
0.0
 11
28.495683034288849
 21
80.463813791450235
 31
0.0
  0
LINE
  5
E539
  8
2
 10
36.001236533753968
 20
84.821205166626356
 30
0.0
 11
36.001236533753968
 21
80.463813791450235
 31
0.0
  0
POLYLINE
  5
E53A
  8
2
 66
     1
 10
0.0
 20
0.0
 30
0.0
  0
VERTEX
  5
E8A8
  8
2
 10
36.001236533753968
 20
80.463813791450235
 30
0.0
  0
VERTEX
  5
E8A9
  8
2
 10
35.763379187560417
 20
80.396808247265156
 30
0.0
  0
VERTEX
  5
E8AA
  8
2
 10
35.30356688319398
 20
80.277112802056379
 30
0.0
  0
VERTEX
  5
E8AB
  8
2
 10
34.862084030587432
 20
80.175272653118526
 30
0.0
  0
VERTEX
  5
E8AC
  8
2
 10
34.64723010066723
 20
80.130651247471675
 30
0.0
  0
VERTEX
  5
E8AD
  8
2
 10
34.435816842708107
 20
80.090048233442346
 30
0.0
  0
VERTEX
  5
E8AE
  8
2
 10
34.02196247591769
 20
80.020438118476207
 30
0.0
  0
VERTEX
  5
E8AF
  8
2
 10
33.617962078481071
 20
79.965648274285698
 30
0.0
  0
VERTEX
  5
E8B0
  8
2
 10
33.221444301856991
 20
79.925068660278342
 30
0.0
  0
VERTEX
  5
E8B1
  8
2
 10
32.830176517131413
 20
79.898255856482209
 30
0.0
  0
VERTEX
  5
E8B2
  8
2
 10
32.442021537532298
 20
79.884920769376023
 30
0.0
  0
VERTEX
  5
E8B3
  8
2
 10
32.248459784021406
 20
79.883257207849496
 30
0.0
  0
VERTEX
  5
E8B4
  8
2
 10
32.054898030510508
 20
79.884920769376023
 30
0.0
  0
VERTEX
  5
E8B5
  8
2
 10
31.666743050911411
 20
79.898255856482209
 30
0.0
  0
VERTEX
  5
E8B6
  8
2
 10
31.275475266185818
 20
79.925068660278342
 30
0.0
  0
VERTEX
  5
E8B7
  8
2
 10
30.878957489561738
 20
79.965648274285698
 30
0.0
  0
VERTEX
  5
E8B8
  8
2
 10
30.47495709212512
 20
80.020438118476207
 30
0.0
  0
VERTEX
  5
E8B9
  8
2
 10
30.06110272533471
 20
80.090048233442346
 30
0.0
  0
VERTEX
  5
E8BA
  8
2
 10
29.84968946737558
 20
80.130651247471675
 30
0.0
  0
VERTEX
  5
E8BB
  8
2
 10
29.634835537455391
 20
80.175272653118526
 30
0.0
  0
VERTEX
  5
E8BC
  8
2
 10
29.193352684848829
 20
80.277112802056379
 30
0.0
  0
VERTEX
  5
E8BD
  8
2
 10
28.733540380482399
 20
80.396808247265156
 30
0.0
  0
VERTEX
  5
E8BE
  8
2
 10
28.495683034288849
 20
80.463813791450235
 30
0.0
  0
SEQEND
  5
E8BF
  8
2
  0
LINE
  5
E53B
  8
2
 10
39.754013283486529
 20
85.892509479038296
 30
0.0
 11
39.754013283486529
 21
79.39250947903831
 31
0.0
  0
LINE
  5
E53C
  8
2
 10
39.754013283486529
 20
79.39250947903831
 30
0.0
 11
24.742906284556291
 21
79.39250947903831
 31
0.0
  0
LINE
  5
E53D
  8
2
 10
24.742906284556291
 20
85.892509479038296
 30
0.0
 11
39.754013283486529
 21
85.892509479038296
 31
0.0
  0
LINE
  5
E53E
  8
2
 10
24.742906284556291
 20
79.39250947903831
 30
0.0
 11
24.742906284556291
 21
85.892509479038296
 31
0.0
  0
LINE
  5
E55C
  8
2
 10
76.598459784021401
 20
85.892509479038296
 30
0.0
 11
75.748459784021364
 21
85.401761750227109
 31
0.0
  0
LINE
  5
E55D
  8
2
 10
88.748459784021378
 20
85.401761750227109
 30
0.0
 11
87.898459784021355
 21
85.892509479038296
 31
0.0
  0
LINE
  5
E55E
  8
2
 10
75.748459784021364
 20
79.883257207849496
 30
0.0
 11
76.598459784021401
 21
79.39250947903831
 31
0.0
  0
LINE
  5
E55F
  8
2
 10
87.898459784021355
 20
79.39250947903831
 30
0.0
 11
88.748459784021378
 21
79.883257207849496
 31
0.0
  0
POLYLINE
  5
E560
  8
2
 66
     1
 10
0.0
 20
0.0
 30
0.0
  0
VERTEX
  5
E8C0
  8
2
 10
75.748459784021364
 20
84.821205166626356
 30
0.0
  0
VERTEX
  5
E8C1
  8
2
 10
75.954450288301729
 20
84.888210710811464
 30
0.0
  0
VERTEX
  5
E8C2
  8
2
 10
76.352659424855773
 20
85.007906156020255
 30
0.0
  0
VERTEX
  5
E8C3
  8
2
 10
76.7349947905482
 20
85.109746304958065
 30
0.0
  0
VERTEX
  5
E8C4
  8
2
 10
76.921063751962066
 20
85.15436771060493
 30
0.0
  0
VERTEX
  5
E8C5
  8
2
 10
77.104153004051483
 20
85.19497072463426
 30
0.0
  0
VERTEX
  5
E8C6
  8
2
 10
77.462561399159114
 20
85.264580839600427
 30
0.0
  0
VERTEX
  5
E8C7
  8
2
 10
77.812436006478237
 20
85.319370683790936
 30
0.0
  0
VERTEX
  5
E8C8
  8
2
 10
78.155830474086784
 20
85.359950297798292
 30
0.0
  0
VERTEX
  5
E8C9
  8
2
 10
78.494678315341588
 20
85.386763101594426
 30
0.0
  0
VERTEX
  5
E8CA
  8
2
 10
78.83083038827985
 20
85.400098188700596
 30
0.0
  0
VERTEX
  5
E8CB
  8
2
 10
78.998459784021364
 20
85.401761750227109
 30
0.0
  0
VERTEX
  5
E8CC
  8
2
 10
79.166089179762849
 20
85.400098188700596
 30
0.0
  0
VERTEX
  5
E8CD
  8
2
 10
79.502241252701111
 20
85.386763101594426
 30
0.0
  0
VERTEX
  5
E8CE
  8
2
 10
79.841089093955901
 20
85.359950297798292
 30
0.0
  0
VERTEX
  5
E8CF
  8
2
 10
80.184483561564534
 20
85.319370683790936
 30
0.0
  0
VERTEX
  5
E8D0
  8
2
 10
80.534358168883585
 20
85.264580839600427
 30
0.0
  0
VERTEX
  5
E8D1
  8
2
 10
80.892766563991216
 20
85.19497072463426
 30
0.0
  0
VERTEX
  5
E8D2
  8
2
 10
81.075855816080633
 20
85.15436771060493
 30
0.0
  0
VERTEX
  5
E8D3
  8
2
 10
81.261924777494499
 20
85.109746304958065
 30
0.0
  0
VERTEX
  5
E8D4
  8
2
 10
81.644260143186969
 20
85.007906156020255
 30
0.0
  0
VERTEX
  5
E8D5
  8
2
 10
82.04246927974097
 20
84.888210710811464
 30
0.0
  0
VERTEX
  5
E8D6
  8
2
 10
82.248459784021378
 20
84.821205166626356
 30
0.0
  0
SEQEND
  5
E8D7
  8
2
  0
POLYLINE
  5
E561
  8
2
 66
     1
 10
0.0
 20
0.0
 30
0.0
  0
VERTEX
  5
E8D8
  8
2
 10
82.248459784021378
 20
80.463813791450235
 30
0.0
  0
VERTEX
  5
E8D9
  8
2
 10
82.04246927974097
 20
80.396808247265156
 30
0.0
  0
VERTEX
  5
E8DA
  8
2
 10
81.644260143186969
 20
80.277112802056379
 30
0.0
  0
VERTEX
  5
E8DB
  8
2
 10
81.261924777494499
 20
80.175272653118526
 30
0.0
  0
VERTEX
  5
E8DC
  8
2
 10
81.075855816080633
 20
80.130651247471675
 30
0.0
  0
VERTEX
  5
E8DD
  8
2
 10
80.892766563991216
 20
80.090048233442346
 30
0.0
  0
VERTEX
  5
E8DE
  8
2
 10
80.534358168883585
 20
80.020438118476207
 30
0.0
  0
VERTEX
  5
E8DF
  8
2
 10
80.184483561564534
 20
79.965648274285698
 30
0.0
  0
VERTEX
  5
E8E0
  8
2
 10
79.841089093955901
 20
79.925068660278342
 30
0.0
  0
VERTEX
  5
E8E1
  8
2
 10
79.502241252701111
 20
79.898255856482209
 30
0.0
  0
VERTEX
  5
E8E2
  8
2
 10
79.166089179762849
 20
79.884920769376023
 30
0.0
  0
VERTEX
  5
E8E3
  8
2
 10
78.998459784021364
 20
79.883257207849496
 30
0.0
  0
VERTEX
  5
E8E4
  8
2
 10
78.83083038827985
 20
79.884920769376023
 30
0.0
  0
VERTEX
  5
E8E5
  8
2
 10
78.494678315341588
 20
79.898255856482209
 30
0.0
  0
VERTEX
  5
E8E6
  8
2
 10
78.155830474086784
 20
79.925068660278342
 30
0.0
  0
VERTEX
  5
E8E7
  8
2
 10
77.812436006478237
 20
79.965648274285698
 30
0.0
  0
VERTEX
  5
E8E8
  8
2
 10
77.462561399159114
 20
80.020438118476179
 30
0.0
  0
VERTEX
  5
E8E9
  8
2
 10
77.104153004051483
 20
80.090048233442346
 30
0.0
  0
VERTEX
  5
E8EA
  8
2
 10
76.921063751962066
 20
80.130651247471675
 30
0.0
  0
VERTEX
  5
E8EB
  8
2
 10
76.7349947905482
 20
80.175272653118526
 30
0.0
  0
VERTEX
  5
E8EC
  8
2
 10
76.352659424855773
 20
80.277112802056379
 30
0.0
  0
VERTEX
  5
E8ED
  8
2
 10
75.954450288301729
 20
80.396808247265156
 30
0.0
  0
VERTEX
  5
E8EE
  8
2
 10
75.748459784021364
 20
80.463813791450235
 30
0.0
  0
SEQEND
  5
E8EF
  8
2
  0
LINE
  5
E562
  8
2
 10
82.248459784021378
 20
84.821205166626356
 30
0.0
 11
82.248459784021378
 21
80.463813791450235
 31
0.0
  0
POLYLINE
  5
E563
  8
2
 66
     1
 10
0.0
 20
0.0
 30
0.0
  0
VERTEX
  5
E8F0
  8
2
 10
82.248459784021378
 20
84.821205166626356
 30
0.0
  0
VERTEX
  5
E8F1
  8
2
 10
82.454450288301729
 20
84.888210710811464
 30
0.0
  0
VERTEX
  5
E8F2
  8
2
 10
82.852659424855787
 20
85.007906156020255
 30
0.0
  0
VERTEX
  5
E8F3
  8
2
 10
83.2349947905482
 20
85.109746304958065
 30
0.0
  0
VERTEX
  5
E8F4
  8
2
 10
83.421063751962066
 20
85.15436771060493
 30
0.0
  0
VERTEX
  5
E8F5
  8
2
 10
83.604153004051497
 20
85.19497072463426
 30
0.0
  0
VERTEX
  5
E8F6
  8
2
 10
83.962561399159114
 20
85.264580839600427
 30
0.0
  0
VERTEX
  5
E8F7
  8
2
 10
84.312436006478237
 20
85.319370683790936
 30
0.0
  0
VERTEX
  5
E8F8
  8
2
 10
84.655830474086798
 20
85.359950297798292
 30
0.0
  0
VERTEX
  5
E8F9
  8
2
 10
84.994678315341588
 20
85.386763101594354
 30
0.0
  0
VERTEX
  5
E8FA
  8
2
 10
85.33083038827985
 20
85.400098188700596
 30
0.0
  0
VERTEX
  5
E8FB
  8
2
 10
85.498459784021364
 20
85.401761750227109
 30
0.0
  0
VERTEX
  5
E8FC
  8
2
 10
85.666089179762849
 20
85.400098188700596
 30
0.0
  0
VERTEX
  5
E8FD
  8
2
 10
86.002241252701111
 20
85.386763101594426
 30
0.0
  0
VERTEX
  5
E8FE
  8
2
 10
86.341089093955915
 20
85.359950297798292
 30
0.0
  0
VERTEX
  5
E8FF
  8
2
 10
86.684483561564505
 20
85.319370683790936
 30
0.0
  0
VERTEX
  5
E900
  8
2
 10
87.034358168883585
 20
85.264580839600427
 30
0.0
  0
VERTEX
  5
E901
  8
2
 10
87.392766563991273
 20
85.19497072463426
 30
0.0
  0
VERTEX
  5
E902
  8
2
 10
87.575855816080633
 20
85.15436771060493
 30
0.0
  0
VERTEX
  5
E903
  8
2
 10
87.761924777494499
 20
85.109746304958065
 30
0.0
  0
VERTEX
  5
E904
  8
2
 10
88.144260143186983
 20
85.007906156020255
 30
0.0
  0
VERTEX
  5
E905
  8
2
 10
88.54246927974097
 20
84.888210710811464
 30
0.0
  0
VERTEX
  5
E906
  8
2
 10
88.748459784021378
 20
84.821205166626356
 30
0.0
  0
SEQEND
  5
E907
  8
2
  0
POLYLINE
  5
E564
  8
2
 66
     1
 10
0.0
 20
0.0
 30
0.0
  0
VERTEX
  5
E908
  8
2
 10
88.748459784021378
 20
80.463813791450235
 30
0.0
  0
VERTEX
  5
E909
  8
2
 10
88.54246927974097
 20
80.396808247265156
 30
0.0
  0
VERTEX
  5
E90A
  8
2
 10
88.144260143186983
 20
80.277112802056379
 30
0.0
  0
VERTEX
  5
E90B
  8
2
 10
87.761924777494499
 20
80.175272653118526
 30
0.0
  0
VERTEX
  5
E90C
  8
2
 10
87.575855816080633
 20
80.130651247471675
 30
0.0
  0
VERTEX
  5
E90D
  8
2
 10
87.392766563991216
 20
80.090048233442346
 30
0.0
  0
VERTEX
  5
E90E
  8
2
 10
87.034358168883585
 20
80.020438118476179
 30
0.0
  0
VERTEX
  5
E90F
  8
2
 10
86.684483561564505
 20
79.965648274285698
 30
0.0
  0
VERTEX
  5
E910
  8
2
 10
86.341089093955915
 20
79.925068660278342
 30
0.0
  0
VERTEX
  5
E911
  8
2
 10
86.002241252701111
 20
79.898255856482209
 30
0.0
  0
VERTEX
  5
E912
  8
2
 10
85.666089179762849
 20
79.884920769376023
 30
0.0
  0
VERTEX
  5
E913
  8
2
 10
85.498459784021364
 20
79.883257207849496
 30
0.0
  0
VERTEX
  5
E914
  8
2
 10
85.33083038827985
 20
79.884920769376023
 30
0.0
  0
VERTEX
  5
E915
  8
2
 10
84.994678315341588
 20
79.898255856482209
 30
0.0
  0
VERTEX
  5
E916
  8
2
 10
84.655830474086798
 20
79.925068660278342
 30
0.0
  0
VERTEX
  5
E917
  8
2
 10
84.312436006478237
 20
79.965648274285698
 30
0.0
  0
VERTEX
  5
E918
  8
2
 10
83.962561399159114
 20
80.020438118476207
 30
0.0
  0
VERTEX
  5
E919
  8
2
 10
83.604153004051497
 20
80.090048233442346
 30
0.0
  0
VERTEX
  5
E91A
  8
2
 10
83.421063751962066
 20
80.130651247471675
 30
0.0
  0
VERTEX
  5
E91B
  8
2
 10
83.2349947905482
 20
80.175272653118526
 30
0.0
  0
VERTEX
  5
E91C
  8
2
 10
82.852659424855787
 20
80.277112802056379
 30
0.0
  0
VERTEX
  5
E91D
  8
2
 10
82.454450288301729
 20
80.396808247265156
 30
0.0
  0
VERTEX
  5
E91E
  8
2
 10
82.248459784021378
 20
80.463813791450235
 30
0.0
  0
SEQEND
  5
E91F
  8
2
  0
LINE
  5
E565
  8
2
 10
75.748459784021364
 20
79.39250947903831
 30
0.0
 11
75.748459784021364
 21
85.892509479038296
 31
0.0
  0
LINE
  5
E566
  8
2
 10
75.748459784021364
 20
79.39250947903831
 30
0.0
 11
88.748459784021378
 21
79.39250947903831
 31
0.0
  0
LINE
  5
E567
  8
2
 10
88.748459784021378
 20
79.39250947903831
 30
0.0
 11
88.748459784021378
 21
85.892509479038296
 31
0.0
  0
LINE
  5
E568
  8
2
 10
88.748459784021378
 20
85.892509479038296
 30
0.0
 11
75.748459784021364
 21
85.892509479038296
 31
0.0
  0
CIRCLE
  5
E5D1
  8
0
 10
32.248459784021406
 20
38.892509479038281
 30
0.0
 40
4.200000000000002
  0
TEXT
  5
E68A
  8
0
 62
     3
 10
0.0
 20
0.0
 30
0.0
 40
10.0
  1
NDEQ25-M8
  7
STANDARD1
  0
ENDSEC
  0
EOF
