  0
SECTION
  2
HEADER
  9
$ACADVER
  1
AC1009
  9
$INSBASE
 10
0.0
 20
0.0
 30
0.0
  9
$EXTMIN
 10
0.0
 20
-2.960436562073669
 30
0.0
  9
$EXTMAX
 10
107.24845978402151
 20
123.8925094790383
 30
0.0
  9
$LIMMIN
 10
0.0
 20
0.0
  9
$LIMMAX
 10
375.0
 20
270.0
  9
$ORTHOMODE
 70
     1
  9
$REGENMODE
 70
     1
  9
$FILLMODE
 70
     1
  9
$QTEXTMODE
 70
     0
  9
$MIRRTEXT
 70
     0
  9
$DRAGMODE
 70
     2
  9
$LTSCALE
 40
6.0
  9
$OSMODE
 70
    37
  9
$ATTMODE
 70
     1
  9
$TEXTSIZE
 40
0.2
  9
$TRACEWID
 40
0.05
  9
$TEXTSTYLE
  7
STANDARD
  9
$CLAYER
  8
0
  9
$CELTYPE
  6
BYLAYER
  9
$CECOLOR
 62
   256
  9
$DIMSCALE
 40
1.0
  9
$DIMASZ
 40
3.0
  9
$DIMEXO
 40
1.0
  9
$DIMDLI
 40
6.0
  9
$DIMRND
 40
0.0
  9
$DIMDLE
 40
0.0
  9
$DIMEXE
 40
1.0
  9
$DIMTP
 40
495.0
  9
$DIMTM
 40
0.0
  9
$DIMTXT
 40
3.0
  9
$DIMCEN
 40
0.0
  9
$DIMTSZ
 40
0.0
  9
$DIMTOL
 70
     0
  9
$DIMLIM
 70
     0
  9
$DIMTIH
 70
     0
  9
$DIMTOH
 70
     0
  9
$DIMSE1
 70
     0
  9
$DIMSE2
 70
     0
  9
$DIMTAD
 70
     1
  9
$DIMZIN
 70
     0
  9
$DIMBLK
  1

  9
$DIMASO
 70
     0
  9
$DIMSHO
 70
     0
  9
$DIMPOST
  1

  9
$DIMAPOST
  1

  9
$DIMALT
 70
     0
  9
$DIMALTD
 70
     2
  9
$DIMALTF
 40
25.399999999999999
  9
$DIMLFAC
 40
1.0
  9
$DIMTOFL
 70
     1
  9
$DIMTVP
 40
0.0
  9
$DIMTIX
 70
     1
  9
$DIMSOXD
 70
     0
  9
$DIMSAH
 70
     0
  9
$DIMBLK1
  1

  9
$DIMBLK2
  1

  9
$DIMSTYLE
  2
STANDARD
  9
$DIMCLRD
 70
     0
  9
$DIMCLRE
 70
     0
  9
$DIMCLRT
 70
     4
  9
$DIMTFAC
 40
1.0
  9
$DIMGAP
 40
1.0
  9
$LUNITS
 70
     2
  9
$LUPREC
 70
     4
  9
$SKETCHINC
 40
0.1
  9
$FILLETRAD
 40
2.0
  9
$AUNITS
 70
     0
  9
$AUPREC
 70
     0
  9
$MENU
  1
C:\R13\WIN\SUPPORT\ACAD-I
  9
$ELEVATION
 40
0.0
  9
$PELEVATION
 40
0.0
  9
$THICKNESS
 40
0.0
  9
$LIMCHECK
 70
     0
  9
$BLIPMODE
 70
     0
  9
$CHAMFERA
 40
0.0
  9
$CHAMFERB
 40
0.0
  9
$SKPOLY
 70
     0
  9
$TDCREATE
 40
2451963.5438110419
  9
$TDUPDATE
 40
2456598.7258377201
  9
$TDINDWG
 40
0.2089753472
  9
$TDUSRTIMER
 40
2456598.113195614
  9
$USRTIMER
 70
     1
  9
$ANGBASE
 50
0.0
  9
$ANGDIR
 70
     0
  9
$PDMODE
 70
     0
  9
$PDSIZE
 40
0.0
  9
$PLINEWID
 40
0.0
  9
$COORDS
 70
     1
  9
$SPLFRAME
 70
     0
  9
$SPLINETYPE
 70
     6
  9
$SPLINESEGS
 70
     8
  9
$ATTDIA
 70
     0
  9
$ATTREQ
 70
     1
  9
$HANDLING
 70
     1
  9
$HANDSEED
  5
F22D
  9
$SURFTAB1
 70
     6
  9
$SURFTAB2
 70
     6
  9
$SURFTYPE
 70
     6
  9
$SURFU
 70
     6
  9
$SURFV
 70
     6
  9
$UCSNAME
  2

  9
$UCSORG
 10
0.0
 20
0.0
 30
0.0
  9
$UCSXDIR
 10
1.0
 20
0.0
 30
0.0
  9
$UCSYDIR
 10
0.0
 20
1.0
 30
0.0
  9
$PUCSNAME
  2

  9
$PUCSORG
 10
0.0
 20
0.0
 30
0.0
  9
$PUCSXDIR
 10
1.0
 20
0.0
 30
0.0
  9
$PUCSYDIR
 10
0.0
 20
1.0
 30
0.0
  9
$USERI1
 70
     4
  9
$USERI2
 70
     1
  9
$USERI3
 70
     0
  9
$USERI4
 70
     0
  9
$USERI5
 70
     0
  9
$USERR1
 40
1.0
  9
$USERR2
 40
3.0
  9
$USERR3
 40
3.0
  9
$USERR4
 40
3.0
  9
$USERR5
 40
10.0
  9
$WORLDVIEW
 70
     1
  9
$SHADEDGE
 70
     3
  9
$SHADEDIF
 70
    70
  9
$TILEMODE
 70
     1
  9
$MAXACTVP
 70
    16
  9
$PLIMCHECK
 70
     0
  9
$PEXTMIN
 10
1.0000000000000000E+020
 20
1.0000000000000000E+020
 30
1.0000000000000000E+020
  9
$PEXTMAX
 10
-1.0000000000000000E+020
 20
-1.0000000000000000E+020
 30
-1.0000000000000000E+020
  9
$PLIMMIN
 10
0.0
 20
0.0
  9
$PLIMMAX
 10
12.0
 20
9.0
  9
$UNITMODE
 70
     0
  9
$VISRETAIN
 70
     0
  9
$PLINEGEN
 70
     0
  9
$PSLTSCALE
 70
     0
  0
ENDSEC
  0
SECTION
  2
TABLES
  0
TABLE
  2
VPORT
 70
     1
  0
VPORT
  2
*ACTIVE
 70
     0
 10
0.0
 20
0.0
 11
1.0
 21
1.0
 12
187.49427839065231
 22
177.52205812711131
 13
0.0
 23
0.0
 14
10.0
 24
10.0
 15
10.0
 25
10.0
 16
0.0
 26
0.0
 36
1.0
 17
0.0
 27
0.0
 37
0.0
 40
364.13085016302909
 41
1.755244755244755
 42
50.0
 43
0.0
 44
0.0
 50
0.0
 51
0.0
 71
     0
 72
   100
 73
     1
 74
     0
 75
     0
 76
     0
 77
     0
 78
     0
  0
ENDTAB
  0
TABLE
  2
LTYPE
 70
     4
  0
LTYPE
  2
CONTINUOUS
 70
     0
  3
Solid Line
 72
    65
 73
     0
 40
0.0
  0
LTYPE
  2
CENTER
 70
     0
  3
____ _ ____ _ ____ _ ____ _ ____ _ ____ _ ____
 72
    65
 73
     4
 40
2.0
 49
1.25
 49
-0.25
 49
0.25
 49
-0.25
  0
LTYPE
  2
HIDDEN
 70
     0
  3
_ _ _ _ _ _ _ _ _ _ _ _ _ _ _ _ _ _ _ _ _ _ _
 72
    65
 73
     2
 40
0.375
 49
0.25
 49
-0.125
  0
LTYPE
  2
PHANTOM2
 70
     0
  3
___ _ _ ___ _ _ ___ _ _ ___ _ _
 72
    65
 73
     6
 40
1.25
 49
0.625
 49
-0.125
 49
0.125
 49
-0.125
 49
0.125
 49
-0.125
  0
ENDTAB
  0
TABLE
  2
LAYER
 70
     5
  0
LAYER
  2
0
 70
     0
 62
     7
  6
CONTINUOUS
  0
LAYER
  2
1
 70
     0
 62
     1
  6
CENTER
  0
LAYER
  2
3
 70
     0
 62
     3
  6
CONTINUOUS
  0
LAYER
  2
2
 70
     0
 62
     2
  6
HIDDEN
  0
LAYER
  2
DEFPOINTS
 70
     0
 62
     7
  6
CONTINUOUS
  0
ENDTAB
  0
TABLE
  2
STYLE
 70
     2
  0
STYLE
  2
STANDARD
 70
     0
 40
0.0
 41
1.0
 50
0.0
 71
     0
 42
0.2
  3
SIMPLEX
  4
BIGFONT
  0
STYLE
  2
STANDARD1
 70
     0
 40
0.0
 41
1.0
 50
0.0
 71
     0
 42
3.0
  3
txt
  4

  0
ENDTAB
  0
TABLE
  2
VIEW
 70
     0
  0
ENDTAB
  0
TABLE
  2
UCS
 70
     0
  0
ENDTAB
  0
TABLE
  2
APPID
 70
    29
  0
APPID
  2
ACAD
 70
     0
  0
APPID
  2
GENIUS_GENOREF_13
 70
     0
  0
APPID
  2
GENIUS_GENOENT_13
 70
     0
  0
APPID
  2
GENIUS_GENBH_13
 70
     0
  0
APPID
  2
GENIUS_GENOBJ_13
 70
     0
  0
APPID
  2
GENIUS_GENODEF_13
 70
     0
  0
APPID
  2
GENIUS_GENOLIS_13
 70
     0
  0
APPID
  2
GENIUS_GENOBJ-NBEHI-BHF_13
 70
     0
  0
APPID
  2
GENIUS_GENOBJ-NBEHI-BHB_13
 70
     0
  0
APPID
  2
GENIUS_GENOBJ-F-PART_13
 70
     0
  0
APPID
  2
GENIUS_GEFSTDP_13
 70
     0
  0
APPID
  2
GENIUS_GENOBJ-N-RSSYM_13
 70
     0
  0
APPID
  2
GENIUS_GENSYMENT_13
 70
     0
  0
APPID
  2
GENIUS_GENOBJ-N-TIT_13
 70
     0
  0
APPID
  2
GENIUS_GENTITLE_13
 70
     0
  0
APPID
  2
GENIUS_GENZVEED_13
 70
     0
  0
APPID
  2
GENIUS_GENOBJ-N-LEADER_13
 70
     0
  0
APPID
  2
GENIUS_GENOBJ-N-FIL_13
 70
     0
  0
APPID
  2
GENIUS_GENOBJ-N-SEC_13
 70
     0
  0
APPID
  2
GENIUS_GENOBJ-N-CRS_13
 70
     0
  0
APPID
  2
GENIUS_GENOBJ-N-ZOO_13
 70
     0
  0
APPID
  2
GENIUS_GENZOO_13
 70
     0
  0
APPID
  2
GENIUS_GENOBJ-F-TOL_13
 70
     0
  0
APPID
  2
GENIUS_GENFIL_13
 70
     0
  0
APPID
  2
GENIUS_GENOBJ-N-CHA_13
 70
     0
  0
APPID
  2
_CALL_MAC$
 70
     0
  0
APPID
  2
ACAD_NAV_VCDISPLAY
 70
     0
  0
APPID
  2
ACAD_EXEMPT_FROM_CAD_STANDARDS
 70
     0
  0
APPID
  2
ACAD_MLEADERVER
 70
     0
  0
ENDTAB
  0
TABLE
  2
DIMSTYLE
 70
     1
  0
DIMSTYLE
  2
STANDARD
 70
     0
  3

  4

  5

  6

  7

 40
1.0
 41
0.18
 42
0.0625
 43
0.38
 44
0.18
 45
0.0
 46
0.0
 47
0.0
 48
0.0
140
0.18
141
0.09
142
0.0
143
25.399999999999999
144
1.0
145
0.0
146
1.0
147
0.09
 71
     0
 72
     0
 73
     1
 74
     1
 75
     0
 76
     0
 77
     0
 78
     0
170
     0
171
     2
172
     0
173
     0
174
     0
175
     0
176
     0
177
     0
178
     0
  0
ENDTAB
  0
ENDSEC
  0
SECTION
  2
BLOCKS
  0
BLOCK
  8
0
  2
$MODEL_SPACE
 70
     0
 10
0.0
 20
0.0
 30
0.0
  3
$MODEL_SPACE
  1

  0
ENDBLK
  5
CF6E
  8
0
  0
BLOCK
 67
     1
  8
0
  2
$PAPER_SPACE
 70
     0
 10
0.0
 20
0.0
 30
0.0
  3
$PAPER_SPACE
  1

  0
ENDBLK
  5
CF6C
 67
     1
  8
0
  0
ENDSEC
  0
SECTION
  2
ENTITIES
  0
LINE
  5
ECDE
  8
2
 10
26.598459784021429
 20
95.392509479038296
 30
0.0
 11
24.742906284556291
 21
94.321205166626356
 31
0.0
  0
LINE
  5
ECDF
  8
2
 10
39.754013283486529
 20
94.321205166626356
 30
0.0
 11
37.898459784021377
 21
95.392509479038296
 31
0.0
  0
LINE
  5
ECE0
  8
2
 10
24.742906284556291
 20
89.963813791450264
 30
0.0
 11
26.598459784021429
 21
88.892509479038296
 31
0.0
  0
LINE
  5
ECE1
  8
2
 10
37.898459784021377
 20
88.892509479038296
 30
0.0
 11
39.754013283486529
 21
89.963813791450264
 31
0.0
  0
POLYLINE
  5
ECEC
  8
2
 66
     1
 10
0.0
 20
0.0
 30
0.0
  0
VERTEX
  5
F04D
  8
2
 10
36.001236533753968
 20
94.321205166626356
 30
0.0
  0
VERTEX
  5
F04E
  8
2
 10
36.120165206850743
 20
94.388210710811478
 30
0.0
  0
VERTEX
  5
F04F
  8
2
 10
36.350071359034018
 20
94.507906156020226
 30
0.0
  0
VERTEX
  5
F050
  8
2
 10
36.570812785337239
 20
94.609746304958065
 30
0.0
  0
VERTEX
  5
F051
  8
2
 10
36.678239750297386
 20
94.654367710604944
 30
0.0
  0
VERTEX
  5
F052
  8
2
 10
36.783946379276927
 20
94.694970724634246
 30
0.0
  0
VERTEX
  5
F053
  8
2
 10
36.990873562672171
 20
94.764580839600427
 30
0.0
  0
VERTEX
  5
F054
  8
2
 10
37.192873761390388
 20
94.819370683790908
 30
0.0
  0
VERTEX
  5
F055
  8
2
 10
37.391132649702463
 20
94.859950297798264
 30
0.0
  0
VERTEX
  5
F056
  8
2
 10
37.586766542065277
 20
94.886763101594397
 30
0.0
  0
VERTEX
  5
F057
  8
2
 10
37.780844031864831
 20
94.900098188700582
 30
0.0
  0
VERTEX
  5
F058
  8
2
 10
37.877624908620248
 20
94.901761750227095
 30
0.0
  0
VERTEX
  5
F059
  8
2
 10
37.974405785375673
 20
94.900098188700582
 30
0.0
  0
VERTEX
  5
F05A
  8
2
 10
38.168483275175277
 20
94.886763101594397
 30
0.0
  0
VERTEX
  5
F05B
  8
2
 10
38.364117167538041
 20
94.859950297798264
 30
0.0
  0
VERTEX
  5
F05C
  8
2
 10
38.562376055850109
 20
94.819370683790908
 30
0.0
  0
VERTEX
  5
F05D
  8
2
 10
38.76437625456839
 20
94.764580839600427
 30
0.0
  0
VERTEX
  5
F05E
  8
2
 10
38.97130343796357
 20
94.694970724634246
 30
0.0
  0
VERTEX
  5
F05F
  8
2
 10
39.07701006694316
 20
94.654367710604944
 30
0.0
  0
VERTEX
  5
F060
  8
2
 10
39.184437031903258
 20
94.609746304958065
 30
0.0
  0
VERTEX
  5
F061
  8
2
 10
39.405178458206542
 20
94.507906156020226
 30
0.0
  0
VERTEX
  5
F062
  8
2
 10
39.635084610389747
 20
94.388210710811478
 30
0.0
  0
VERTEX
  5
F063
  8
2
 10
39.754013283486529
 20
94.321205166626356
 30
0.0
  0
SEQEND
  5
F064
  8
2
  0
POLYLINE
  5
ECED
  8
2
 66
     1
 10
0.0
 20
0.0
 30
0.0
  0
VERTEX
  5
F065
  8
2
 10
39.754013283486529
 20
89.963813791450264
 30
0.0
  0
VERTEX
  5
F066
  8
2
 10
39.635084610389747
 20
89.896808247265142
 30
0.0
  0
VERTEX
  5
F067
  8
2
 10
39.405178458206542
 20
89.777112802056365
 30
0.0
  0
VERTEX
  5
F068
  8
2
 10
39.184437031903258
 20
89.675272653118526
 30
0.0
  0
VERTEX
  5
F069
  8
2
 10
39.07701006694316
 20
89.630651247471647
 30
0.0
  0
VERTEX
  5
F06A
  8
2
 10
38.97130343796357
 20
89.590048233442332
 30
0.0
  0
VERTEX
  5
F06B
  8
2
 10
38.76437625456839
 20
89.520438118476179
 30
0.0
  0
VERTEX
  5
F06C
  8
2
 10
38.562376055850109
 20
89.465648274285684
 30
0.0
  0
VERTEX
  5
F06D
  8
2
 10
38.364117167538041
 20
89.425068660278313
 30
0.0
  0
VERTEX
  5
F06E
  8
2
 10
38.168483275175277
 20
89.398255856482194
 30
0.0
  0
VERTEX
  5
F06F
  8
2
 10
37.974405785375673
 20
89.384920769376009
 30
0.0
  0
VERTEX
  5
F070
  8
2
 10
37.877624908620248
 20
89.383257207849482
 30
0.0
  0
VERTEX
  5
F071
  8
2
 10
37.780844031864831
 20
89.384920769376009
 30
0.0
  0
VERTEX
  5
F072
  8
2
 10
37.586766542065277
 20
89.398255856482194
 30
0.0
  0
VERTEX
  5
F073
  8
2
 10
37.391132649702463
 20
89.425068660278313
 30
0.0
  0
VERTEX
  5
F074
  8
2
 10
37.192873761390388
 20
89.465648274285684
 30
0.0
  0
VERTEX
  5
F075
  8
2
 10
36.990873562672171
 20
89.520438118476179
 30
0.0
  0
VERTEX
  5
F076
  8
2
 10
36.783946379276927
 20
89.590048233442332
 30
0.0
  0
VERTEX
  5
F077
  8
2
 10
36.678239750297386
 20
89.630651247471647
 30
0.0
  0
VERTEX
  5
F078
  8
2
 10
36.570812785337239
 20
89.675272653118526
 30
0.0
  0
VERTEX
  5
F079
  8
2
 10
36.350071359034018
 20
89.777112802056365
 30
0.0
  0
VERTEX
  5
F07A
  8
2
 10
36.120165206850743
 20
89.896808247265142
 30
0.0
  0
VERTEX
  5
F07B
  8
2
 10
36.001236533753968
 20
89.963813791450264
 30
0.0
  0
SEQEND
  5
F07C
  8
2
  0
POLYLINE
  5
ECF0
  8
2
 66
     1
 10
0.0
 20
0.0
 30
0.0
  0
VERTEX
  5
F07D
  8
2
 10
36.001236533753968
 20
94.321205166626356
 30
0.0
  0
VERTEX
  5
F07E
  8
2
 10
35.763379187560417
 20
94.388210710811478
 30
0.0
  0
VERTEX
  5
F07F
  8
2
 10
35.30356688319398
 20
94.507906156020226
 30
0.0
  0
VERTEX
  5
F080
  8
2
 10
34.862084030587432
 20
94.609746304958065
 30
0.0
  0
VERTEX
  5
F081
  8
2
 10
34.64723010066723
 20
94.654367710604944
 30
0.0
  0
VERTEX
  5
F082
  8
2
 10
34.435816842708107
 20
94.694970724634246
 30
0.0
  0
VERTEX
  5
F083
  8
2
 10
34.02196247591769
 20
94.764580839600427
 30
0.0
  0
VERTEX
  5
F084
  8
2
 10
33.617962078481071
 20
94.819370683790908
 30
0.0
  0
VERTEX
  5
F085
  8
2
 10
33.221444301856991
 20
94.859950297798264
 30
0.0
  0
VERTEX
  5
F086
  8
2
 10
32.830176517131413
 20
94.886763101594397
 30
0.0
  0
VERTEX
  5
F087
  8
2
 10
32.442021537532298
 20
94.900098188700582
 30
0.0
  0
VERTEX
  5
F088
  8
2
 10
32.248459784021406
 20
94.901761750227095
 30
0.0
  0
VERTEX
  5
F089
  8
2
 10
32.054898030510508
 20
94.900098188700582
 30
0.0
  0
VERTEX
  5
F08A
  8
2
 10
31.666743050911411
 20
94.886763101594397
 30
0.0
  0
VERTEX
  5
F08B
  8
2
 10
31.275475266185818
 20
94.859950297798264
 30
0.0
  0
VERTEX
  5
F08C
  8
2
 10
30.878957489561738
 20
94.819370683790908
 30
0.0
  0
VERTEX
  5
F08D
  8
2
 10
30.47495709212512
 20
94.764580839600427
 30
0.0
  0
VERTEX
  5
F08E
  8
2
 10
30.06110272533471
 20
94.694970724634246
 30
0.0
  0
VERTEX
  5
F08F
  8
2
 10
29.84968946737558
 20
94.654367710604944
 30
0.0
  0
VERTEX
  5
F090
  8
2
 10
29.634835537455391
 20
94.609746304958065
 30
0.0
  0
VERTEX
  5
F091
  8
2
 10
29.193352684848829
 20
94.507906156020226
 30
0.0
  0
VERTEX
  5
F092
  8
2
 10
28.733540380482399
 20
94.388210710811478
 30
0.0
  0
VERTEX
  5
F093
  8
2
 10
28.495683034288849
 20
94.321205166626356
 30
0.0
  0
SEQEND
  5
F094
  8
2
  0
POLYLINE
  5
ECF2
  8
2
 66
     1
 10
0.0
 20
0.0
 30
0.0
  0
VERTEX
  5
F095
  8
2
 10
24.742906284556291
 20
94.321205166626356
 30
0.0
  0
VERTEX
  5
F096
  8
2
 10
24.861834957653059
 20
94.38821071081145
 30
0.0
  0
VERTEX
  5
F097
  8
2
 10
25.091741109836281
 20
94.507906156020226
 30
0.0
  0
VERTEX
  5
F098
  8
2
 10
25.312482536139559
 20
94.609746304958065
 30
0.0
  0
VERTEX
  5
F099
  8
2
 10
25.41990950109966
 20
94.654367710604944
 30
0.0
  0
VERTEX
  5
F09A
  8
2
 10
25.525616130079239
 20
94.694970724634246
 30
0.0
  0
VERTEX
  5
F09B
  8
2
 10
25.732543313474419
 20
94.764580839600427
 30
0.0
  0
VERTEX
  5
F09C
  8
2
 10
25.9345435121927
 20
94.819370683790908
 30
0.0
  0
VERTEX
  5
F09D
  8
2
 10
26.132802400504769
 20
94.859950297798264
 30
0.0
  0
VERTEX
  5
F09E
  8
2
 10
26.32843629286754
 20
94.886763101594397
 30
0.0
  0
VERTEX
  5
F09F
  8
2
 10
26.522513782667151
 20
94.900098188700554
 30
0.0
  0
VERTEX
  5
F0A0
  8
2
 10
26.619294659422561
 20
94.901761750227095
 30
0.0
  0
VERTEX
  5
F0A1
  8
2
 10
26.716075536177989
 20
94.900098188700582
 30
0.0
  0
VERTEX
  5
F0A2
  8
2
 10
26.910153025977539
 20
94.886763101594397
 30
0.0
  0
VERTEX
  5
F0A3
  8
2
 10
27.10578691834036
 20
94.859950297798264
 30
0.0
  0
VERTEX
  5
F0A4
  8
2
 10
27.304045806652429
 20
94.819370683790908
 30
0.0
  0
VERTEX
  5
F0A5
  8
2
 10
27.506046005370649
 20
94.764580839600427
 30
0.0
  0
VERTEX
  5
F0A6
  8
2
 10
27.71297318876589
 20
94.694970724634246
 30
0.0
  0
VERTEX
  5
F0A7
  8
2
 10
27.818679817745419
 20
94.654367710604944
 30
0.0
  0
VERTEX
  5
F0A8
  8
2
 10
27.926106782705581
 20
94.609746304958065
 30
0.0
  0
VERTEX
  5
F0A9
  8
2
 10
28.146848209008791
 20
94.507906156020226
 30
0.0
  0
VERTEX
  5
F0AA
  8
2
 10
28.37675436119207
 20
94.38821071081145
 30
0.0
  0
VERTEX
  5
F0AB
  8
2
 10
28.495683034288849
 20
94.321205166626356
 30
0.0
  0
SEQEND
  5
F0AC
  8
2
  0
POLYLINE
  5
ECF3
  8
2
 66
     1
 10
0.0
 20
0.0
 30
0.0
  0
VERTEX
  5
F0AD
  8
2
 10
28.495683034288849
 20
89.963813791450264
 30
0.0
  0
VERTEX
  5
F0AE
  8
2
 10
28.37675436119207
 20
89.896808247265142
 30
0.0
  0
VERTEX
  5
F0AF
  8
2
 10
28.146848209008791
 20
89.777112802056365
 30
0.0
  0
VERTEX
  5
F0B0
  8
2
 10
27.926106782705581
 20
89.675272653118526
 30
0.0
  0
VERTEX
  5
F0B1
  8
2
 10
27.818679817745419
 20
89.630651247471647
 30
0.0
  0
VERTEX
  5
F0B2
  8
2
 10
27.71297318876589
 20
89.590048233442332
 30
0.0
  0
VERTEX
  5
F0B3
  8
2
 10
27.506046005370649
 20
89.520438118476179
 30
0.0
  0
VERTEX
  5
F0B4
  8
2
 10
27.304045806652429
 20
89.465648274285684
 30
0.0
  0
VERTEX
  5
F0B5
  8
2
 10
27.10578691834036
 20
89.425068660278313
 30
0.0
  0
VERTEX
  5
F0B6
  8
2
 10
26.910153025977539
 20
89.398255856482194
 30
0.0
  0
VERTEX
  5
F0B7
  8
2
 10
26.716075536177989
 20
89.384920769376009
 30
0.0
  0
VERTEX
  5
F0B8
  8
2
 10
26.619294659422561
 20
89.383257207849482
 30
0.0
  0
VERTEX
  5
F0B9
  8
2
 10
26.522513782667151
 20
89.384920769376009
 30
0.0
  0
VERTEX
  5
F0BA
  8
2
 10
26.32843629286754
 20
89.398255856482194
 30
0.0
  0
VERTEX
  5
F0BB
  8
2
 10
26.132802400504769
 20
89.425068660278313
 30
0.0
  0
VERTEX
  5
F0BC
  8
2
 10
25.9345435121927
 20
89.465648274285684
 30
0.0
  0
VERTEX
  5
F0BD
  8
2
 10
25.732543313474419
 20
89.520438118476179
 30
0.0
  0
VERTEX
  5
F0BE
  8
2
 10
25.525616130079239
 20
89.590048233442332
 30
0.0
  0
VERTEX
  5
F0BF
  8
2
 10
25.41990950109966
 20
89.630651247471647
 30
0.0
  0
VERTEX
  5
F0C0
  8
2
 10
25.312482536139559
 20
89.675272653118526
 30
0.0
  0
VERTEX
  5
F0C1
  8
2
 10
25.091741109836281
 20
89.777112802056365
 30
0.0
  0
VERTEX
  5
F0C2
  8
2
 10
24.861834957653059
 20
89.896808247265142
 30
0.0
  0
VERTEX
  5
F0C3
  8
2
 10
24.742906284556291
 20
89.963813791450264
 30
0.0
  0
SEQEND
  5
F0C4
  8
2
  0
LINE
  5
ECF4
  8
2
 10
28.495683034288849
 20
94.321205166626356
 30
0.0
 11
28.495683034288849
 21
89.963813791450264
 31
0.0
  0
LINE
  5
ECF6
  8
2
 10
36.001236533753968
 20
94.321205166626356
 30
0.0
 11
36.001236533753968
 21
89.963813791450264
 31
0.0
  0
POLYLINE
  5
ECF7
  8
2
 66
     1
 10
0.0
 20
0.0
 30
0.0
  0
VERTEX
  5
F0C5
  8
2
 10
36.001236533753968
 20
89.963813791450264
 30
0.0
  0
VERTEX
  5
F0C6
  8
2
 10
35.763379187560417
 20
89.896808247265142
 30
0.0
  0
VERTEX
  5
F0C7
  8
2
 10
35.30356688319398
 20
89.777112802056365
 30
0.0
  0
VERTEX
  5
F0C8
  8
2
 10
34.862084030587432
 20
89.675272653118512
 30
0.0
  0
VERTEX
  5
F0C9
  8
2
 10
34.64723010066723
 20
89.630651247471647
 30
0.0
  0
VERTEX
  5
F0CA
  8
2
 10
34.435816842708107
 20
89.590048233442332
 30
0.0
  0
VERTEX
  5
F0CB
  8
2
 10
34.02196247591769
 20
89.520438118476179
 30
0.0
  0
VERTEX
  5
F0CC
  8
2
 10
33.617962078481071
 20
89.465648274285684
 30
0.0
  0
VERTEX
  5
F0CD
  8
2
 10
33.221444301856991
 20
89.425068660278313
 30
0.0
  0
VERTEX
  5
F0CE
  8
2
 10
32.830176517131413
 20
89.398255856482194
 30
0.0
  0
VERTEX
  5
F0CF
  8
2
 10
32.442021537532298
 20
89.384920769376009
 30
0.0
  0
VERTEX
  5
F0D0
  8
2
 10
32.248459784021406
 20
89.383257207849482
 30
0.0
  0
VERTEX
  5
F0D1
  8
2
 10
32.054898030510508
 20
89.384920769376009
 30
0.0
  0
VERTEX
  5
F0D2
  8
2
 10
31.666743050911411
 20
89.398255856482194
 30
0.0
  0
VERTEX
  5
F0D3
  8
2
 10
31.275475266185818
 20
89.425068660278313
 30
0.0
  0
VERTEX
  5
F0D4
  8
2
 10
30.878957489561738
 20
89.465648274285684
 30
0.0
  0
VERTEX
  5
F0D5
  8
2
 10
30.47495709212512
 20
89.520438118476179
 30
0.0
  0
VERTEX
  5
F0D6
  8
2
 10
30.06110272533471
 20
89.590048233442332
 30
0.0
  0
VERTEX
  5
F0D7
  8
2
 10
29.84968946737558
 20
89.630651247471647
 30
0.0
  0
VERTEX
  5
F0D8
  8
2
 10
29.634835537455391
 20
89.675272653118526
 30
0.0
  0
VERTEX
  5
F0D9
  8
2
 10
29.193352684848829
 20
89.777112802056365
 30
0.0
  0
VERTEX
  5
F0DA
  8
2
 10
28.733540380482399
 20
89.896808247265142
 30
0.0
  0
VERTEX
  5
F0DB
  8
2
 10
28.495683034288849
 20
89.963813791450264
 30
0.0
  0
SEQEND
  5
F0DC
  8
2
  0
LINE
  5
ECFC
  8
2
 10
24.742906284556291
 20
95.392509479038296
 30
0.0
 11
24.742906284556291
 21
88.892509479038296
 31
0.0
  0
LINE
  5
ECFF
  8
2
 10
24.742906284556291
 20
88.892509479038296
 30
0.0
 11
39.754013283486529
 21
88.892509479038296
 31
0.0
  0
LINE
  5
ED00
  8
2
 10
39.754013283486529
 20
95.392509479038296
 30
0.0
 11
24.742906284556291
 21
95.392509479038296
 31
0.0
  0
LINE
  5
ED17
  8
2
 10
39.754013283486529
 20
95.392509479038296
 30
0.0
 11
39.754013283486529
 21
88.892509479038296
 31
0.0
  0
LINE
  5
ED37
  8
1
 10
32.248459784021406
 20
75.892509479038296
 30
0.0
 11
32.248459784021406
 21
123.8925094790383
 31
0.0
  0
LINE
  5
ED40
  8
0
 10
17.24845978402141
 20
80.142509479038296
 30
0.0
 11
17.24845978402141
 21
83.892509479038296
 31
0.0
  0
LINE
  5
ED41
  8
0
 10
18.49845978402141
 20
78.892509479038296
 30
0.0
 11
17.24845978402141
 21
80.142509479038296
 31
0.0
  0
LINE
  5
ED42
  8
0
 10
17.24845978402141
 20
80.142509479038296
 30
0.0
 11
47.248459784021399
 21
80.142509479038296
 31
0.0
  0
LINE
  5
ED43
  8
0
 10
47.248459784021399
 20
80.142509479038296
 30
0.0
 11
45.998459784021399
 21
78.892509479038296
 31
0.0
  0
LINE
  5
ED44
  8
0
 10
45.998459784021399
 20
78.892509479038296
 30
0.0
 11
18.49845978402141
 21
78.892509479038296
 31
0.0
  0
LINE
  5
ED45
  8
0
 10
47.248459784021399
 20
83.892509479038296
 30
0.0
 11
47.248459784021399
 21
80.142509479038296
 31
0.0
  0
LINE
  5
ED46
  8
0
 10
47.248459784021399
 20
83.892509479038296
 30
0.0
 11
17.24845978402141
 21
83.892509479038296
 31
0.0
  0
LINE
  5
ED47
  8
0
 10
19.24845978402141
 20
83.892509479038296
 30
0.0
 11
19.24845978402141
 21
119.0425094790383
 31
0.0
  0
LINE
  5
ED48
  8
0
 10
20.24845978402141
 20
83.892509479038296
 30
0.0
 11
20.24845978402141
 21
119.0425094790383
 31
0.0
  0
LINE
  5
ED49
  8
0
 10
44.248459784021406
 20
83.892509479038296
 30
0.0
 11
44.248459784021406
 21
119.0425094790383
 31
0.0
  0
LINE
  5
ED4A
  8
0
 10
45.248459784021399
 20
83.892509479038296
 30
0.0
 11
45.248459784021399
 21
119.0425094790383
 31
0.0
  0
LINE
  5
ED4B
  8
0
 10
42.948459784021388
 20
119.0425094790383
 30
0.0
 11
42.948459784021388
 21
120.8925094790383
 31
0.0
  0
LINE
  5
ED4C
  8
0
 10
21.548459784021421
 20
119.0425094790383
 30
0.0
 11
21.548459784021421
 21
120.8925094790383
 31
0.0
  0
LINE
  5
ED4D
  8
0
 10
20.548459784021421
 20
120.8925094790383
 30
0.0
 11
43.948459784021388
 21
120.8925094790383
 31
0.0
  0
LINE
  5
ED4E
  8
0
 10
20.548459784021421
 20
119.0425094790383
 30
0.0
 11
20.548459784021421
 21
120.8925094790383
 31
0.0
  0
LINE
  5
ED4F
  8
0
 10
45.248459784021399
 20
119.0425094790383
 30
0.0
 11
19.24845978402141
 21
119.0425094790383
 31
0.0
  0
LINE
  5
ED50
  8
0
 10
43.948459784021388
 20
119.0425094790383
 30
0.0
 11
43.948459784021388
 21
120.8925094790383
 31
0.0
  0
LINE
  5
EDAE
  8
0
 10
18.49845978402141
 20
25.142509479038281
 30
0.0
 11
17.24845978402141
 21
23.892509479038281
 31
0.0
  0
LINE
  5
EDAF
  8
0
 10
47.248459784021399
 20
23.892509479038281
 30
0.0
 11
45.998459784021399
 21
25.142509479038281
 31
0.0
  0
LINE
  5
EDB1
  8
0
 10
45.998459784021399
 20
25.142509479038281
 30
0.0
 11
18.49845978402141
 21
25.142509479038281
 31
0.0
  0
LINE
  5
EDB3
  8
2
 10
28.495683034288849
 20
32.392509479038281
 30
0.0
 11
24.742906284556291
 21
38.892509479038281
 31
0.0
  0
LINE
  5
EDB4
  8
2
 10
36.001236533753968
 20
32.392509479038281
 30
0.0
 11
28.495683034288849
 21
32.392509479038281
 31
0.0
  0
LINE
  5
EDB5
  8
2
 10
39.754013283486529
 20
38.892509479038281
 30
0.0
 11
36.001236533753968
 21
32.392509479038281
 31
0.0
  0
LINE
  5
EDBC
  8
0
 10
45.998459784021399
 20
52.642509479038281
 30
0.0
 11
47.248459784021399
 21
53.892509479038281
 31
0.0
  0
LINE
  5
EDBD
  8
0
 10
17.24845978402141
 20
53.892509479038281
 30
0.0
 11
18.49845978402141
 21
52.642509479038281
 31
0.0
  0
LINE
  5
EDBE
  8
0
 10
45.998459784021399
 20
25.142509479038281
 30
0.0
 11
45.998459784021399
 21
52.642509479038281
 31
0.0
  0
LINE
  5
EDBF
  8
0
 10
18.49845978402141
 20
52.642509479038281
 30
0.0
 11
45.998459784021399
 21
52.642509479038281
 31
0.0
  0
LINE
  5
EDC0
  8
0
 10
18.49845978402141
 20
25.142509479038281
 30
0.0
 11
18.49845978402141
 21
52.642509479038281
 31
0.0
  0
LINE
  5
EDC1
  8
2
 10
36.001236533753968
 20
45.392509479038281
 30
0.0
 11
39.754013283486529
 21
38.892509479038281
 31
0.0
  0
LINE
  5
EDC2
  8
2
 10
28.495683034288849
 20
45.392509479038281
 30
0.0
 11
36.001236533753968
 21
45.392509479038281
 31
0.0
  0
LINE
  5
EDC3
  8
2
 10
24.742906284556291
 20
38.892509479038281
 30
0.0
 11
28.495683034288849
 21
45.392509479038281
 31
0.0
  0
LINE
  5
EDC6
  8
1
 10
32.248459784021406
 20
20.892509479038281
 30
0.0
 11
32.248459784021406
 21
56.892509479038281
 31
0.0
  0
LINE
  5
EDC7
  8
1
 10
14.24845978402135
 20
38.892509479038281
 30
0.0
 11
50.248459784021399
 21
38.892509479038281
 31
0.0
  0
CIRCLE
  5
EDCA
  8
0
 10
32.248459784021406
 20
38.892509479038281
 30
0.0
 40
3.323500000000001
  0
LINE
  5
EDCF
  8
0
 10
47.248459784021399
 20
23.892509479038281
 30
0.0
 11
17.24845978402141
 21
23.892509479038281
 31
0.0
  0
LINE
  5
EDDE
  8
0
 10
17.24845978402141
 20
23.892509479038281
 30
0.0
 11
17.24845978402141
 21
53.892509479038281
 31
0.0
  0
LINE
  5
EDDF
  8
0
 10
17.24845978402141
 20
53.892509479038281
 30
0.0
 11
47.248459784021399
 21
53.892509479038281
 31
0.0
  0
LINE
  5
EDE0
  8
0
 10
47.248459784021399
 20
53.892509479038281
 30
0.0
 11
47.248459784021399
 21
23.892509479038281
 31
0.0
  0
LINE
  5
EE23
  8
2
 10
86.598459784021443
 20
95.392509479038296
 30
0.0
 11
85.748459784021435
 21
94.901761750227095
 31
0.0
  0
LINE
  5
EE24
  8
2
 10
98.748459784021435
 20
94.901761750227095
 30
0.0
 11
97.898459784021412
 21
95.392509479038296
 31
0.0
  0
LINE
  5
EE25
  8
2
 10
85.748459784021435
 20
89.383257207849482
 30
0.0
 11
86.598459784021443
 21
88.892509479038296
 31
0.0
  0
LINE
  5
EE26
  8
2
 10
97.898459784021412
 20
88.892509479038296
 30
0.0
 11
98.748459784021435
 21
89.383257207849482
 31
0.0
  0
POLYLINE
  5
EE31
  8
2
 66
     1
 10
0.0
 20
0.0
 30
0.0
  0
VERTEX
  5
F0DD
  8
2
 10
85.748459784021435
 20
94.321205166626356
 30
0.0
  0
VERTEX
  5
F0DE
  8
2
 10
85.954450288301842
 20
94.388210710811478
 30
0.0
  0
VERTEX
  5
F0DF
  8
2
 10
86.35265942485583
 20
94.507906156020226
 30
0.0
  0
VERTEX
  5
F0E0
  8
2
 10
86.734994790548299
 20
94.609746304958065
 30
0.0
  0
VERTEX
  5
F0E1
  8
2
 10
86.921063751962123
 20
94.654367710604944
 30
0.0
  0
VERTEX
  5
F0E2
  8
2
 10
87.10415300405154
 20
94.694970724634246
 30
0.0
  0
VERTEX
  5
F0E3
  8
2
 10
87.462561399159227
 20
94.764580839600427
 30
0.0
  0
VERTEX
  5
F0E4
  8
2
 10
87.812436006478293
 20
94.819370683790908
 30
0.0
  0
VERTEX
  5
F0E5
  8
2
 10
88.155830474086926
 20
94.859950297798264
 30
0.0
  0
VERTEX
  5
F0E6
  8
2
 10
88.494678315341702
 20
94.886763101594397
 30
0.0
  0
VERTEX
  5
F0E7
  8
2
 10
88.830830388279907
 20
94.900098188700582
 30
0.0
  0
VERTEX
  5
F0E8
  8
2
 10
88.998459784021435
 20
94.901761750227095
 30
0.0
  0
VERTEX
  5
F0E9
  8
2
 10
89.166089179762949
 20
94.900098188700582
 30
0.0
  0
VERTEX
  5
F0EA
  8
2
 10
89.502241252701154
 20
94.886763101594397
 30
0.0
  0
VERTEX
  5
F0EB
  8
2
 10
89.841089093955958
 20
94.859950297798264
 30
0.0
  0
VERTEX
  5
F0EC
  8
2
 10
90.184483561564576
 20
94.819370683790908
 30
0.0
  0
VERTEX
  5
F0ED
  8
2
 10
90.534358168883657
 20
94.764580839600427
 30
0.0
  0
VERTEX
  5
F0EE
  8
2
 10
90.892766563991344
 20
94.694970724634246
 30
0.0
  0
VERTEX
  5
F0EF
  8
2
 10
91.075855816080747
 20
94.654367710604944
 30
0.0
  0
VERTEX
  5
F0F0
  8
2
 10
91.261924777494556
 20
94.609746304958065
 30
0.0
  0
VERTEX
  5
F0F1
  8
2
 10
91.644260143187054
 20
94.507906156020226
 30
0.0
  0
VERTEX
  5
F0F2
  8
2
 10
92.042469279741013
 20
94.388210710811478
 30
0.0
  0
VERTEX
  5
F0F3
  8
2
 10
92.248459784021435
 20
94.321205166626356
 30
0.0
  0
SEQEND
  5
F0F4
  8
2
  0
POLYLINE
  5
EE32
  8
2
 66
     1
 10
0.0
 20
0.0
 30
0.0
  0
VERTEX
  5
F0F5
  8
2
 10
92.248459784021435
 20
89.963813791450264
 30
0.0
  0
VERTEX
  5
F0F6
  8
2
 10
92.042469279741013
 20
89.896808247265142
 30
0.0
  0
VERTEX
  5
F0F7
  8
2
 10
91.644260143187054
 20
89.777112802056365
 30
0.0
  0
VERTEX
  5
F0F8
  8
2
 10
91.261924777494556
 20
89.675272653118526
 30
0.0
  0
VERTEX
  5
F0F9
  8
2
 10
91.075855816080747
 20
89.630651247471647
 30
0.0
  0
VERTEX
  5
F0FA
  8
2
 10
90.892766563991344
 20
89.590048233442332
 30
0.0
  0
VERTEX
  5
F0FB
  8
2
 10
90.534358168883657
 20
89.520438118476179
 30
0.0
  0
VERTEX
  5
F0FC
  8
2
 10
90.184483561564576
 20
89.465648274285684
 30
0.0
  0
VERTEX
  5
F0FD
  8
2
 10
89.841089093955958
 20
89.425068660278313
 30
0.0
  0
VERTEX
  5
F0FE
  8
2
 10
89.502241252701154
 20
89.398255856482194
 30
0.0
  0
VERTEX
  5
F0FF
  8
2
 10
89.166089179762949
 20
89.384920769376009
 30
0.0
  0
VERTEX
  5
F100
  8
2
 10
88.998459784021435
 20
89.383257207849482
 30
0.0
  0
VERTEX
  5
F101
  8
2
 10
88.830830388279907
 20
89.384920769376009
 30
0.0
  0
VERTEX
  5
F102
  8
2
 10
88.494678315341702
 20
89.398255856482194
 30
0.0
  0
VERTEX
  5
F103
  8
2
 10
88.155830474086926
 20
89.425068660278313
 30
0.0
  0
VERTEX
  5
F104
  8
2
 10
87.812436006478293
 20
89.465648274285684
 30
0.0
  0
VERTEX
  5
F105
  8
2
 10
87.462561399159227
 20
89.520438118476179
 30
0.0
  0
VERTEX
  5
F106
  8
2
 10
87.10415300405154
 20
89.590048233442332
 30
0.0
  0
VERTEX
  5
F107
  8
2
 10
86.921063751962123
 20
89.630651247471647
 30
0.0
  0
VERTEX
  5
F108
  8
2
 10
86.734994790548299
 20
89.675272653118526
 30
0.0
  0
VERTEX
  5
F109
  8
2
 10
86.35265942485583
 20
89.777112802056365
 30
0.0
  0
VERTEX
  5
F10A
  8
2
 10
85.954450288301842
 20
89.896808247265142
 30
0.0
  0
VERTEX
  5
F10B
  8
2
 10
85.748459784021435
 20
89.963813791450264
 30
0.0
  0
SEQEND
  5
F10C
  8
2
  0
LINE
  5
EE33
  8
2
 10
92.248459784021435
 20
94.321205166626356
 30
0.0
 11
92.248459784021435
 21
89.963813791450264
 31
0.0
  0
POLYLINE
  5
EE34
  8
2
 66
     1
 10
0.0
 20
0.0
 30
0.0
  0
VERTEX
  5
F10D
  8
2
 10
92.248459784021435
 20
94.321205166626356
 30
0.0
  0
VERTEX
  5
F10E
  8
2
 10
92.454450288301842
 20
94.38821071081145
 30
0.0
  0
VERTEX
  5
F10F
  8
2
 10
92.85265942485583
 20
94.507906156020226
 30
0.0
  0
VERTEX
  5
F110
  8
2
 10
93.234994790548313
 20
94.609746304958065
 30
0.0
  0
VERTEX
  5
F111
  8
2
 10
93.421063751962123
 20
94.654367710604944
 30
0.0
  0
VERTEX
  5
F112
  8
2
 10
93.60415300405154
 20
94.694970724634246
 30
0.0
  0
VERTEX
  5
F113
  8
2
 10
93.962561399159227
 20
94.764580839600427
 30
0.0
  0
VERTEX
  5
F114
  8
2
 10
94.312436006478293
 20
94.819370683790908
 30
0.0
  0
VERTEX
  5
F115
  8
2
 10
94.655830474086898
 20
94.859950297798264
 30
0.0
  0
VERTEX
  5
F116
  8
2
 10
94.994678315341702
 20
94.886763101594397
 30
0.0
  0
VERTEX
  5
F117
  8
2
 10
95.330830388279907
 20
94.900098188700554
 30
0.0
  0
VERTEX
  5
F118
  8
2
 10
95.498459784021435
 20
94.901761750227095
 30
0.0
  0
VERTEX
  5
F119
  8
2
 10
95.666089179762963
 20
94.900098188700582
 30
0.0
  0
VERTEX
  5
F11A
  8
2
 10
96.002241252701154
 20
94.886763101594397
 30
0.0
  0
VERTEX
  5
F11B
  8
2
 10
96.341089093955958
 20
94.859950297798264
 30
0.0
  0
VERTEX
  5
F11C
  8
2
 10
96.684483561564576
 20
94.819370683790908
 30
0.0
  0
VERTEX
  5
F11D
  8
2
 10
97.034358168883657
 20
94.764580839600427
 30
0.0
  0
VERTEX
  5
F11E
  8
2
 10
97.392766563991344
 20
94.694970724634246
 30
0.0
  0
VERTEX
  5
F11F
  8
2
 10
97.575855816080761
 20
94.654367710604944
 30
0.0
  0
VERTEX
  5
F120
  8
2
 10
97.761924777494556
 20
94.609746304958065
 30
0.0
  0
VERTEX
  5
F121
  8
2
 10
98.144260143187054
 20
94.507906156020226
 30
0.0
  0
VERTEX
  5
F122
  8
2
 10
98.542469279741013
 20
94.38821071081145
 30
0.0
  0
VERTEX
  5
F123
  8
2
 10
98.748459784021435
 20
94.321205166626356
 30
0.0
  0
SEQEND
  5
F124
  8
2
  0
POLYLINE
  5
EE35
  8
2
 66
     1
 10
0.0
 20
0.0
 30
0.0
  0
VERTEX
  5
F125
  8
2
 10
98.748459784021435
 20
89.963813791450264
 30
0.0
  0
VERTEX
  5
F126
  8
2
 10
98.542469279741013
 20
89.896808247265142
 30
0.0
  0
VERTEX
  5
F127
  8
2
 10
98.144260143187054
 20
89.777112802056365
 30
0.0
  0
VERTEX
  5
F128
  8
2
 10
97.761924777494556
 20
89.675272653118526
 30
0.0
  0
VERTEX
  5
F129
  8
2
 10
97.575855816080761
 20
89.630651247471647
 30
0.0
  0
VERTEX
  5
F12A
  8
2
 10
97.392766563991344
 20
89.590048233442332
 30
0.0
  0
VERTEX
  5
F12B
  8
2
 10
97.034358168883657
 20
89.520438118476179
 30
0.0
  0
VERTEX
  5
F12C
  8
2
 10
96.684483561564576
 20
89.465648274285684
 30
0.0
  0
VERTEX
  5
F12D
  8
2
 10
96.341089093955958
 20
89.425068660278313
 30
0.0
  0
VERTEX
  5
F12E
  8
2
 10
96.002241252701154
 20
89.398255856482194
 30
0.0
  0
VERTEX
  5
F12F
  8
2
 10
95.666089179762963
 20
89.384920769376009
 30
0.0
  0
VERTEX
  5
F130
  8
2
 10
95.498459784021435
 20
89.383257207849482
 30
0.0
  0
VERTEX
  5
F131
  8
2
 10
95.330830388279907
 20
89.384920769376009
 30
0.0
  0
VERTEX
  5
F132
  8
2
 10
94.994678315341702
 20
89.398255856482194
 30
0.0
  0
VERTEX
  5
F133
  8
2
 10
94.655830474086898
 20
89.425068660278313
 30
0.0
  0
VERTEX
  5
F134
  8
2
 10
94.312436006478293
 20
89.465648274285684
 30
0.0
  0
VERTEX
  5
F135
  8
2
 10
93.962561399159227
 20
89.520438118476179
 30
0.0
  0
VERTEX
  5
F136
  8
2
 10
93.60415300405154
 20
89.590048233442332
 30
0.0
  0
VERTEX
  5
F137
  8
2
 10
93.421063751962123
 20
89.630651247471647
 30
0.0
  0
VERTEX
  5
F138
  8
2
 10
93.234994790548313
 20
89.675272653118512
 30
0.0
  0
VERTEX
  5
F139
  8
2
 10
92.85265942485583
 20
89.777112802056365
 30
0.0
  0
VERTEX
  5
F13A
  8
2
 10
92.454450288301842
 20
89.896808247265142
 30
0.0
  0
VERTEX
  5
F13B
  8
2
 10
92.248459784021435
 20
89.963813791450264
 30
0.0
  0
SEQEND
  5
F13C
  8
2
  0
LINE
  5
EE3C
  8
2
 10
88.048459784021446
 20
108.8925094790383
 30
0.0
 11
88.048459784021446
 21
95.392509479038296
 31
0.0
  0
LINE
  5
EE3D
  8
2
 10
88.048459784021446
 20
88.892509479038296
 30
0.0
 11
88.048459784021446
 21
78.892509479038296
 31
0.0
  0
LINE
  5
EE3E
  8
2
 10
88.048459784021446
 20
120.8925094790383
 30
0.0
 11
88.048459784021446
 21
115.3925094790383
 31
0.0
  0
LINE
  5
EE44
  8
2
 10
85.748459784021435
 20
88.892509479038296
 30
0.0
 11
85.748459784021435
 21
95.392509479038296
 31
0.0
  0
LINE
  5
EE45
  8
2
 10
85.748459784021435
 20
88.892509479038296
 30
0.0
 11
98.748459784021435
 21
88.892509479038296
 31
0.0
  0
LINE
  5
EE46
  8
2
 10
98.748459784021435
 20
95.392509479038296
 30
0.0
 11
85.748459784021435
 21
95.392509479038296
 31
0.0
  0
LINE
  5
EE52
  8
2
 10
96.448459784021424
 20
95.392509479038296
 30
0.0
 11
96.448459784021424
 21
108.8925094790383
 31
0.0
  0
LINE
  5
EE53
  8
2
 10
96.448459784021424
 20
78.892509479038296
 30
0.0
 11
96.448459784021424
 21
88.892509479038296
 31
0.0
  0
LINE
  5
EE54
  8
2
 10
96.448459784021424
 20
115.3925094790383
 30
0.0
 11
96.448459784021424
 21
120.8925094790383
 31
0.0
  0
LINE
  5
EE5B
  8
2
 10
98.748459784021435
 20
88.892509479038296
 30
0.0
 11
98.748459784021435
 21
95.392509479038296
 31
0.0
  0
LINE
  5
EE65
  8
1
 10
92.248459784021435
 20
75.892509479038296
 30
0.0
 11
92.248459784021435
 21
123.8925094790383
 31
0.0
  0
LINE
  5
EE68
  8
0
 10
77.248459784021435
 20
80.142509479038296
 30
0.0
 11
78.498459784021435
 21
78.892509479038296
 31
0.0
  0
LINE
  5
EE69
  8
0
 10
105.99845978402141
 20
78.892509479038296
 30
0.0
 11
78.498459784021435
 21
78.892509479038296
 31
0.0
  0
LINE
  5
EE6A
  8
0
 10
107.24845978402151
 20
80.142509479038296
 30
0.0
 11
77.248459784021435
 21
80.142509479038296
 31
0.0
  0
LINE
  5
EE6B
  8
0
 10
77.248459784021435
 20
83.892509479038296
 30
0.0
 11
77.248459784021435
 21
80.142509479038296
 31
0.0
  0
LINE
  5
EE6C
  8
0
 10
107.24845978402141
 20
83.892509479038267
 30
0.0
 11
77.248459784021435
 21
83.892509479038296
 31
0.0
  0
LINE
  5
EE6D
  8
0
 10
79.248459784021435
 20
83.892509479038296
 30
0.0
 11
79.248459784021435
 21
119.0425094790383
 31
0.0
  0
LINE
  5
EE6E
  8
0
 10
80.248459784021435
 20
83.892509479038296
 30
0.0
 11
80.248459784021435
 21
119.0425094790383
 31
0.0
  0
LINE
  5
EE6F
  8
0
 10
80.548459784021446
 20
120.8925094790383
 30
0.0
 11
103.9484597840214
 21
120.8925094790383
 31
0.0
  0
LINE
  5
EE70
  8
0
 10
80.548459784021446
 20
119.0425094790383
 30
0.0
 11
80.548459784021446
 21
120.8925094790383
 31
0.0
  0
LINE
  5
EE71
  8
0
 10
105.24845978402141
 20
119.0425094790383
 30
0.0
 11
79.248459784021435
 21
119.0425094790383
 31
0.0
  0
LINE
  5
EE73
  8
0
 10
81.548459784021446
 20
119.0425094790383
 30
0.0
 11
81.548459784021446
 21
120.8925094790383
 31
0.0
  0
LINE
  5
EE74
  8
0
 10
107.24845978402141
 20
80.142509479038296
 30
0.0
 11
107.24845978402141
 21
83.892509479038296
 31
0.0
  0
LINE
  5
EE76
  8
0
 10
105.99845978402141
 20
78.892509479038296
 30
0.0
 11
107.24845978402141
 21
80.142509479038296
 31
0.0
  0
LINE
  5
EE79
  8
0
 10
104.24845978402141
 20
83.892509479038296
 30
0.0
 11
104.24845978402141
 21
119.0425094790383
 31
0.0
  0
LINE
  5
EE7A
  8
0
 10
105.24845978402141
 20
83.892509479038296
 30
0.0
 11
105.24845978402141
 21
119.0425094790383
 31
0.0
  0
LINE
  5
EE7B
  8
0
 10
103.9484597840214
 20
119.0425094790383
 30
0.0
 11
103.9484597840214
 21
120.8925094790383
 31
0.0
  0
LINE
  5
EE7D
  8
0
 10
102.9484597840214
 20
119.0425094790383
 30
0.0
 11
102.9484597840214
 21
120.8925094790383
 31
0.0
  0
CIRCLE
  5
EE88
  8
0
 10
32.248459784021406
 20
38.892509479038281
 30
0.0
 40
4.200000000000002
  0
LINE
  5
EE89
  8
2
 10
28.048459784021421
 20
108.8925094790383
 30
0.0
 11
28.048459784021421
 21
95.392509479038296
 31
0.0
  0
LINE
  5
EE8A
  8
2
 10
28.048459784021421
 20
88.892509479038296
 30
0.0
 11
28.048459784021421
 21
78.892509479038296
 31
0.0
  0
LINE
  5
EE8B
  8
2
 10
28.048459784021421
 20
120.8925094790383
 30
0.0
 11
28.048459784021421
 21
115.3925094790383
 31
0.0
  0
LINE
  5
EE8C
  8
2
 10
36.448459784021402
 20
95.392509479038296
 30
0.0
 11
36.448459784021402
 21
108.8925094790383
 31
0.0
  0
LINE
  5
EE8D
  8
2
 10
36.448459784021402
 20
78.892509479038296
 30
0.0
 11
36.448459784021402
 21
88.892509479038296
 31
0.0
  0
LINE
  5
EE8E
  8
2
 10
36.448459784021402
 20
115.3925094790383
 30
0.0
 11
36.448459784021402
 21
120.8925094790383
 31
0.0
  0
CIRCLE
  5
EE93
  8
3
 10
32.248459784021406
 20
38.892509479038281
 30
0.0
 40
4.0
  0
LINE
  5
EE96
  8
2
 10
86.598459784021443
 20
115.3925094790383
 30
0.0
 11
85.748459784021435
 21
114.9017617502271
 31
0.0
  0
LINE
  5
EE97
  8
2
 10
98.748459784021435
 20
114.9017617502271
 30
0.0
 11
97.898459784021412
 21
115.3925094790383
 31
0.0
  0
LINE
  5
EE98
  8
2
 10
85.748459784021435
 20
109.3832572078495
 30
0.0
 11
86.598459784021443
 21
108.8925094790383
 31
0.0
  0
LINE
  5
EE99
  8
2
 10
97.898459784021412
 20
108.8925094790383
 30
0.0
 11
98.748459784021435
 21
109.3832572078495
 31
0.0
  0
POLYLINE
  5
EE9A
  8
2
 66
     1
 10
0.0
 20
0.0
 30
0.0
  0
VERTEX
  5
F13D
  8
2
 10
85.748459784021435
 20
114.3212051666263
 30
0.0
  0
VERTEX
  5
F13E
  8
2
 10
85.954450288301842
 20
114.38821071081151
 30
0.0
  0
VERTEX
  5
F13F
  8
2
 10
86.35265942485583
 20
114.5079061560202
 30
0.0
  0
VERTEX
  5
F140
  8
2
 10
86.734994790548299
 20
114.60974630495799
 30
0.0
  0
VERTEX
  5
F141
  8
2
 10
86.921063751962123
 20
114.6543677106049
 30
0.0
  0
VERTEX
  5
F142
  8
2
 10
87.10415300405154
 20
114.6949707246342
 30
0.0
  0
VERTEX
  5
F143
  8
2
 10
87.462561399159227
 20
114.7645808396004
 30
0.0
  0
VERTEX
  5
F144
  8
2
 10
87.812436006478293
 20
114.81937068379089
 30
0.0
  0
VERTEX
  5
F145
  8
2
 10
88.155830474086926
 20
114.85995029779821
 30
0.0
  0
VERTEX
  5
F146
  8
2
 10
88.494678315341702
 20
114.8867631015944
 30
0.0
  0
VERTEX
  5
F147
  8
2
 10
88.830830388279907
 20
114.9000981887006
 30
0.0
  0
VERTEX
  5
F148
  8
2
 10
88.998459784021435
 20
114.9017617502271
 30
0.0
  0
VERTEX
  5
F149
  8
2
 10
89.166089179762949
 20
114.9000981887006
 30
0.0
  0
VERTEX
  5
F14A
  8
2
 10
89.502241252701154
 20
114.8867631015944
 30
0.0
  0
VERTEX
  5
F14B
  8
2
 10
89.841089093955958
 20
114.85995029779821
 30
0.0
  0
VERTEX
  5
F14C
  8
2
 10
90.184483561564576
 20
114.81937068379089
 30
0.0
  0
VERTEX
  5
F14D
  8
2
 10
90.534358168883657
 20
114.7645808396004
 30
0.0
  0
VERTEX
  5
F14E
  8
2
 10
90.892766563991344
 20
114.6949707246342
 30
0.0
  0
VERTEX
  5
F14F
  8
2
 10
91.075855816080747
 20
114.6543677106049
 30
0.0
  0
VERTEX
  5
F150
  8
2
 10
91.261924777494556
 20
114.60974630495799
 30
0.0
  0
VERTEX
  5
F151
  8
2
 10
91.644260143187054
 20
114.5079061560202
 30
0.0
  0
VERTEX
  5
F152
  8
2
 10
92.042469279741013
 20
114.38821071081151
 30
0.0
  0
VERTEX
  5
F153
  8
2
 10
92.248459784021435
 20
114.3212051666263
 30
0.0
  0
SEQEND
  5
F154
  8
2
  0
POLYLINE
  5
EE9B
  8
2
 66
     1
 10
0.0
 20
0.0
 30
0.0
  0
VERTEX
  5
F155
  8
2
 10
92.248459784021435
 20
109.96381379145021
 30
0.0
  0
VERTEX
  5
F156
  8
2
 10
92.042469279741013
 20
109.8968082472651
 30
0.0
  0
VERTEX
  5
F157
  8
2
 10
91.644260143187054
 20
109.77711280205629
 30
0.0
  0
VERTEX
  5
F158
  8
2
 10
91.261924777494556
 20
109.6752726531185
 30
0.0
  0
VERTEX
  5
F159
  8
2
 10
91.075855816080747
 20
109.6306512474716
 30
0.0
  0
VERTEX
  5
F15A
  8
2
 10
90.892766563991344
 20
109.5900482334423
 30
0.0
  0
VERTEX
  5
F15B
  8
2
 10
90.534358168883657
 20
109.52043811847609
 30
0.0
  0
VERTEX
  5
F15C
  8
2
 10
90.184483561564576
 20
109.4656482742857
 30
0.0
  0
VERTEX
  5
F15D
  8
2
 10
89.841089093955958
 20
109.4250686602783
 30
0.0
  0
VERTEX
  5
F15E
  8
2
 10
89.502241252701154
 20
109.39825585648219
 30
0.0
  0
VERTEX
  5
F15F
  8
2
 10
89.166089179762949
 20
109.384920769376
 30
0.0
  0
VERTEX
  5
F160
  8
2
 10
88.998459784021435
 20
109.3832572078495
 30
0.0
  0
VERTEX
  5
F161
  8
2
 10
88.830830388279907
 20
109.384920769376
 30
0.0
  0
VERTEX
  5
F162
  8
2
 10
88.494678315341702
 20
109.39825585648219
 30
0.0
  0
VERTEX
  5
F163
  8
2
 10
88.155830474086926
 20
109.4250686602783
 30
0.0
  0
VERTEX
  5
F164
  8
2
 10
87.812436006478293
 20
109.4656482742857
 30
0.0
  0
VERTEX
  5
F165
  8
2
 10
87.462561399159227
 20
109.52043811847609
 30
0.0
  0
VERTEX
  5
F166
  8
2
 10
87.10415300405154
 20
109.5900482334423
 30
0.0
  0
VERTEX
  5
F167
  8
2
 10
86.921063751962123
 20
109.6306512474716
 30
0.0
  0
VERTEX
  5
F168
  8
2
 10
86.734994790548299
 20
109.6752726531185
 30
0.0
  0
VERTEX
  5
F169
  8
2
 10
86.35265942485583
 20
109.77711280205629
 30
0.0
  0
VERTEX
  5
F16A
  8
2
 10
85.954450288301842
 20
109.8968082472651
 30
0.0
  0
VERTEX
  5
F16B
  8
2
 10
85.748459784021435
 20
109.96381379145021
 30
0.0
  0
SEQEND
  5
F16C
  8
2
  0
LINE
  5
EE9C
  8
2
 10
92.248459784021435
 20
114.3212051666263
 30
0.0
 11
92.248459784021435
 21
109.96381379145021
 31
0.0
  0
POLYLINE
  5
EE9D
  8
2
 66
     1
 10
0.0
 20
0.0
 30
0.0
  0
VERTEX
  5
F16D
  8
2
 10
92.248459784021435
 20
114.3212051666263
 30
0.0
  0
VERTEX
  5
F16E
  8
2
 10
92.454450288301842
 20
114.38821071081141
 30
0.0
  0
VERTEX
  5
F16F
  8
2
 10
92.85265942485583
 20
114.5079061560202
 30
0.0
  0
VERTEX
  5
F170
  8
2
 10
93.234994790548313
 20
114.60974630495799
 30
0.0
  0
VERTEX
  5
F171
  8
2
 10
93.421063751962123
 20
114.6543677106049
 30
0.0
  0
VERTEX
  5
F172
  8
2
 10
93.60415300405154
 20
114.6949707246342
 30
0.0
  0
VERTEX
  5
F173
  8
2
 10
93.962561399159227
 20
114.7645808396004
 30
0.0
  0
VERTEX
  5
F174
  8
2
 10
94.312436006478293
 20
114.81937068379089
 30
0.0
  0
VERTEX
  5
F175
  8
2
 10
94.655830474086898
 20
114.85995029779821
 30
0.0
  0
VERTEX
  5
F176
  8
2
 10
94.994678315341702
 20
114.8867631015944
 30
0.0
  0
VERTEX
  5
F177
  8
2
 10
95.330830388279907
 20
114.9000981887005
 30
0.0
  0
VERTEX
  5
F178
  8
2
 10
95.498459784021435
 20
114.9017617502271
 30
0.0
  0
VERTEX
  5
F179
  8
2
 10
95.666089179762963
 20
114.9000981887006
 30
0.0
  0
VERTEX
  5
F17A
  8
2
 10
96.002241252701154
 20
114.8867631015944
 30
0.0
  0
VERTEX
  5
F17B
  8
2
 10
96.341089093955958
 20
114.85995029779821
 30
0.0
  0
VERTEX
  5
F17C
  8
2
 10
96.684483561564576
 20
114.81937068379089
 30
0.0
  0
VERTEX
  5
F17D
  8
2
 10
97.034358168883657
 20
114.7645808396004
 30
0.0
  0
VERTEX
  5
F17E
  8
2
 10
97.392766563991344
 20
114.6949707246342
 30
0.0
  0
VERTEX
  5
F17F
  8
2
 10
97.575855816080761
 20
114.6543677106049
 30
0.0
  0
VERTEX
  5
F180
  8
2
 10
97.761924777494556
 20
114.60974630495799
 30
0.0
  0
VERTEX
  5
F181
  8
2
 10
98.144260143187054
 20
114.5079061560202
 30
0.0
  0
VERTEX
  5
F182
  8
2
 10
98.542469279741013
 20
114.38821071081141
 30
0.0
  0
VERTEX
  5
F183
  8
2
 10
98.748459784021435
 20
114.3212051666263
 30
0.0
  0
SEQEND
  5
F184
  8
2
  0
POLYLINE
  5
EE9E
  8
2
 66
     1
 10
0.0
 20
0.0
 30
0.0
  0
VERTEX
  5
F185
  8
2
 10
98.748459784021435
 20
109.96381379145021
 30
0.0
  0
VERTEX
  5
F186
  8
2
 10
98.542469279741013
 20
109.8968082472651
 30
0.0
  0
VERTEX
  5
F187
  8
2
 10
98.144260143187054
 20
109.77711280205629
 30
0.0
  0
VERTEX
  5
F188
  8
2
 10
97.761924777494556
 20
109.6752726531185
 30
0.0
  0
VERTEX
  5
F189
  8
2
 10
97.575855816080761
 20
109.6306512474716
 30
0.0
  0
VERTEX
  5
F18A
  8
2
 10
97.392766563991344
 20
109.5900482334423
 30
0.0
  0
VERTEX
  5
F18B
  8
2
 10
97.034358168883657
 20
109.52043811847609
 30
0.0
  0
VERTEX
  5
F18C
  8
2
 10
96.684483561564576
 20
109.4656482742857
 30
0.0
  0
VERTEX
  5
F18D
  8
2
 10
96.341089093955958
 20
109.4250686602783
 30
0.0
  0
VERTEX
  5
F18E
  8
2
 10
96.002241252701154
 20
109.39825585648219
 30
0.0
  0
VERTEX
  5
F18F
  8
2
 10
95.666089179762963
 20
109.384920769376
 30
0.0
  0
VERTEX
  5
F190
  8
2
 10
95.498459784021435
 20
109.3832572078495
 30
0.0
  0
VERTEX
  5
F191
  8
2
 10
95.330830388279907
 20
109.384920769376
 30
0.0
  0
VERTEX
  5
F192
  8
2
 10
94.994678315341702
 20
109.39825585648219
 30
0.0
  0
VERTEX
  5
F193
  8
2
 10
94.655830474086898
 20
109.4250686602783
 30
0.0
  0
VERTEX
  5
F194
  8
2
 10
94.312436006478293
 20
109.4656482742857
 30
0.0
  0
VERTEX
  5
F195
  8
2
 10
93.962561399159227
 20
109.52043811847609
 30
0.0
  0
VERTEX
  5
F196
  8
2
 10
93.60415300405154
 20
109.5900482334423
 30
0.0
  0
VERTEX
  5
F197
  8
2
 10
93.421063751962123
 20
109.6306512474716
 30
0.0
  0
VERTEX
  5
F198
  8
2
 10
93.234994790548313
 20
109.6752726531185
 30
0.0
  0
VERTEX
  5
F199
  8
2
 10
92.85265942485583
 20
109.77711280205629
 30
0.0
  0
VERTEX
  5
F19A
  8
2
 10
92.454450288301842
 20
109.8968082472651
 30
0.0
  0
VERTEX
  5
F19B
  8
2
 10
92.248459784021435
 20
109.96381379145021
 30
0.0
  0
SEQEND
  5
F19C
  8
2
  0
LINE
  5
EE9F
  8
2
 10
85.748459784021435
 20
108.8925094790383
 30
0.0
 11
85.748459784021435
 21
115.3925094790383
 31
0.0
  0
LINE
  5
EEA0
  8
2
 10
85.748459784021435
 20
108.8925094790383
 30
0.0
 11
98.748459784021435
 21
108.8925094790383
 31
0.0
  0
LINE
  5
EEA1
  8
2
 10
98.748459784021435
 20
115.3925094790383
 30
0.0
 11
85.748459784021435
 21
115.3925094790383
 31
0.0
  0
LINE
  5
EEA2
  8
2
 10
98.748459784021435
 20
108.8925094790383
 30
0.0
 11
98.748459784021435
 21
115.3925094790383
 31
0.0
  0
LINE
  5
EEA3
  8
2
 10
26.598459784021429
 20
115.3925094790383
 30
0.0
 11
24.742906284556291
 21
114.3212051666263
 31
0.0
  0
LINE
  5
EEA4
  8
2
 10
39.754013283486529
 20
114.3212051666263
 30
0.0
 11
37.898459784021377
 21
115.3925094790383
 31
0.0
  0
LINE
  5
EEA5
  8
2
 10
24.742906284556291
 20
109.96381379145021
 30
0.0
 11
26.598459784021429
 21
108.8925094790383
 31
0.0
  0
LINE
  5
EEA6
  8
2
 10
37.898459784021377
 20
108.8925094790383
 30
0.0
 11
39.754013283486529
 21
109.96381379145021
 31
0.0
  0
POLYLINE
  5
EEA7
  8
2
 66
     1
 10
0.0
 20
0.0
 30
0.0
  0
VERTEX
  5
F19D
  8
2
 10
36.001236533753968
 20
114.3212051666263
 30
0.0
  0
VERTEX
  5
F19E
  8
2
 10
36.120165206850743
 20
114.38821071081151
 30
0.0
  0
VERTEX
  5
F19F
  8
2
 10
36.350071359034018
 20
114.5079061560202
 30
0.0
  0
VERTEX
  5
F1A0
  8
2
 10
36.570812785337239
 20
114.60974630495799
 30
0.0
  0
VERTEX
  5
F1A1
  8
2
 10
36.678239750297386
 20
114.6543677106049
 30
0.0
  0
VERTEX
  5
F1A2
  8
2
 10
36.783946379276927
 20
114.6949707246342
 30
0.0
  0
VERTEX
  5
F1A3
  8
2
 10
36.990873562672171
 20
114.7645808396004
 30
0.0
  0
VERTEX
  5
F1A4
  8
2
 10
37.192873761390388
 20
114.81937068379089
 30
0.0
  0
VERTEX
  5
F1A5
  8
2
 10
37.391132649702463
 20
114.85995029779821
 30
0.0
  0
VERTEX
  5
F1A6
  8
2
 10
37.586766542065277
 20
114.8867631015944
 30
0.0
  0
VERTEX
  5
F1A7
  8
2
 10
37.780844031864831
 20
114.9000981887006
 30
0.0
  0
VERTEX
  5
F1A8
  8
2
 10
37.877624908620248
 20
114.9017617502271
 30
0.0
  0
VERTEX
  5
F1A9
  8
2
 10
37.974405785375673
 20
114.9000981887006
 30
0.0
  0
VERTEX
  5
F1AA
  8
2
 10
38.168483275175277
 20
114.8867631015944
 30
0.0
  0
VERTEX
  5
F1AB
  8
2
 10
38.364117167538041
 20
114.85995029779821
 30
0.0
  0
VERTEX
  5
F1AC
  8
2
 10
38.562376055850109
 20
114.81937068379089
 30
0.0
  0
VERTEX
  5
F1AD
  8
2
 10
38.76437625456839
 20
114.7645808396004
 30
0.0
  0
VERTEX
  5
F1AE
  8
2
 10
38.97130343796357
 20
114.6949707246342
 30
0.0
  0
VERTEX
  5
F1AF
  8
2
 10
39.07701006694316
 20
114.6543677106049
 30
0.0
  0
VERTEX
  5
F1B0
  8
2
 10
39.184437031903258
 20
114.60974630495799
 30
0.0
  0
VERTEX
  5
F1B1
  8
2
 10
39.405178458206542
 20
114.5079061560202
 30
0.0
  0
VERTEX
  5
F1B2
  8
2
 10
39.635084610389747
 20
114.38821071081151
 30
0.0
  0
VERTEX
  5
F1B3
  8
2
 10
39.754013283486529
 20
114.3212051666263
 30
0.0
  0
SEQEND
  5
F1B4
  8
2
  0
POLYLINE
  5
EEA8
  8
2
 66
     1
 10
0.0
 20
0.0
 30
0.0
  0
VERTEX
  5
F1B5
  8
2
 10
39.754013283486529
 20
109.96381379145021
 30
0.0
  0
VERTEX
  5
F1B6
  8
2
 10
39.635084610389747
 20
109.8968082472651
 30
0.0
  0
VERTEX
  5
F1B7
  8
2
 10
39.405178458206542
 20
109.77711280205629
 30
0.0
  0
VERTEX
  5
F1B8
  8
2
 10
39.184437031903258
 20
109.6752726531185
 30
0.0
  0
VERTEX
  5
F1B9
  8
2
 10
39.07701006694316
 20
109.6306512474716
 30
0.0
  0
VERTEX
  5
F1BA
  8
2
 10
38.97130343796357
 20
109.5900482334423
 30
0.0
  0
VERTEX
  5
F1BB
  8
2
 10
38.76437625456839
 20
109.52043811847609
 30
0.0
  0
VERTEX
  5
F1BC
  8
2
 10
38.562376055850109
 20
109.4656482742857
 30
0.0
  0
VERTEX
  5
F1BD
  8
2
 10
38.364117167538041
 20
109.4250686602783
 30
0.0
  0
VERTEX
  5
F1BE
  8
2
 10
38.168483275175277
 20
109.39825585648219
 30
0.0
  0
VERTEX
  5
F1BF
  8
2
 10
37.974405785375673
 20
109.384920769376
 30
0.0
  0
VERTEX
  5
F1C0
  8
2
 10
37.877624908620248
 20
109.3832572078495
 30
0.0
  0
VERTEX
  5
F1C1
  8
2
 10
37.780844031864831
 20
109.384920769376
 30
0.0
  0
VERTEX
  5
F1C2
  8
2
 10
37.586766542065277
 20
109.39825585648219
 30
0.0
  0
VERTEX
  5
F1C3
  8
2
 10
37.391132649702463
 20
109.4250686602783
 30
0.0
  0
VERTEX
  5
F1C4
  8
2
 10
37.192873761390388
 20
109.4656482742857
 30
0.0
  0
VERTEX
  5
F1C5
  8
2
 10
36.990873562672171
 20
109.52043811847609
 30
0.0
  0
VERTEX
  5
F1C6
  8
2
 10
36.783946379276927
 20
109.5900482334423
 30
0.0
  0
VERTEX
  5
F1C7
  8
2
 10
36.678239750297386
 20
109.6306512474716
 30
0.0
  0
VERTEX
  5
F1C8
  8
2
 10
36.570812785337239
 20
109.6752726531185
 30
0.0
  0
VERTEX
  5
F1C9
  8
2
 10
36.350071359034018
 20
109.77711280205629
 30
0.0
  0
VERTEX
  5
F1CA
  8
2
 10
36.120165206850743
 20
109.8968082472651
 30
0.0
  0
VERTEX
  5
F1CB
  8
2
 10
36.001236533753968
 20
109.96381379145021
 30
0.0
  0
SEQEND
  5
F1CC
  8
2
  0
POLYLINE
  5
EEA9
  8
2
 66
     1
 10
0.0
 20
0.0
 30
0.0
  0
VERTEX
  5
F1CD
  8
2
 10
36.001236533753968
 20
114.3212051666263
 30
0.0
  0
VERTEX
  5
F1CE
  8
2
 10
35.763379187560417
 20
114.38821071081151
 30
0.0
  0
VERTEX
  5
F1CF
  8
2
 10
35.30356688319398
 20
114.5079061560202
 30
0.0
  0
VERTEX
  5
F1D0
  8
2
 10
34.862084030587432
 20
114.60974630495799
 30
0.0
  0
VERTEX
  5
F1D1
  8
2
 10
34.64723010066723
 20
114.6543677106049
 30
0.0
  0
VERTEX
  5
F1D2
  8
2
 10
34.435816842708107
 20
114.6949707246342
 30
0.0
  0
VERTEX
  5
F1D3
  8
2
 10
34.02196247591769
 20
114.7645808396004
 30
0.0
  0
VERTEX
  5
F1D4
  8
2
 10
33.617962078481071
 20
114.81937068379089
 30
0.0
  0
VERTEX
  5
F1D5
  8
2
 10
33.221444301856991
 20
114.85995029779821
 30
0.0
  0
VERTEX
  5
F1D6
  8
2
 10
32.830176517131413
 20
114.8867631015944
 30
0.0
  0
VERTEX
  5
F1D7
  8
2
 10
32.442021537532298
 20
114.9000981887006
 30
0.0
  0
VERTEX
  5
F1D8
  8
2
 10
32.248459784021406
 20
114.9017617502271
 30
0.0
  0
VERTEX
  5
F1D9
  8
2
 10
32.054898030510508
 20
114.9000981887006
 30
0.0
  0
VERTEX
  5
F1DA
  8
2
 10
31.666743050911411
 20
114.8867631015944
 30
0.0
  0
VERTEX
  5
F1DB
  8
2
 10
31.275475266185818
 20
114.85995029779821
 30
0.0
  0
VERTEX
  5
F1DC
  8
2
 10
30.878957489561738
 20
114.81937068379089
 30
0.0
  0
VERTEX
  5
F1DD
  8
2
 10
30.47495709212512
 20
114.7645808396004
 30
0.0
  0
VERTEX
  5
F1DE
  8
2
 10
30.06110272533471
 20
114.6949707246342
 30
0.0
  0
VERTEX
  5
F1DF
  8
2
 10
29.84968946737558
 20
114.6543677106049
 30
0.0
  0
VERTEX
  5
F1E0
  8
2
 10
29.634835537455391
 20
114.60974630495799
 30
0.0
  0
VERTEX
  5
F1E1
  8
2
 10
29.193352684848829
 20
114.5079061560202
 30
0.0
  0
VERTEX
  5
F1E2
  8
2
 10
28.733540380482399
 20
114.38821071081151
 30
0.0
  0
VERTEX
  5
F1E3
  8
2
 10
28.495683034288849
 20
114.3212051666263
 30
0.0
  0
SEQEND
  5
F1E4
  8
2
  0
POLYLINE
  5
EEAA
  8
2
 66
     1
 10
0.0
 20
0.0
 30
0.0
  0
VERTEX
  5
F1E5
  8
2
 10
24.742906284556291
 20
114.3212051666263
 30
0.0
  0
VERTEX
  5
F1E6
  8
2
 10
24.861834957653059
 20
114.38821071081141
 30
0.0
  0
VERTEX
  5
F1E7
  8
2
 10
25.091741109836281
 20
114.5079061560202
 30
0.0
  0
VERTEX
  5
F1E8
  8
2
 10
25.312482536139559
 20
114.60974630495799
 30
0.0
  0
VERTEX
  5
F1E9
  8
2
 10
25.41990950109966
 20
114.6543677106049
 30
0.0
  0
VERTEX
  5
F1EA
  8
2
 10
25.525616130079239
 20
114.6949707246342
 30
0.0
  0
VERTEX
  5
F1EB
  8
2
 10
25.732543313474419
 20
114.7645808396004
 30
0.0
  0
VERTEX
  5
F1EC
  8
2
 10
25.9345435121927
 20
114.81937068379089
 30
0.0
  0
VERTEX
  5
F1ED
  8
2
 10
26.132802400504769
 20
114.85995029779821
 30
0.0
  0
VERTEX
  5
F1EE
  8
2
 10
26.32843629286754
 20
114.8867631015944
 30
0.0
  0
VERTEX
  5
F1EF
  8
2
 10
26.522513782667151
 20
114.9000981887005
 30
0.0
  0
VERTEX
  5
F1F0
  8
2
 10
26.619294659422561
 20
114.9017617502271
 30
0.0
  0
VERTEX
  5
F1F1
  8
2
 10
26.716075536177989
 20
114.9000981887006
 30
0.0
  0
VERTEX
  5
F1F2
  8
2
 10
26.910153025977539
 20
114.8867631015944
 30
0.0
  0
VERTEX
  5
F1F3
  8
2
 10
27.10578691834036
 20
114.85995029779821
 30
0.0
  0
VERTEX
  5
F1F4
  8
2
 10
27.304045806652429
 20
114.81937068379089
 30
0.0
  0
VERTEX
  5
F1F5
  8
2
 10
27.506046005370649
 20
114.7645808396004
 30
0.0
  0
VERTEX
  5
F1F6
  8
2
 10
27.71297318876589
 20
114.6949707246342
 30
0.0
  0
VERTEX
  5
F1F7
  8
2
 10
27.818679817745419
 20
114.6543677106049
 30
0.0
  0
VERTEX
  5
F1F8
  8
2
 10
27.926106782705581
 20
114.60974630495799
 30
0.0
  0
VERTEX
  5
F1F9
  8
2
 10
28.146848209008791
 20
114.5079061560202
 30
0.0
  0
VERTEX
  5
F1FA
  8
2
 10
28.37675436119207
 20
114.38821071081141
 30
0.0
  0
VERTEX
  5
F1FB
  8
2
 10
28.495683034288849
 20
114.3212051666263
 30
0.0
  0
SEQEND
  5
F1FC
  8
2
  0
POLYLINE
  5
EEAB
  8
2
 66
     1
 10
0.0
 20
0.0
 30
0.0
  0
VERTEX
  5
F1FD
  8
2
 10
28.495683034288849
 20
109.96381379145021
 30
0.0
  0
VERTEX
  5
F1FE
  8
2
 10
28.37675436119207
 20
109.8968082472651
 30
0.0
  0
VERTEX
  5
F1FF
  8
2
 10
28.146848209008791
 20
109.77711280205629
 30
0.0
  0
VERTEX
  5
F200
  8
2
 10
27.926106782705581
 20
109.6752726531185
 30
0.0
  0
VERTEX
  5
F201
  8
2
 10
27.818679817745419
 20
109.6306512474716
 30
0.0
  0
VERTEX
  5
F202
  8
2
 10
27.71297318876589
 20
109.5900482334423
 30
0.0
  0
VERTEX
  5
F203
  8
2
 10
27.506046005370649
 20
109.52043811847609
 30
0.0
  0
VERTEX
  5
F204
  8
2
 10
27.304045806652429
 20
109.4656482742857
 30
0.0
  0
VERTEX
  5
F205
  8
2
 10
27.10578691834036
 20
109.4250686602783
 30
0.0
  0
VERTEX
  5
F206
  8
2
 10
26.910153025977539
 20
109.39825585648219
 30
0.0
  0
VERTEX
  5
F207
  8
2
 10
26.716075536177989
 20
109.384920769376
 30
0.0
  0
VERTEX
  5
F208
  8
2
 10
26.619294659422561
 20
109.3832572078495
 30
0.0
  0
VERTEX
  5
F209
  8
2
 10
26.522513782667151
 20
109.384920769376
 30
0.0
  0
VERTEX
  5
F20A
  8
2
 10
26.32843629286754
 20
109.39825585648219
 30
0.0
  0
VERTEX
  5
F20B
  8
2
 10
26.132802400504769
 20
109.4250686602783
 30
0.0
  0
VERTEX
  5
F20C
  8
2
 10
25.9345435121927
 20
109.4656482742857
 30
0.0
  0
VERTEX
  5
F20D
  8
2
 10
25.732543313474419
 20
109.52043811847609
 30
0.0
  0
VERTEX
  5
F20E
  8
2
 10
25.525616130079239
 20
109.5900482334423
 30
0.0
  0
VERTEX
  5
F20F
  8
2
 10
25.41990950109966
 20
109.6306512474716
 30
0.0
  0
VERTEX
  5
F210
  8
2
 10
25.312482536139559
 20
109.6752726531185
 30
0.0
  0
VERTEX
  5
F211
  8
2
 10
25.091741109836281
 20
109.77711280205629
 30
0.0
  0
VERTEX
  5
F212
  8
2
 10
24.861834957653059
 20
109.8968082472651
 30
0.0
  0
VERTEX
  5
F213
  8
2
 10
24.742906284556291
 20
109.96381379145021
 30
0.0
  0
SEQEND
  5
F214
  8
2
  0
LINE
  5
EEAC
  8
2
 10
28.495683034288849
 20
114.3212051666263
 30
0.0
 11
28.495683034288849
 21
109.96381379145021
 31
0.0
  0
LINE
  5
EEAD
  8
2
 10
36.001236533753968
 20
114.3212051666263
 30
0.0
 11
36.001236533753968
 21
109.96381379145021
 31
0.0
  0
POLYLINE
  5
EEAE
  8
2
 66
     1
 10
0.0
 20
0.0
 30
0.0
  0
VERTEX
  5
F215
  8
2
 10
36.001236533753968
 20
109.96381379145021
 30
0.0
  0
VERTEX
  5
F216
  8
2
 10
35.763379187560417
 20
109.8968082472651
 30
0.0
  0
VERTEX
  5
F217
  8
2
 10
35.30356688319398
 20
109.77711280205629
 30
0.0
  0
VERTEX
  5
F218
  8
2
 10
34.862084030587432
 20
109.6752726531185
 30
0.0
  0
VERTEX
  5
F219
  8
2
 10
34.64723010066723
 20
109.6306512474716
 30
0.0
  0
VERTEX
  5
F21A
  8
2
 10
34.435816842708107
 20
109.5900482334423
 30
0.0
  0
VERTEX
  5
F21B
  8
2
 10
34.02196247591769
 20
109.52043811847609
 30
0.0
  0
VERTEX
  5
F21C
  8
2
 10
33.617962078481071
 20
109.4656482742857
 30
0.0
  0
VERTEX
  5
F21D
  8
2
 10
33.221444301856991
 20
109.4250686602783
 30
0.0
  0
VERTEX
  5
F21E
  8
2
 10
32.830176517131413
 20
109.39825585648219
 30
0.0
  0
VERTEX
  5
F21F
  8
2
 10
32.442021537532298
 20
109.384920769376
 30
0.0
  0
VERTEX
  5
F220
  8
2
 10
32.248459784021406
 20
109.3832572078495
 30
0.0
  0
VERTEX
  5
F221
  8
2
 10
32.054898030510508
 20
109.384920769376
 30
0.0
  0
VERTEX
  5
F222
  8
2
 10
31.666743050911411
 20
109.39825585648219
 30
0.0
  0
VERTEX
  5
F223
  8
2
 10
31.275475266185818
 20
109.4250686602783
 30
0.0
  0
VERTEX
  5
F224
  8
2
 10
30.878957489561738
 20
109.4656482742857
 30
0.0
  0
VERTEX
  5
F225
  8
2
 10
30.47495709212512
 20
109.52043811847609
 30
0.0
  0
VERTEX
  5
F226
  8
2
 10
30.06110272533471
 20
109.5900482334423
 30
0.0
  0
VERTEX
  5
F227
  8
2
 10
29.84968946737558
 20
109.6306512474716
 30
0.0
  0
VERTEX
  5
F228
  8
2
 10
29.634835537455391
 20
109.6752726531185
 30
0.0
  0
VERTEX
  5
F229
  8
2
 10
29.193352684848829
 20
109.77711280205629
 30
0.0
  0
VERTEX
  5
F22A
  8
2
 10
28.733540380482399
 20
109.8968082472651
 30
0.0
  0
VERTEX
  5
F22B
  8
2
 10
28.495683034288849
 20
109.96381379145021
 30
0.0
  0
SEQEND
  5
F22C
  8
2
  0
LINE
  5
EEAF
  8
2
 10
24.742906284556291
 20
115.3925094790383
 30
0.0
 11
24.742906284556291
 21
108.8925094790383
 31
0.0
  0
LINE
  5
EEB0
  8
2
 10
24.742906284556291
 20
108.8925094790383
 30
0.0
 11
39.754013283486529
 21
108.8925094790383
 31
0.0
  0
LINE
  5
EEB1
  8
2
 10
39.754013283486529
 20
115.3925094790383
 30
0.0
 11
24.742906284556291
 21
115.3925094790383
 31
0.0
  0
LINE
  5
EEB2
  8
2
 10
39.754013283486529
 20
115.3925094790383
 30
0.0
 11
39.754013283486529
 21
108.8925094790383
 31
0.0
  0
TEXT
  5
EF97
  8
0
 62
     3
 10
0.0
 20
0.0
 30
0.0
 40
10.0
  1
NDEQ30B-M8
  7
STANDARD1
  0
ENDSEC
  0
EOF
