  0
SECTION
  2
HEADER
  9
$ACADVER
  1
AC1009
  9
$INSBASE
 10
0.0
 20
0.0
 30
0.0
  9
$EXTMIN
 10
0.0
 20
-2.960436562073669
 30
0.0
  9
$EXTMAX
 10
161.82435287332891
 20
100.62395623282769
 30
0.0
  9
$LIMMIN
 10
0.0
 20
0.0
  9
$LIMMAX
 10
375.0
 20
270.0
  9
$ORTHOMODE
 70
     1
  9
$REGENMODE
 70
     1
  9
$FILLMODE
 70
     1
  9
$QTEXTMODE
 70
     0
  9
$MIRRTEXT
 70
     0
  9
$DRAGMODE
 70
     2
  9
$LTSCALE
 40
6.0
  9
$OSMODE
 70
  3071
  9
$ATTMODE
 70
     1
  9
$TEXTSIZE
 40
0.2
  9
$TRACEWID
 40
0.05
  9
$TEXTSTYLE
  7
STANDARD
  9
$CLAYER
  8
0
  9
$CELTYPE
  6
BYLAYER
  9
$CECOLOR
 62
   256
  9
$DIMSCALE
 40
1.0
  9
$DIMASZ
 40
3.0
  9
$DIMEXO
 40
1.0
  9
$DIMDLI
 40
6.0
  9
$DIMRND
 40
0.0
  9
$DIMDLE
 40
0.0
  9
$DIMEXE
 40
1.0
  9
$DIMTP
 40
495.0
  9
$DIMTM
 40
0.0
  9
$DIMTXT
 40
3.0
  9
$DIMCEN
 40
0.0
  9
$DIMTSZ
 40
0.0
  9
$DIMTOL
 70
     0
  9
$DIMLIM
 70
     0
  9
$DIMTIH
 70
     0
  9
$DIMTOH
 70
     0
  9
$DIMSE1
 70
     0
  9
$DIMSE2
 70
     0
  9
$DIMTAD
 70
     1
  9
$DIMZIN
 70
     0
  9
$DIMBLK
  1

  9
$DIMASO
 70
     0
  9
$DIMSHO
 70
     0
  9
$DIMPOST
  1

  9
$DIMAPOST
  1

  9
$DIMALT
 70
     0
  9
$DIMALTD
 70
     2
  9
$DIMALTF
 40
25.399999999999999
  9
$DIMLFAC
 40
1.0
  9
$DIMTOFL
 70
     1
  9
$DIMTVP
 40
0.0
  9
$DIMTIX
 70
     1
  9
$DIMSOXD
 70
     0
  9
$DIMSAH
 70
     0
  9
$DIMBLK1
  1

  9
$DIMBLK2
  1

  9
$DIMSTYLE
  2
STANDARD
  9
$DIMCLRD
 70
     0
  9
$DIMCLRE
 70
     0
  9
$DIMCLRT
 70
     4
  9
$DIMTFAC
 40
1.0
  9
$DIMGAP
 40
1.0
  9
$LUNITS
 70
     2
  9
$LUPREC
 70
     4
  9
$SKETCHINC
 40
0.1
  9
$FILLETRAD
 40
2.0
  9
$AUNITS
 70
     0
  9
$AUPREC
 70
     0
  9
$MENU
  1
C:\R13\WIN\SUPPORT\ACAD-I
  9
$ELEVATION
 40
0.0
  9
$PELEVATION
 40
0.0
  9
$THICKNESS
 40
0.0
  9
$LIMCHECK
 70
     0
  9
$BLIPMODE
 70
     0
  9
$CHAMFERA
 40
0.0
  9
$CHAMFERB
 40
0.0
  9
$SKPOLY
 70
     0
  9
$TDCREATE
 40
2451963.5663344101
  9
$TDUPDATE
 40
2456597.6879205098
  9
$TDINDWG
 40
0.0002009259
  9
$TDUSRTIMER
 40
0.0002009259
  9
$USRTIMER
 70
     1
  9
$ANGBASE
 50
0.0
  9
$ANGDIR
 70
     0
  9
$PDMODE
 70
     0
  9
$PDSIZE
 40
0.0
  9
$PLINEWID
 40
0.0
  9
$COORDS
 70
     1
  9
$SPLFRAME
 70
     0
  9
$SPLINETYPE
 70
     6
  9
$SPLINESEGS
 70
     8
  9
$ATTDIA
 70
     0
  9
$ATTREQ
 70
     1
  9
$HANDLING
 70
     1
  9
$HANDSEED
  5
D451
  9
$SURFTAB1
 70
     6
  9
$SURFTAB2
 70
     6
  9
$SURFTYPE
 70
     6
  9
$SURFU
 70
     6
  9
$SURFV
 70
     6
  9
$UCSNAME
  2

  9
$UCSORG
 10
0.0
 20
0.0
 30
0.0
  9
$UCSXDIR
 10
1.0
 20
0.0
 30
0.0
  9
$UCSYDIR
 10
0.0
 20
1.0
 30
0.0
  9
$PUCSNAME
  2

  9
$PUCSORG
 10
0.0
 20
0.0
 30
0.0
  9
$PUCSXDIR
 10
1.0
 20
0.0
 30
0.0
  9
$PUCSYDIR
 10
0.0
 20
1.0
 30
0.0
  9
$USERI1
 70
     4
  9
$USERI2
 70
     1
  9
$USERI3
 70
     0
  9
$USERI4
 70
     0
  9
$USERI5
 70
     0
  9
$USERR1
 40
1.0
  9
$USERR2
 40
3.0
  9
$USERR3
 40
3.0
  9
$USERR4
 40
3.0
  9
$USERR5
 40
10.0
  9
$WORLDVIEW
 70
     1
  9
$SHADEDGE
 70
     3
  9
$SHADEDIF
 70
    70
  9
$TILEMODE
 70
     1
  9
$MAXACTVP
 70
    16
  9
$PLIMCHECK
 70
     0
  9
$PEXTMIN
 10
1.0000000000000000E+020
 20
1.0000000000000000E+020
 30
1.0000000000000000E+020
  9
$PEXTMAX
 10
-1.0000000000000000E+020
 20
-1.0000000000000000E+020
 30
-1.0000000000000000E+020
  9
$PLIMMIN
 10
0.0
 20
0.0
  9
$PLIMMAX
 10
12.0
 20
9.0
  9
$UNITMODE
 70
     0
  9
$VISRETAIN
 70
     0
  9
$PLINEGEN
 70
     0
  9
$PSLTSCALE
 70
     0
  0
ENDSEC
  0
SECTION
  2
TABLES
  0
TABLE
  2
VPORT
 70
     1
  0
VPORT
  2
*ACTIVE
 70
     0
 10
0.0
 20
0.0
 11
1.0
 21
1.0
 12
187.49427839065231
 22
134.10366293909439
 13
0.0
 23
0.0
 14
10.0
 24
10.0
 15
10.0
 25
10.0
 16
0.0
 26
0.0
 36
1.0
 17
0.0
 27
0.0
 37
0.0
 40
277.29405978699532
 41
2.304913294797688
 42
50.0
 43
0.0
 44
0.0
 50
0.0
 51
0.0
 71
     0
 72
   100
 73
     1
 74
     0
 75
     0
 76
     0
 77
     0
 78
     0
  0
ENDTAB
  0
TABLE
  2
LTYPE
 70
     3
  0
LTYPE
  2
CONTINUOUS
 70
     0
  3
Solid Line
 72
    65
 73
     0
 40
0.0
  0
LTYPE
  2
CENTER
 70
     0
  3
____ _ ____ _ ____ _ ____ _ ____ _ ____ _ ____
 72
    65
 73
     4
 40
2.0
 49
1.25
 49
-0.25
 49
0.25
 49
-0.25
  0
LTYPE
  2
PHANTOM2
 70
     0
  3
___ _ _ ___ _ _ ___ _ _ ___ _ _
 72
    65
 73
     6
 40
1.25
 49
0.625
 49
-0.125
 49
0.125
 49
-0.125
 49
0.125
 49
-0.125
  0
ENDTAB
  0
TABLE
  2
LAYER
 70
     3
  0
LAYER
  2
0
 70
     0
 62
     7
  6
CONTINUOUS
  0
LAYER
  2
1
 70
     0
 62
     1
  6
CENTER
  0
LAYER
  2
3
 70
     0
 62
     3
  6
CONTINUOUS
  0
ENDTAB
  0
TABLE
  2
STYLE
 70
     2
  0
STYLE
  2
STANDARD
 70
     0
 40
0.0
 41
1.0
 50
0.0
 71
     0
 42
0.2
  3
SIMPLEX
  4
BIGFONT
  0
STYLE
  2
STANDARD1
 70
     0
 40
0.0
 41
1.0
 50
0.0
 71
     0
 42
3.0
  3
txt
  4

  0
ENDTAB
  0
TABLE
  2
VIEW
 70
     0
  0
ENDTAB
  0
TABLE
  2
UCS
 70
     0
  0
ENDTAB
  0
TABLE
  2
APPID
 70
    28
  0
APPID
  2
ACAD
 70
     0
  0
APPID
  2
GENIUS_GENOREF_13
 70
     0
  0
APPID
  2
GENIUS_GENOENT_13
 70
     0
  0
APPID
  2
GENIUS_GENBH_13
 70
     0
  0
APPID
  2
GENIUS_GENOBJ_13
 70
     0
  0
APPID
  2
GENIUS_GENODEF_13
 70
     0
  0
APPID
  2
GENIUS_GENOLIS_13
 70
     0
  0
APPID
  2
GENIUS_GENOBJ-NBEHI-BHF_13
 70
     0
  0
APPID
  2
GENIUS_GENOBJ-NBEHI-BHB_13
 70
     0
  0
APPID
  2
GENIUS_GENOBJ-F-PART_13
 70
     0
  0
APPID
  2
GENIUS_GEFSTDP_13
 70
     0
  0
APPID
  2
GENIUS_GENOBJ-N-RSSYM_13
 70
     0
  0
APPID
  2
GENIUS_GENSYMENT_13
 70
     0
  0
APPID
  2
GENIUS_GENOBJ-N-TIT_13
 70
     0
  0
APPID
  2
GENIUS_GENTITLE_13
 70
     0
  0
APPID
  2
GENIUS_GENZVEED_13
 70
     0
  0
APPID
  2
GENIUS_GENOBJ-N-LEADER_13
 70
     0
  0
APPID
  2
GENIUS_GENOBJ-N-FIL_13
 70
     0
  0
APPID
  2
GENIUS_GENOBJ-N-SEC_13
 70
     0
  0
APPID
  2
GENIUS_GENOBJ-N-CRS_13
 70
     0
  0
APPID
  2
GENIUS_GENOBJ-N-ZOO_13
 70
     0
  0
APPID
  2
GENIUS_GENZOO_13
 70
     0
  0
APPID
  2
GENIUS_GENOBJ-F-TOL_13
 70
     0
  0
APPID
  2
GENIUS_GENFIL_13
 70
     0
  0
APPID
  2
GENIUS_GENOBJ-N-CHA_13
 70
     0
  0
APPID
  2
_CALL_MAC$
 70
     0
  0
APPID
  2
ACAD_MLEADERVER
 70
     0
  0
APPID
  2
ACAD_NAV_VCDISPLAY
 70
     0
  0
ENDTAB
  0
TABLE
  2
DIMSTYLE
 70
     1
  0
DIMSTYLE
  2
STANDARD
 70
     0
  3

  4

  5

  6

  7

 40
1.0
 41
0.18
 42
0.0625
 43
0.38
 44
0.18
 45
0.0
 46
0.0
 47
0.0
 48
0.0
140
0.18
141
0.09
142
0.0
143
25.399999999999999
144
1.0
145
0.0
146
1.0
147
0.09
 71
     0
 72
     0
 73
     1
 74
     1
 75
     0
 76
     0
 77
     0
 78
     0
170
     0
171
     2
172
     0
173
     0
174
     0
175
     0
176
     0
177
     0
178
     0
  0
ENDTAB
  0
ENDSEC
  0
SECTION
  2
BLOCKS
  0
BLOCK
  8
0
  2
$MODEL_SPACE
 70
     0
 10
0.0
 20
0.0
 30
0.0
  3
$MODEL_SPACE
  1

  0
ENDBLK
  5
D30C
  8
0
  0
BLOCK
 67
     1
  8
0
  2
$PAPER_SPACE
 70
     0
 10
0.0
 20
0.0
 30
0.0
  3
$PAPER_SPACE
  1

  0
ENDBLK
  5
D30A
 67
     1
  8
0
  0
BLOCK
  8
0
  2
STDGX5
 70
     0
 10
0.0
 20
0.0
 30
0.0
  3
STDGX5
  1

  0
ENDBLK
  5
4F
  8
0
  0
ENDSEC
  0
SECTION
  2
ENTITIES
  0
INSERT
  5
DE
  8
0
  2
STDGX5
 10
0.0
 20
0.0
 30
0.0
  0
INSERT
  5
DF
  8
0
  2
STDGX5
 10
0.0
 20
0.0
 30
0.0
  0
INSERT
  5
15C
  8
0
  2
STDGX5
 10
275.0
 20
0.0
 30
0.0
  0
INSERT
  5
15D
  8
0
  2
STDGX5
 10
275.0
 20
0.0
 30
0.0
  0
INSERT
  5
8DE
  8
0
  2
STDGX5
 10
0.0
 20
0.0
 30
0.0
  0
INSERT
  5
8DF
  8
0
  2
STDGX5
 10
0.0
 20
0.0
 30
0.0
  0
INSERT
  5
8E0
  8
0
  2
STDGX5
 10
275.0
 20
0.0
 30
0.0
  0
INSERT
  5
8E1
  8
0
  2
STDGX5
 10
275.0
 20
0.0
 30
0.0
  0
CIRCLE
  5
D206
  8
3
 10
50.078058928273101
 20
69.373956232827709
 30
0.0
 40
10.0
  0
CIRCLE
  5
D207
  8
0
 10
50.078058928273101
 20
69.373956232827709
 30
0.0
 40
8.6470000000000002
  0
POLYLINE
  5
D208
  8
0
 66
     1
 10
0.0
 20
0.0
 30
0.0
 70
     1
  0
VERTEX
  5
D209
  8
0
 10
27.078058928273091
 20
94.373956232827823
 30
0.0
  0
VERTEX
  5
D20A
  8
0
 10
73.078058928273094
 20
94.373956232827766
 30
0.0
 42
-0.4142135623730948
  0
VERTEX
  5
D20B
  8
0
 10
75.078058928273094
 20
92.373956232827766
 30
0.0
  0
VERTEX
  5
D20C
  8
0
 10
75.078058928273094
 20
46.373956232827773
 30
0.0
 42
-0.4142135623730961
  0
VERTEX
  5
D20D
  8
0
 10
73.078058928273094
 20
44.373956232827773
 30
0.0
  0
VERTEX
  5
D20E
  8
0
 10
27.078058928273091
 20
44.373956232827958
 30
0.0
 42
-0.414213562373094
  0
VERTEX
  5
D20F
  8
0
 10
25.078058928273101
 20
46.373956232827958
 30
0.0
  0
VERTEX
  5
D210
  8
0
 10
25.078058928273101
 20
92.373956232827823
 30
0.0
 42
-0.4142135623730953
  0
SEQEND
  5
D211
  8
0
  0
POLYLINE
  5
D212
  8
0
 66
     1
 10
0.0
 20
0.0
 30
0.0
 70
     1
  0
VERTEX
  5
D213
  8
0
 10
30.453058928273212
 20
89.998956232827936
 30
0.0
  0
VERTEX
  5
D214
  8
0
 10
69.703058928273094
 20
89.998956232827936
 30
0.0
 42
-0.4142135623730951
  0
VERTEX
  5
D215
  8
0
 10
70.703058928273094
 20
88.998956232827936
 30
0.0
  0
VERTEX
  5
D216
  8
0
 10
70.703058928273094
 20
49.748956232827922
 30
0.0
 42
-0.4142135623730951
  0
VERTEX
  5
D217
  8
0
 10
69.703058928273094
 20
48.748956232827922
 30
0.0
  0
VERTEX
  5
D218
  8
0
 10
30.453058928273101
 20
48.748956232827922
 30
0.0
 42
-0.4142135623730951
  0
VERTEX
  5
D219
  8
0
 10
29.453058928273101
 20
49.748956232827922
 30
0.0
  0
VERTEX
  5
D21A
  8
0
 10
29.453058928273212
 20
88.998956232827936
 30
0.0
 42
-0.4142135623730951
  0
SEQEND
  5
D21B
  8
0
  0
LINE
  5
D21C
  8
1
 10
50.078058928273101
 20
38.123956232827851
 30
0.0
 11
50.078058928273201
 21
100.62395623282769
 31
0.0
  0
LINE
  5
D21D
  8
1
 10
81.328058928273094
 20
69.373956232827709
 30
0.0
 11
18.828058928273091
 21
69.373956232827709
 31
0.0
  0
LINE
  5
D21E
  8
0
 10
100.57435287332891
 20
88.748956232827851
 30
0.0
 11
100.57435287332891
 21
49.998956232827851
 31
0.0
  0
LINE
  5
D21F
  8
0
 10
101.82435287332891
 20
48.748956232827851
 30
0.0
 11
103.074352873329
 21
48.748956232827851
 31
0.0
  0
LINE
  5
D220
  8
0
 10
101.82435287332891
 20
89.998956232827851
 30
0.0
 11
103.07435287332891
 21
89.998956232827851
 31
0.0
  0
LINE
  5
D221
  8
0
 10
103.074352873329
 20
91.873956232827709
 30
0.0
 11
103.07435287332891
 21
46.873956232827702
 31
0.0
  0
LINE
  5
D222
  8
0
 10
105.57435287332891
 20
44.373956232827702
 30
0.0
 11
110.57435287332891
 21
44.37395623282756
 31
0.0
  0
LINE
  5
D223
  8
0
 10
105.5743528733291
 20
94.373956232827709
 30
0.0
 11
110.5743528733291
 21
94.373956232827851
 31
0.0
  0
ARC
  5
D224
  8
0
 10
105.57435287332891
 20
91.873956232827766
 30
0.0
 40
2.5
 50
89.999999999999986
 51
180.0
  0
ARC
  5
D225
  8
0
 10
105.57435287332891
 20
46.873956232827773
 30
0.0
 40
2.5
 50
180.0
 51
270.00000000000023
  0
ARC
  5
D226
  8
0
 10
101.82435287332891
 20
49.998956232827922
 30
0.0
 40
1.25
 50
180.0
 51
270.0
  0
ARC
  5
D227
  8
0
 10
101.82435287332891
 20
88.748956232827936
 30
0.0
 40
1.25
 50
89.999999999999986
 51
180.0
  0
LINE
  5
D228
  8
0
 10
110.5743528733291
 20
94.373956232827851
 30
0.0
 11
110.57435287332891
 21
44.37395623282756
 31
0.0
  0
LINE
  5
D229
  8
0
 10
155.57435287332891
 20
92.623956232827567
 30
0.0
 11
155.57435287332891
 21
46.123956232827567
 31
0.0
  0
LINE
  5
D22A
  8
1
 10
161.82435287332891
 20
69.373956232827567
 30
0.0
 11
94.324352873328962
 21
69.373956232827567
 31
0.0
  0
LINE
  5
D23A
  8
0
 10
155.57435287332891
 20
92.623956232827567
 30
0.0
 11
110.5743528733291
 21
92.623956232827567
 31
0.0
  0
LINE
  5
D23B
  8
0
 10
155.57435287332891
 20
46.123956232827567
 30
0.0
 11
110.57435287332881
 21
46.123956232827567
 31
0.0
  0
TEXT
  5
D3C3
  8
0
 62
     3
 10
0.0
 20
0.0
 30
0.0
 40
10.0
  1
NDQ50X2-M20
  7
STANDARD1
  0
ENDSEC
  0
EOF
