  0
SECTION
  2
HEADER
  9
$ACADVER
  1
AC1009
  9
$INSBASE
 10
0.0
 20
0.0
 30
0.0
  9
$EXTMIN
 10
0.0
 20
-2.960436562073669
 30
0.0
  9
$EXTMAX
 10
129.46878490841189
 20
68.50275707720715
 30
0.0
  9
$LIMMIN
 10
0.0
 20
0.0
  9
$LIMMAX
 10
375.0
 20
270.0
  9
$ORTHOMODE
 70
     1
  9
$REGENMODE
 70
     1
  9
$FILLMODE
 70
     1
  9
$QTEXTMODE
 70
     0
  9
$MIRRTEXT
 70
     0
  9
$DRAGMODE
 70
     2
  9
$LTSCALE
 40
6.0
  9
$OSMODE
 70
  3071
  9
$ATTMODE
 70
     1
  9
$TEXTSIZE
 40
0.2
  9
$TRACEWID
 40
0.05
  9
$TEXTSTYLE
  7
STANDARD
  9
$CLAYER
  8
0
  9
$CELTYPE
  6
BYLAYER
  9
$CECOLOR
 62
   256
  9
$DIMSCALE
 40
1.0
  9
$DIMASZ
 40
3.0
  9
$DIMEXO
 40
1.0
  9
$DIMDLI
 40
6.0
  9
$DIMRND
 40
0.0
  9
$DIMDLE
 40
0.0
  9
$DIMEXE
 40
1.0
  9
$DIMTP
 40
495.0
  9
$DIMTM
 40
0.0
  9
$DIMTXT
 40
3.0
  9
$DIMCEN
 40
0.0
  9
$DIMTSZ
 40
0.0
  9
$DIMTOL
 70
     0
  9
$DIMLIM
 70
     0
  9
$DIMTIH
 70
     0
  9
$DIMTOH
 70
     0
  9
$DIMSE1
 70
     0
  9
$DIMSE2
 70
     0
  9
$DIMTAD
 70
     1
  9
$DIMZIN
 70
     0
  9
$DIMBLK
  1

  9
$DIMASO
 70
     0
  9
$DIMSHO
 70
     0
  9
$DIMPOST
  1

  9
$DIMAPOST
  1

  9
$DIMALT
 70
     0
  9
$DIMALTD
 70
     2
  9
$DIMALTF
 40
25.399999999999999
  9
$DIMLFAC
 40
1.0
  9
$DIMTOFL
 70
     1
  9
$DIMTVP
 40
0.0
  9
$DIMTIX
 70
     1
  9
$DIMSOXD
 70
     0
  9
$DIMSAH
 70
     0
  9
$DIMBLK1
  1

  9
$DIMBLK2
  1

  9
$DIMSTYLE
  2
STANDARD
  9
$DIMCLRD
 70
     0
  9
$DIMCLRE
 70
     0
  9
$DIMCLRT
 70
     4
  9
$DIMTFAC
 40
1.0
  9
$DIMGAP
 40
1.0
  9
$LUNITS
 70
     2
  9
$LUPREC
 70
     4
  9
$SKETCHINC
 40
0.1
  9
$FILLETRAD
 40
2.0
  9
$AUNITS
 70
     0
  9
$AUPREC
 70
     0
  9
$MENU
  1
C:\R13\WIN\SUPPORT\ACAD-I
  9
$ELEVATION
 40
0.0
  9
$PELEVATION
 40
0.0
  9
$THICKNESS
 40
0.0
  9
$LIMCHECK
 70
     0
  9
$BLIPMODE
 70
     0
  9
$CHAMFERA
 40
0.0
  9
$CHAMFERB
 40
0.0
  9
$SKPOLY
 70
     0
  9
$TDCREATE
 40
2451963.5438110419
  9
$TDUPDATE
 40
2456597.687950301
  9
$TDINDWG
 40
0.0295285301
  9
$TDUSRTIMER
 40
0.0295285301
  9
$USRTIMER
 70
     1
  9
$ANGBASE
 50
0.0
  9
$ANGDIR
 70
     0
  9
$PDMODE
 70
     0
  9
$PDSIZE
 40
0.0
  9
$PLINEWID
 40
0.0
  9
$COORDS
 70
     1
  9
$SPLFRAME
 70
     0
  9
$SPLINETYPE
 70
     6
  9
$SPLINESEGS
 70
     8
  9
$ATTDIA
 70
     0
  9
$ATTREQ
 70
     1
  9
$HANDLING
 70
     1
  9
$HANDSEED
  5
D40F
  9
$SURFTAB1
 70
     6
  9
$SURFTAB2
 70
     6
  9
$SURFTYPE
 70
     6
  9
$SURFU
 70
     6
  9
$SURFV
 70
     6
  9
$UCSNAME
  2

  9
$UCSORG
 10
0.0
 20
0.0
 30
0.0
  9
$UCSXDIR
 10
1.0
 20
0.0
 30
0.0
  9
$UCSYDIR
 10
0.0
 20
1.0
 30
0.0
  9
$PUCSNAME
  2

  9
$PUCSORG
 10
0.0
 20
0.0
 30
0.0
  9
$PUCSXDIR
 10
1.0
 20
0.0
 30
0.0
  9
$PUCSYDIR
 10
0.0
 20
1.0
 30
0.0
  9
$USERI1
 70
     4
  9
$USERI2
 70
     1
  9
$USERI3
 70
     0
  9
$USERI4
 70
     0
  9
$USERI5
 70
     0
  9
$USERR1
 40
1.0
  9
$USERR2
 40
3.0
  9
$USERR3
 40
3.0
  9
$USERR4
 40
3.0
  9
$USERR5
 40
10.0
  9
$WORLDVIEW
 70
     1
  9
$SHADEDGE
 70
     3
  9
$SHADEDIF
 70
    70
  9
$TILEMODE
 70
     1
  9
$MAXACTVP
 70
    16
  9
$PLIMCHECK
 70
     0
  9
$PEXTMIN
 10
1.0000000000000000E+020
 20
1.0000000000000000E+020
 30
1.0000000000000000E+020
  9
$PEXTMAX
 10
-1.0000000000000000E+020
 20
-1.0000000000000000E+020
 30
-1.0000000000000000E+020
  9
$PLIMMIN
 10
0.0
 20
0.0
  9
$PLIMMAX
 10
12.0
 20
9.0
  9
$UNITMODE
 70
     0
  9
$VISRETAIN
 70
     0
  9
$PLINEGEN
 70
     0
  9
$PSLTSCALE
 70
     0
  0
ENDSEC
  0
SECTION
  2
TABLES
  0
TABLE
  2
VPORT
 70
     1
  0
VPORT
  2
*ACTIVE
 70
     0
 10
0.0
 20
0.0
 11
1.0
 21
1.0
 12
187.49427839065231
 22
134.10366293909439
 13
0.0
 23
0.0
 14
10.0
 24
10.0
 15
10.0
 25
10.0
 16
0.0
 26
0.0
 36
1.0
 17
0.0
 27
0.0
 37
0.0
 40
277.29405978699532
 41
2.304913294797688
 42
50.0
 43
0.0
 44
0.0
 50
0.0
 51
0.0
 71
     0
 72
   100
 73
     1
 74
     0
 75
     0
 76
     0
 77
     0
 78
     0
  0
ENDTAB
  0
TABLE
  2
LTYPE
 70
     4
  0
LTYPE
  2
CONTINUOUS
 70
     0
  3
Solid Line
 72
    65
 73
     0
 40
0.0
  0
LTYPE
  2
CENTER
 70
     0
  3
____ _ ____ _ ____ _ ____ _ ____ _ ____ _ ____
 72
    65
 73
     4
 40
2.0
 49
1.25
 49
-0.25
 49
0.25
 49
-0.25
  0
LTYPE
  2
HIDDEN
 70
     0
  3
_ _ _ _ _ _ _ _ _ _ _ _ _ _ _ _ _ _ _ _ _ _ _
 72
    65
 73
     2
 40
0.375
 49
0.25
 49
-0.125
  0
LTYPE
  2
PHANTOM2
 70
     0
  3
___ _ _ ___ _ _ ___ _ _ ___ _ _
 72
    65
 73
     6
 40
1.25
 49
0.625
 49
-0.125
 49
0.125
 49
-0.125
 49
0.125
 49
-0.125
  0
ENDTAB
  0
TABLE
  2
LAYER
 70
     4
  0
LAYER
  2
0
 70
     0
 62
     7
  6
CONTINUOUS
  0
LAYER
  2
1
 70
     0
 62
     1
  6
CENTER
  0
LAYER
  2
3
 70
     0
 62
     3
  6
CONTINUOUS
  0
LAYER
  2
2
 70
     0
 62
     2
  6
HIDDEN
  0
ENDTAB
  0
TABLE
  2
STYLE
 70
     2
  0
STYLE
  2
STANDARD
 70
     0
 40
0.0
 41
1.0
 50
0.0
 71
     0
 42
0.2
  3
SIMPLEX
  4
BIGFONT
  0
STYLE
  2
STANDARD1
 70
     0
 40
0.0
 41
1.0
 50
0.0
 71
     0
 42
3.0
  3
txt
  4

  0
ENDTAB
  0
TABLE
  2
VIEW
 70
     0
  0
ENDTAB
  0
TABLE
  2
UCS
 70
     0
  0
ENDTAB
  0
TABLE
  2
APPID
 70
    28
  0
APPID
  2
ACAD
 70
     0
  0
APPID
  2
GENIUS_GENOREF_13
 70
     0
  0
APPID
  2
GENIUS_GENOENT_13
 70
     0
  0
APPID
  2
GENIUS_GENBH_13
 70
     0
  0
APPID
  2
GENIUS_GENOBJ_13
 70
     0
  0
APPID
  2
GENIUS_GENODEF_13
 70
     0
  0
APPID
  2
GENIUS_GENOLIS_13
 70
     0
  0
APPID
  2
GENIUS_GENOBJ-NBEHI-BHF_13
 70
     0
  0
APPID
  2
GENIUS_GENOBJ-NBEHI-BHB_13
 70
     0
  0
APPID
  2
GENIUS_GENOBJ-F-PART_13
 70
     0
  0
APPID
  2
GENIUS_GEFSTDP_13
 70
     0
  0
APPID
  2
GENIUS_GENOBJ-N-RSSYM_13
 70
     0
  0
APPID
  2
GENIUS_GENSYMENT_13
 70
     0
  0
APPID
  2
GENIUS_GENOBJ-N-TIT_13
 70
     0
  0
APPID
  2
GENIUS_GENTITLE_13
 70
     0
  0
APPID
  2
GENIUS_GENZVEED_13
 70
     0
  0
APPID
  2
GENIUS_GENOBJ-N-LEADER_13
 70
     0
  0
APPID
  2
GENIUS_GENOBJ-N-FIL_13
 70
     0
  0
APPID
  2
GENIUS_GENOBJ-N-SEC_13
 70
     0
  0
APPID
  2
GENIUS_GENOBJ-N-CRS_13
 70
     0
  0
APPID
  2
GENIUS_GENOBJ-N-ZOO_13
 70
     0
  0
APPID
  2
GENIUS_GENZOO_13
 70
     0
  0
APPID
  2
GENIUS_GENOBJ-F-TOL_13
 70
     0
  0
APPID
  2
GENIUS_GENFIL_13
 70
     0
  0
APPID
  2
GENIUS_GENOBJ-N-CHA_13
 70
     0
  0
APPID
  2
_CALL_MAC$
 70
     0
  0
APPID
  2
ACAD_MLEADERVER
 70
     0
  0
APPID
  2
ACAD_NAV_VCDISPLAY
 70
     0
  0
ENDTAB
  0
TABLE
  2
DIMSTYLE
 70
     1
  0
DIMSTYLE
  2
STANDARD
 70
     0
  3

  4

  5

  6

  7

 40
1.0
 41
0.18
 42
0.0625
 43
0.38
 44
0.18
 45
0.0
 46
0.0
 47
0.0
 48
0.0
140
0.18
141
0.09
142
0.0
143
25.399999999999999
144
1.0
145
0.0
146
1.0
147
0.09
 71
     0
 72
     0
 73
     1
 74
     1
 75
     0
 76
     0
 77
     0
 78
     0
170
     0
171
     2
172
     0
173
     0
174
     0
175
     0
176
     0
177
     0
178
     0
  0
ENDTAB
  0
ENDSEC
  0
SECTION
  2
BLOCKS
  0
BLOCK
  8
0
  2
$MODEL_SPACE
 70
     0
 10
0.0
 20
0.0
 30
0.0
  3
$MODEL_SPACE
  1

  0
ENDBLK
  5
CF6E
  8
0
  0
BLOCK
 67
     1
  8
0
  2
$PAPER_SPACE
 70
     0
 10
0.0
 20
0.0
 30
0.0
  3
$PAPER_SPACE
  1

  0
ENDBLK
  5
CF6C
 67
     1
  8
0
  0
ENDSEC
  0
SECTION
  2
ENTITIES
  0
LINE
  5
D0EC
  8
0
 10
94.468784908411976
 20
63.50275707720715
 30
0.0
 11
86.468784908411976
 21
63.50275707720715
 31
0.0
  0
LINE
  5
D0ED
  8
0
 10
86.468784908411976
 20
25.50275707720715
 30
0.0
 11
94.468784908411976
 21
25.50275707720715
 31
0.0
  0
LINE
  5
D0EE
  8
0
 10
94.468784908411976
 20
27.00275707720715
 30
0.0
 11
124.468784908412
 21
27.00275707720715
 31
0.0
  0
LINE
  5
D0EF
  8
0
 10
124.468784908412
 20
62.00275707720715
 30
0.0
 11
94.468784908411976
 21
62.00275707720715
 31
0.0
  0
LINE
  5
D0FC
  8
0
 10
86.468784908411976
 20
25.50275707720715
 30
0.0
 11
86.468784908411976
 21
63.50275707720715
 31
0.0
  0
LINE
  5
D0FD
  8
0
 10
94.468784908411976
 20
25.50275707720715
 30
0.0
 11
94.468784908411976
 21
63.50275707720715
 31
0.0
  0
LINE
  5
D0FE
  8
0
 10
94.468784908411976
 20
43.002757077207143
 30
0.0
 11
106.96878490841191
 21
43.002757077207143
 31
0.0
  0
LINE
  5
D0FF
  8
0
 10
94.468784908411976
 20
46.002757077207143
 30
0.0
 11
106.96878490841191
 21
46.002757077207143
 31
0.0
  0
LINE
  5
D100
  8
0
 10
94.468784908411976
 20
28.653088206665672
 30
0.0
 11
95.468784908412033
 21
28.653088206665672
 31
0.0
  0
LINE
  5
D101
  8
0
 10
94.468784908411976
 20
30.15308820666565
 30
0.0
 11
95.468784908411976
 21
30.15308820666565
 31
0.0
  0
LINE
  5
D102
  8
0
 10
94.468784908411976
 20
58.852425947748628
 30
0.0
 11
95.468784908412033
 21
58.852425947748628
 31
0.0
  0
LINE
  5
D103
  8
0
 10
94.468784908411976
 20
60.352425947748657
 30
0.0
 11
95.468784908411976
 21
60.352425947748657
 31
0.0
  0
LINE
  5
D10A
  8
0
 10
95.468784908409944
 20
58.852425947748628
 30
0.0
 11
95.468784908409944
 21
60.352425947748657
 31
0.0
  0
POLYLINE
  5
D10B
  8
0
 66
     1
 10
0.0
 20
0.0
 30
0.0
  0
VERTEX
  5
D3BF
  8
0
 10
95.468784908411976
 20
60.352425947748642
 30
0.0
  0
VERTEX
  5
D3C0
  8
0
 10
97.665220516326485
 20
59.538772557481252
 30
0.0
  0
VERTEX
  5
D3C1
  8
0
 10
101.6948426381082
 20
58.044984238605039
 30
0.0
  0
VERTEX
  5
D3C2
  8
0
 10
105.3029021644633
 20
56.70595749503147
 30
0.0
  0
VERTEX
  5
D3C3
  8
0
 10
106.96878490841191
 20
56.087077545053759
 30
0.0
  0
SEQEND
  5
D3C4
  8
0
  0
POLYLINE
  5
D10C
  8
0
 66
     1
 10
0.0
 20
0.0
 30
0.0
  0
VERTEX
  5
D3C5
  8
0
 10
106.96878490841191
 20
54.587077545053752
 30
0.0
  0
VERTEX
  5
D3C6
  8
0
 10
105.3029021644211
 20
55.205957495047087
 30
0.0
  0
VERTEX
  5
D3C7
  8
0
 10
101.69484263801441
 20
56.544984238639799
 30
0.0
  0
VERTEX
  5
D3C8
  8
0
 10
97.665220516262991
 20
58.038772557504799
 30
0.0
  0
VERTEX
  5
D3C9
  8
0
 10
95.468784908411976
 20
58.852425947748642
 30
0.0
  0
SEQEND
  5
D3CA
  8
0
  0
LINE
  5
D10D
  8
0
 10
95.468784908409816
 20
28.653088206665672
 30
0.0
 11
95.468784908409816
 21
30.15308820666565
 31
0.0
  0
POLYLINE
  5
D10E
  8
0
 66
     1
 10
0.0
 20
0.0
 30
0.0
  0
VERTEX
  5
D3CB
  8
0
 10
95.468784908411976
 20
30.15308820666565
 30
0.0
  0
VERTEX
  5
D3CC
  8
0
 10
97.665220516327963
 20
30.966741596933598
 30
0.0
  0
VERTEX
  5
D3CD
  8
0
 10
101.6948426381078
 20
32.460529915809097
 30
0.0
  0
VERTEX
  5
D3CE
  8
0
 10
105.3029021644615
 20
33.799556659382162
 30
0.0
  0
VERTEX
  5
D3CF
  8
0
 10
106.96878490841191
 20
34.418436609360541
 30
0.0
  0
SEQEND
  5
D3D0
  8
0
  0
POLYLINE
  5
D10F
  8
0
 66
     1
 10
0.0
 20
0.0
 30
0.0
  0
VERTEX
  5
D3D1
  8
0
 10
106.96878490841191
 20
32.918436609360541
 30
0.0
  0
VERTEX
  5
D3D2
  8
0
 10
105.3029021645018
 20
32.299556659397112
 30
0.0
  0
VERTEX
  5
D3D3
  8
0
 10
101.69484263820171
 20
30.960529915843949
 30
0.0
  0
VERTEX
  5
D3D4
  8
0
 10
97.665220516393788
 20
29.466741596957998
 30
0.0
  0
VERTEX
  5
D3D5
  8
0
 10
95.468784908411976
 20
28.65308820666565
 30
0.0
  0
SEQEND
  5
D3D6
  8
0
  0
LINE
  5
D111
  8
0
 10
95.468784908410896
 20
43.002757077207143
 30
0.0
 11
95.468784908410896
 21
46.002757077207143
 31
0.0
  0
LINE
  5
D115
  8
0
 10
106.96878490841191
 20
54.587077545053752
 30
0.0
 11
94.468784908411976
 21
54.587077545053752
 31
0.0
  0
LINE
  5
D116
  8
0
 10
106.96878490841191
 20
56.087077545053759
 30
0.0
 11
106.96878490841191
 21
54.587077545053752
 31
0.0
  0
LINE
  5
D117
  8
0
 10
106.96878490841191
 20
34.418436609360541
 30
0.0
 11
106.96878490841191
 21
32.918436609360541
 31
0.0
  0
LINE
  5
D118
  8
0
 10
94.468784908411976
 20
34.418436609360541
 30
0.0
 11
106.96878490841191
 21
34.418436609360541
 31
0.0
  0
LINE
  5
D11A
  8
0
 10
106.96878490841191
 20
46.002757077207143
 30
0.0
 11
106.96878490841191
 21
43.002757077207143
 31
0.0
  0
LINE
  5
D11C
  8
0
 10
94.468784908411976
 20
39.546597344285878
 30
0.0
 11
124.468784908412
 21
39.546597344285878
 31
0.0
  0
LINE
  5
D11D
  8
0
 10
94.468784908411976
 20
37.083997295802448
 30
0.0
 11
124.468784908412
 21
37.083997295802448
 31
0.0
  0
LINE
  5
D11E
  8
0
 10
104.4755667579664
 20
31.99236140001133
 30
0.0
 11
124.468784908412
 21
31.99236140001133
 31
0.0
  0
LINE
  5
D123
  8
0
 10
94.468784908411976
 20
34.48592108444916
 30
0.0
 11
124.468784908412
 21
34.48592108444916
 31
0.0
  0
LINE
  5
D125
  8
0
 10
124.468784908412
 20
49.4589168101284
 30
0.0
 11
94.468784908411976
 21
49.4589168101284
 31
0.0
  0
LINE
  5
D126
  8
0
 10
94.468784908411976
 20
54.519593069965133
 30
0.0
 11
124.468784908412
 21
54.519593069965133
 31
0.0
  0
LINE
  5
D127
  8
0
 10
94.468784908411976
 20
51.921516858611831
 30
0.0
 11
124.468784908412
 21
51.921516858611831
 31
0.0
  0
LINE
  5
D129
  8
0
 10
124.468784908412
 20
57.013152754402967
 30
0.0
 11
104.4755667579655
 21
57.013152754402967
 31
0.0
  0
LINE
  5
D12A
  8
0
 10
124.468784908412
 20
27.00275707720715
 30
0.0
 11
124.468784908412
 21
62.00275707720715
 31
0.0
  0
LINE
  5
D136
  8
1
 10
81.468784908411976
 20
44.50275707720715
 30
0.0
 11
129.46878490841189
 21
44.502757077207129
 31
0.0
  0
CIRCLE
  5
D148
  8
0
 10
40.291403715780682
 20
44.50275707720715
 30
0.0
 40
19.0
  0
CIRCLE
  5
D181
  8
0
 10
40.291403715780682
 20
44.50275707720715
 30
0.0
 40
5.0529999999999902
  0
LINE
  5
D185
  8
1
 10
16.291403715780689
 20
44.50275707720715
 30
0.0
 11
64.291403715780689
 21
44.50275707720715
 31
0.0
  0
LINE
  5
D186
  8
1
 10
40.291403715780682
 20
20.50275707720715
 30
0.0
 11
40.291403715780682
 21
68.50275707720715
 31
0.0
  0
CIRCLE
  5
D1B3
  8
3
 10
40.291403715780682
 20
44.50275707720715
 30
0.0
 40
6.0
  0
LINE
  5
D26C
  8
2
 10
87.415784908411965
 20
49.555757077207147
 30
0.0
 11
86.468784908411976
 21
50.502757077207143
 31
0.0
  0
LINE
  5
D26D
  8
2
 10
86.468784908411976
 20
38.50275707720715
 30
0.0
 11
87.415784908411965
 21
39.449757077207153
 31
0.0
  0
LINE
  5
D26E
  8
2
 10
95.521784908411973
 20
49.555757077207147
 30
0.0
 11
87.415784908411965
 21
49.55575707720714
 31
0.0
  0
LINE
  5
D26F
  8
2
 10
87.415784908411965
 20
39.449757077207153
 30
0.0
 11
95.521784908411973
 21
39.449757077207153
 31
0.0
  0
LINE
  5
D270
  8
2
 10
96.468784908411976
 20
50.502757077207143
 30
0.0
 11
95.521784908411973
 21
49.555757077207147
 31
0.0
  0
LINE
  5
D271
  8
2
 10
95.521784908411973
 20
39.449757077207153
 30
0.0
 11
96.468784908411976
 21
38.50275707720715
 31
0.0
  0
LINE
  5
D278
  8
0
  6
CONTINUOUS
 62
     7
 10
94.468784908411976
 20
43.002757077207143
 30
0.0
 11
95.468784908411919
 21
43.002757077207143
 31
0.0
  0
LINE
  5
D279
  8
0
  6
CONTINUOUS
 62
     7
 10
94.468784908411976
 20
46.002757077207143
 30
0.0
 11
95.468784908411976
 21
46.002757077207143
 31
0.0
  0
LINE
  5
D28B
  8
0
  6
CONTINUOUS
 62
     7
 10
95.468784908410896
 20
43.002757077207143
 30
0.0
 11
95.468784908410896
 21
46.002757077207143
 31
0.0
  0
LINE
  5
D2A8
  8
2
 10
87.415784908411965
 20
49.555757077207147
 30
0.0
 11
87.415784908411965
 21
39.449757077207153
 31
0.0
  0
LINE
  5
D2A9
  8
2
 10
95.521784908411973
 20
49.555757077207147
 30
0.0
 11
95.521784908411973
 21
39.449757077207153
 31
0.0
  0
LINE
  5
D2AC
  8
2
 10
86.46878490841199
 20
50.502757077207143
 30
0.0
 11
96.468784908411976
 21
50.502757077207143
 31
0.0
  0
LINE
  5
D2AD
  8
2
 10
86.468784908411976
 20
38.502757077207143
 30
0.0
 11
96.468784908411976
 21
38.50275707720715
 31
0.0
  0
LINE
  5
D2C0
  8
2
 10
96.468784908411976
 20
50.502757077207143
 30
0.0
 11
96.468784908411976
 21
38.50275707720715
 31
0.0
  0
TEXT
  5
D369
  8
0
 62
     3
 10
0.0
 20
0.0
 30
0.0
 40
10.0
  1
NDT38X1.5-M12
  7
STANDARD1
  0
ENDSEC
  0
EOF
