  0
SECTION
  2
HEADER
  9
$ACADVER
  1
AC1009
  9
$INSBASE
 10
0.0
 20
0.0
 30
0.0
  9
$EXTMIN
 10
0.0
 20
-2.960436562073669
 30
0.0
  9
$EXTMAX
 10
151.1200368143204
 20
67.596484321385844
 30
0.0
  9
$LIMMIN
 10
0.0
 20
0.0
  9
$LIMMAX
 10
375.0
 20
270.0
  9
$ORTHOMODE
 70
     1
  9
$REGENMODE
 70
     1
  9
$FILLMODE
 70
     1
  9
$QTEXTMODE
 70
     0
  9
$MIRRTEXT
 70
     0
  9
$DRAGMODE
 70
     2
  9
$LTSCALE
 40
6.0
  9
$OSMODE
 70
  3071
  9
$ATTMODE
 70
     1
  9
$TEXTSIZE
 40
0.2
  9
$TRACEWID
 40
0.05
  9
$TEXTSTYLE
  7
STANDARD
  9
$CLAYER
  8
0
  9
$CELTYPE
  6
BYLAYER
  9
$CECOLOR
 62
   256
  9
$DIMSCALE
 40
1.0
  9
$DIMASZ
 40
3.0
  9
$DIMEXO
 40
1.0
  9
$DIMDLI
 40
6.0
  9
$DIMRND
 40
0.0
  9
$DIMDLE
 40
0.0
  9
$DIMEXE
 40
1.0
  9
$DIMTP
 40
495.0
  9
$DIMTM
 40
0.0
  9
$DIMTXT
 40
3.0
  9
$DIMCEN
 40
0.0
  9
$DIMTSZ
 40
0.0
  9
$DIMTOL
 70
     0
  9
$DIMLIM
 70
     0
  9
$DIMTIH
 70
     0
  9
$DIMTOH
 70
     0
  9
$DIMSE1
 70
     0
  9
$DIMSE2
 70
     0
  9
$DIMTAD
 70
     1
  9
$DIMZIN
 70
     0
  9
$DIMBLK
  1

  9
$DIMASO
 70
     0
  9
$DIMSHO
 70
     0
  9
$DIMPOST
  1

  9
$DIMAPOST
  1

  9
$DIMALT
 70
     0
  9
$DIMALTD
 70
     2
  9
$DIMALTF
 40
25.399999999999999
  9
$DIMLFAC
 40
1.0
  9
$DIMTOFL
 70
     1
  9
$DIMTVP
 40
0.0
  9
$DIMTIX
 70
     1
  9
$DIMSOXD
 70
     0
  9
$DIMSAH
 70
     0
  9
$DIMBLK1
  1

  9
$DIMBLK2
  1

  9
$DIMSTYLE
  2
STANDARD
  9
$DIMCLRD
 70
     0
  9
$DIMCLRE
 70
     0
  9
$DIMCLRT
 70
     4
  9
$DIMTFAC
 40
1.0
  9
$DIMGAP
 40
1.0
  9
$LUNITS
 70
     2
  9
$LUPREC
 70
     4
  9
$SKETCHINC
 40
0.1
  9
$FILLETRAD
 40
2.0
  9
$AUNITS
 70
     0
  9
$AUPREC
 70
     0
  9
$MENU
  1
C:\R13\WIN\SUPPORT\ACAD-I
  9
$ELEVATION
 40
0.0
  9
$PELEVATION
 40
0.0
  9
$THICKNESS
 40
0.0
  9
$LIMCHECK
 70
     0
  9
$BLIPMODE
 70
     0
  9
$CHAMFERA
 40
0.0
  9
$CHAMFERB
 40
0.0
  9
$SKPOLY
 70
     0
  9
$TDCREATE
 40
2451963.5438110419
  9
$TDUPDATE
 40
2456597.6879654629
  9
$TDINDWG
 40
0.039874838
  9
$TDUSRTIMER
 40
0.039874838
  9
$USRTIMER
 70
     1
  9
$ANGBASE
 50
0.0
  9
$ANGDIR
 70
     0
  9
$PDMODE
 70
     0
  9
$PDSIZE
 40
0.0
  9
$PLINEWID
 40
0.0
  9
$COORDS
 70
     1
  9
$SPLFRAME
 70
     0
  9
$SPLINETYPE
 70
     6
  9
$SPLINESEGS
 70
     8
  9
$ATTDIA
 70
     0
  9
$ATTREQ
 70
     1
  9
$HANDLING
 70
     1
  9
$HANDSEED
  5
D67C
  9
$SURFTAB1
 70
     6
  9
$SURFTAB2
 70
     6
  9
$SURFTYPE
 70
     6
  9
$SURFU
 70
     6
  9
$SURFV
 70
     6
  9
$UCSNAME
  2

  9
$UCSORG
 10
0.0
 20
0.0
 30
0.0
  9
$UCSXDIR
 10
1.0
 20
0.0
 30
0.0
  9
$UCSYDIR
 10
0.0
 20
1.0
 30
0.0
  9
$PUCSNAME
  2

  9
$PUCSORG
 10
0.0
 20
0.0
 30
0.0
  9
$PUCSXDIR
 10
1.0
 20
0.0
 30
0.0
  9
$PUCSYDIR
 10
0.0
 20
1.0
 30
0.0
  9
$USERI1
 70
     4
  9
$USERI2
 70
     1
  9
$USERI3
 70
     0
  9
$USERI4
 70
     0
  9
$USERI5
 70
     0
  9
$USERR1
 40
1.0
  9
$USERR2
 40
3.0
  9
$USERR3
 40
3.0
  9
$USERR4
 40
3.0
  9
$USERR5
 40
10.0
  9
$WORLDVIEW
 70
     1
  9
$SHADEDGE
 70
     3
  9
$SHADEDIF
 70
    70
  9
$TILEMODE
 70
     1
  9
$MAXACTVP
 70
    16
  9
$PLIMCHECK
 70
     0
  9
$PEXTMIN
 10
1.0000000000000000E+020
 20
1.0000000000000000E+020
 30
1.0000000000000000E+020
  9
$PEXTMAX
 10
-1.0000000000000000E+020
 20
-1.0000000000000000E+020
 30
-1.0000000000000000E+020
  9
$PLIMMIN
 10
0.0
 20
0.0
  9
$PLIMMAX
 10
12.0
 20
9.0
  9
$UNITMODE
 70
     0
  9
$VISRETAIN
 70
     0
  9
$PLINEGEN
 70
     0
  9
$PSLTSCALE
 70
     0
  0
ENDSEC
  0
SECTION
  2
TABLES
  0
TABLE
  2
VPORT
 70
     1
  0
VPORT
  2
*ACTIVE
 70
     0
 10
0.0
 20
0.0
 11
1.0
 21
1.0
 12
187.49427839065231
 22
134.10366293909439
 13
0.0
 23
0.0
 14
10.0
 24
10.0
 15
10.0
 25
10.0
 16
0.0
 26
0.0
 36
1.0
 17
0.0
 27
0.0
 37
0.0
 40
277.29405978699532
 41
2.304913294797688
 42
50.0
 43
0.0
 44
0.0
 50
0.0
 51
0.0
 71
     0
 72
   100
 73
     1
 74
     0
 75
     0
 76
     0
 77
     0
 78
     0
  0
ENDTAB
  0
TABLE
  2
LTYPE
 70
     4
  0
LTYPE
  2
CONTINUOUS
 70
     0
  3
Solid Line
 72
    65
 73
     0
 40
0.0
  0
LTYPE
  2
CENTER
 70
     0
  3
____ _ ____ _ ____ _ ____ _ ____ _ ____ _ ____
 72
    65
 73
     4
 40
2.0
 49
1.25
 49
-0.25
 49
0.25
 49
-0.25
  0
LTYPE
  2
HIDDEN
 70
     0
  3
_ _ _ _ _ _ _ _ _ _ _ _ _ _ _ _ _ _ _ _ _ _ _
 72
    65
 73
     2
 40
0.375
 49
0.25
 49
-0.125
  0
LTYPE
  2
PHANTOM2
 70
     0
  3
___ _ _ ___ _ _ ___ _ _ ___ _ _
 72
    65
 73
     6
 40
1.25
 49
0.625
 49
-0.125
 49
0.125
 49
-0.125
 49
0.125
 49
-0.125
  0
ENDTAB
  0
TABLE
  2
LAYER
 70
     4
  0
LAYER
  2
0
 70
     0
 62
     7
  6
CONTINUOUS
  0
LAYER
  2
1
 70
     0
 62
     1
  6
CENTER
  0
LAYER
  2
3
 70
     0
 62
     3
  6
CONTINUOUS
  0
LAYER
  2
2
 70
     0
 62
     2
  6
HIDDEN
  0
ENDTAB
  0
TABLE
  2
STYLE
 70
     2
  0
STYLE
  2
STANDARD
 70
     0
 40
0.0
 41
1.0
 50
0.0
 71
     0
 42
0.2
  3
SIMPLEX
  4
BIGFONT
  0
STYLE
  2
STANDARD1
 70
     0
 40
0.0
 41
1.0
 50
0.0
 71
     0
 42
3.0
  3
txt
  4

  0
ENDTAB
  0
TABLE
  2
VIEW
 70
     0
  0
ENDTAB
  0
TABLE
  2
UCS
 70
     0
  0
ENDTAB
  0
TABLE
  2
APPID
 70
    28
  0
APPID
  2
ACAD
 70
     0
  0
APPID
  2
GENIUS_GENOREF_13
 70
     0
  0
APPID
  2
GENIUS_GENOENT_13
 70
     0
  0
APPID
  2
GENIUS_GENBH_13
 70
     0
  0
APPID
  2
GENIUS_GENOBJ_13
 70
     0
  0
APPID
  2
GENIUS_GENODEF_13
 70
     0
  0
APPID
  2
GENIUS_GENOLIS_13
 70
     0
  0
APPID
  2
GENIUS_GENOBJ-NBEHI-BHF_13
 70
     0
  0
APPID
  2
GENIUS_GENOBJ-NBEHI-BHB_13
 70
     0
  0
APPID
  2
GENIUS_GENOBJ-F-PART_13
 70
     0
  0
APPID
  2
GENIUS_GEFSTDP_13
 70
     0
  0
APPID
  2
GENIUS_GENOBJ-N-RSSYM_13
 70
     0
  0
APPID
  2
GENIUS_GENSYMENT_13
 70
     0
  0
APPID
  2
GENIUS_GENOBJ-N-TIT_13
 70
     0
  0
APPID
  2
GENIUS_GENTITLE_13
 70
     0
  0
APPID
  2
GENIUS_GENZVEED_13
 70
     0
  0
APPID
  2
GENIUS_GENOBJ-N-LEADER_13
 70
     0
  0
APPID
  2
GENIUS_GENOBJ-N-FIL_13
 70
     0
  0
APPID
  2
GENIUS_GENOBJ-N-SEC_13
 70
     0
  0
APPID
  2
GENIUS_GENOBJ-N-CRS_13
 70
     0
  0
APPID
  2
GENIUS_GENOBJ-N-ZOO_13
 70
     0
  0
APPID
  2
GENIUS_GENZOO_13
 70
     0
  0
APPID
  2
GENIUS_GENOBJ-F-TOL_13
 70
     0
  0
APPID
  2
GENIUS_GENFIL_13
 70
     0
  0
APPID
  2
GENIUS_GENOBJ-N-CHA_13
 70
     0
  0
APPID
  2
_CALL_MAC$
 70
     0
  0
APPID
  2
ACAD_MLEADERVER
 70
     0
  0
APPID
  2
ACAD_NAV_VCDISPLAY
 70
     0
  0
ENDTAB
  0
TABLE
  2
DIMSTYLE
 70
     1
  0
DIMSTYLE
  2
STANDARD
 70
     0
  3

  4

  5

  6

  7

 40
1.0
 41
0.18
 42
0.0625
 43
0.38
 44
0.18
 45
0.0
 46
0.0
 47
0.0
 48
0.0
140
0.18
141
0.09
142
0.0
143
25.399999999999999
144
1.0
145
0.0
146
1.0
147
0.09
 71
     0
 72
     0
 73
     1
 74
     1
 75
     0
 76
     0
 77
     0
 78
     0
170
     0
171
     2
172
     0
173
     0
174
     0
175
     0
176
     0
177
     0
178
     0
  0
ENDTAB
  0
ENDSEC
  0
SECTION
  2
BLOCKS
  0
BLOCK
  8
0
  2
$MODEL_SPACE
 70
     0
 10
0.0
 20
0.0
 30
0.0
  3
$MODEL_SPACE
  1

  0
ENDBLK
  5
CF6E
  8
0
  0
BLOCK
 67
     1
  8
0
  2
$PAPER_SPACE
 70
     0
 10
0.0
 20
0.0
 30
0.0
  3
$PAPER_SPACE
  1

  0
ENDBLK
  5
CF6C
 67
     1
  8
0
  0
ENDSEC
  0
SECTION
  2
ENTITIES
  0
LINE
  5
D356
  8
1
 10
44.001258105012433
 20
19.596484321385841
 30
0.0
 11
44.001258105012433
 21
67.596484321385844
 31
0.0
  0
LINE
  5
D357
  8
1
 10
20.001258105012429
 20
43.596484321385837
 30
0.0
 11
68.001258105012425
 21
43.596484321385837
 31
0.0
  0
CIRCLE
  5
D394
  8
0
 10
44.001258105012433
 20
43.596484321385837
 30
0.0
 40
19.0
  0
LINE
  5
D3A2
  8
0
 10
116.1200368143204
 20
62.596484321385837
 30
0.0
 11
108.1200368143204
 21
62.596484321385837
 31
0.0
  0
LINE
  5
D3A3
  8
0
 10
108.1200368143204
 20
24.596484321385841
 30
0.0
 11
116.1200368143204
 21
24.596484321385841
 31
0.0
  0
LINE
  5
D3A4
  8
0
 10
116.1200368143204
 20
26.596484321385859
 30
0.0
 11
146.1200368143204
 21
26.596484321385859
 31
0.0
  0
LINE
  5
D3A5
  8
0
 10
146.1200368143204
 20
60.596484321385873
 30
0.0
 11
116.1200368143204
 21
60.596484321385873
 31
0.0
  0
LINE
  5
D3B2
  8
0
 10
108.1200368143204
 20
24.596484321385841
 30
0.0
 11
108.1200368143204
 21
62.596484321385837
 31
0.0
  0
LINE
  5
D3B3
  8
0
 10
116.1200368143204
 20
24.596484321385841
 30
0.0
 11
116.1200368143204
 21
62.596484321385837
 31
0.0
  0
LINE
  5
D3B4
  8
0
 10
116.1200368143204
 20
42.09648432138583
 30
0.0
 11
117.1200368143203
 21
42.09648432138583
 31
0.0
  0
LINE
  5
D3B5
  8
0
 10
116.1200368143204
 20
45.096484321385837
 30
0.0
 11
117.1200368143204
 21
45.096484321385837
 31
0.0
  0
LINE
  5
D3B6
  8
0
 10
116.1200368143204
 20
28.18147494532338
 30
0.0
 11
117.1200368143204
 21
28.18147494532338
 31
0.0
  0
LINE
  5
D3B7
  8
0
 10
116.1200368143204
 20
29.681474945323369
 30
0.0
 11
117.1200368143204
 21
29.681474945323369
 31
0.0
  0
LINE
  5
D3B8
  8
0
 10
116.1200368143204
 20
57.511493697448273
 30
0.0
 11
117.1200368143205
 21
57.511493697448273
 31
0.0
  0
LINE
  5
D3B9
  8
0
 10
116.1200368143204
 20
59.011493697448302
 30
0.0
 11
117.1200368143204
 21
59.011493697448302
 31
0.0
  0
LINE
  5
D3C0
  8
0
 10
117.1200368143182
 20
57.511493697448273
 30
0.0
 11
117.1200368143182
 21
59.011493697448302
 31
0.0
  0
POLYLINE
  5
D3C1
  8
0
 66
     1
 10
0.0
 20
0.0
 30
0.0
  0
VERTEX
  5
D620
  8
0
 10
117.1200368143204
 20
59.011493697448302
 30
0.0
  0
VERTEX
  5
D621
  8
0
 10
119.2906653006026
 20
58.28929663939391
 30
0.0
  0
VERTEX
  5
D622
  8
0
 10
123.3043780756377
 20
56.952988818007611
 30
0.0
  0
VERTEX
  5
D623
  8
0
 10
126.9332237794393
 20
55.743534552848637
 30
0.0
  0
VERTEX
  5
D624
  8
0
 10
128.6200368143204
 20
55.180804789232447
 30
0.0
  0
SEQEND
  5
D625
  8
0
  0
POLYLINE
  5
D3C2
  8
0
 66
     1
 10
0.0
 20
0.0
 30
0.0
  0
VERTEX
  5
D626
  8
0
 10
128.6200368143204
 20
53.680804789232447
 30
0.0
  0
VERTEX
  5
D627
  8
0
 10
126.9332237794077
 20
54.243534552859131
 30
0.0
  0
VERTEX
  5
D628
  8
0
 10
123.30437807554981
 20
55.45298881803685
 30
0.0
  0
VERTEX
  5
D629
  8
0
 10
119.2906653005344
 20
56.789296639416619
 30
0.0
  0
VERTEX
  5
D62A
  8
0
 10
117.1200368143204
 20
57.511493697448302
 30
0.0
  0
SEQEND
  5
D62B
  8
0
  0
LINE
  5
D3C3
  8
0
 10
117.1200368143205
 20
28.18147494532338
 30
0.0
 11
117.1200368143205
 21
29.681474945323369
 31
0.0
  0
POLYLINE
  5
D3C4
  8
0
 66
     1
 10
0.0
 20
0.0
 30
0.0
  0
VERTEX
  5
D62C
  8
0
 10
117.1200368143204
 20
29.681474945323369
 30
0.0
  0
VERTEX
  5
D62D
  8
0
 10
119.29066530047849
 20
30.40367200333645
 30
0.0
  0
VERTEX
  5
D62E
  8
0
 10
123.3043780754649
 20
31.739979824706541
 30
0.0
  0
VERTEX
  5
D62F
  8
0
 10
126.93322377936821
 20
32.94943408989937
 30
0.0
  0
VERTEX
  5
D630
  8
0
 10
128.6200368143204
 20
33.512163853539242
 30
0.0
  0
SEQEND
  5
D631
  8
0
  0
POLYLINE
  5
D3C5
  8
0
 66
     1
 10
0.0
 20
0.0
 30
0.0
  0
VERTEX
  5
D632
  8
0
 10
128.6200368143204
 20
32.012163853539228
 30
0.0
  0
VERTEX
  5
D633
  8
0
 10
126.93322377973131
 20
31.44943409002034
 30
0.0
  0
VERTEX
  5
D634
  8
0
 10
123.30437807626819
 20
30.23997982497411
 30
0.0
  0
VERTEX
  5
D635
  8
0
 10
119.2906653010191
 20
28.903672003516508
 30
0.0
  0
VERTEX
  5
D636
  8
0
 10
117.1200368143204
 20
28.18147494532338
 30
0.0
  0
SEQEND
  5
D637
  8
0
  0
POLYLINE
  5
D3C6
  8
0
 66
     1
 10
0.0
 20
0.0
 30
0.0
  0
VERTEX
  5
D638
  8
0
 10
128.6200368143204
 20
42.096484321385837
 30
0.0
  0
VERTEX
  5
D639
  8
0
 10
126.9332237793933
 20
42.096484321385837
 30
0.0
  0
VERTEX
  5
D63A
  8
0
 10
123.3043780755218
 20
42.096484321385837
 30
0.0
  0
VERTEX
  5
D63B
  8
0
 10
119.2906653005174
 20
42.09648432138583
 30
0.0
  0
VERTEX
  5
D63C
  8
0
 10
117.1200368143204
 20
42.09648432138583
 30
0.0
  0
SEQEND
  5
D63D
  8
0
  0
LINE
  5
D3C7
  8
0
 10
117.1200368143208
 20
42.09648432138583
 30
0.0
 11
117.1200368143208
 21
45.096484321385837
 31
0.0
  0
POLYLINE
  5
D3C8
  8
0
 66
     1
 10
0.0
 20
0.0
 30
0.0
  0
VERTEX
  5
D63E
  8
0
 10
117.1200368143204
 20
45.096484321385837
 30
0.0
  0
VERTEX
  5
D63F
  8
0
 10
119.29066530051919
 20
45.096484321385837
 30
0.0
  0
VERTEX
  5
D640
  8
0
 10
123.3043780755221
 20
45.096484321385837
 30
0.0
  0
VERTEX
  5
D641
  8
0
 10
126.93322377939209
 20
45.096484321385837
 30
0.0
  0
VERTEX
  5
D642
  8
0
 10
128.6200368143204
 20
45.096484321385837
 30
0.0
  0
SEQEND
  5
D643
  8
0
  0
LINE
  5
D3CB
  8
0
 10
128.6200368143204
 20
53.680804789232447
 30
0.0
 11
116.1200368143204
 21
53.680804789232447
 31
0.0
  0
LINE
  5
D3CC
  8
0
 10
128.6200368143204
 20
55.180804789232447
 30
0.0
 11
128.6200368143204
 21
53.680804789232447
 31
0.0
  0
LINE
  5
D3CD
  8
0
 10
128.6200368143204
 20
33.512163853539242
 30
0.0
 11
128.6200368143204
 21
32.012163853539228
 31
0.0
  0
LINE
  5
D3CE
  8
0
 10
116.1200368143204
 20
33.512163853539242
 30
0.0
 11
128.6200368143204
 21
33.512163853539242
 31
0.0
  0
LINE
  5
D3D0
  8
0
 10
128.6200368143204
 20
45.096484321385837
 30
0.0
 11
128.6200368143204
 21
42.096484321385837
 31
0.0
  0
LINE
  5
D3D3
  8
0
 10
116.1200368143204
 20
38.64032458846458
 30
0.0
 11
146.1200368143204
 21
38.64032458846458
 31
0.0
  0
LINE
  5
D3D4
  8
0
 10
116.1200368143204
 20
36.428675316124441
 30
0.0
 11
146.1200368143204
 21
36.428675316124441
 31
0.0
  0
LINE
  5
D3D5
  8
0
 10
125.8507444000021
 20
31.086088644190031
 30
0.0
 11
146.1200368143204
 21
31.086088644190031
 31
0.0
  0
LINE
  5
D3DA
  8
0
 10
116.1200368143204
 20
33.830599104771132
 30
0.0
 11
146.1200368143204
 21
33.830599104771132
 31
0.0
  0
LINE
  5
D3DB
  8
0
 10
146.1200368143204
 20
48.552644054307088
 30
0.0
 11
116.1200368143204
 21
48.552644054307088
 31
0.0
  0
LINE
  5
D3DC
  8
0
 10
116.1200368143204
 20
53.36236953800055
 30
0.0
 11
146.1200368143204
 21
53.36236953800055
 31
0.0
  0
LINE
  5
D3DD
  8
0
 10
116.1200368143204
 20
50.764293326647227
 30
0.0
 11
146.1200368143204
 21
50.764293326647227
 31
0.0
  0
LINE
  5
D3DF
  8
0
 10
146.1200368143204
 20
56.106879998581661
 30
0.0
 11
125.8507443999829
 21
56.106879998581661
 31
0.0
  0
LINE
  5
D3E0
  8
0
 10
146.1200368143204
 20
26.596484321385859
 30
0.0
 11
146.1200368143204
 21
60.596484321385859
 31
0.0
  0
LINE
  5
D3EB
  8
1
 10
103.1200368143204
 20
43.596484321385859
 30
0.0
 11
151.1200368143204
 21
43.596484321385837
 31
0.0
  0
LINE
  5
D4F6
  8
2
 10
108.9320368143204
 20
47.78448432138584
 30
0.0
 11
108.1200368143204
 21
48.596484321385837
 31
0.0
  0
LINE
  5
D4F7
  8
2
 10
108.1200368143204
 20
38.596484321385837
 30
0.0
 11
108.9320368143204
 21
39.408484321385842
 31
0.0
  0
LINE
  5
D4F8
  8
2
 10
117.3080368143204
 20
47.78448432138584
 30
0.0
 11
108.9320368143204
 21
47.784484321385811
 31
0.0
  0
LINE
  5
D4F9
  8
2
 10
108.9320368143203
 20
39.408484321385828
 30
0.0
 11
117.3080368143204
 21
39.408484321385842
 31
0.0
  0
LINE
  5
D4FA
  8
2
 10
118.1200368143204
 20
48.596484321385837
 30
0.0
 11
117.3080368143204
 21
47.78448432138584
 31
0.0
  0
LINE
  5
D4FB
  8
2
 10
117.3080368143204
 20
39.408484321385842
 30
0.0
 11
118.1200368143204
 21
38.596484321385837
 31
0.0
  0
LINE
  5
D519
  8
2
 10
108.9320368143204
 20
47.78448432138584
 30
0.0
 11
108.9320368143204
 21
39.408484321385842
 31
0.0
  0
LINE
  5
D51A
  8
2
 10
117.3080368143204
 20
47.78448432138584
 30
0.0
 11
117.3080368143204
 21
39.408484321385842
 31
0.0
  0
LINE
  5
D51B
  8
2
 10
108.1200368143205
 20
48.596484321385837
 30
0.0
 11
118.1200368143204
 21
48.596484321385837
 31
0.0
  0
LINE
  5
D51C
  8
2
 10
108.1200368143205
 20
38.596484321385837
 30
0.0
 11
118.1200368143204
 21
38.596484321385837
 31
0.0
  0
CIRCLE
  5
D51F
  8
0
 10
44.001258105012433
 20
43.596484321385837
 30
0.0
 40
4.1879999999999988
  0
LINE
  5
D522
  8
2
 10
118.1200368143204
 20
48.596484321385837
 30
0.0
 11
118.1200368143204
 21
38.596484321385837
 31
0.0
  0
CIRCLE
  5
D523
  8
3
 10
44.001258105012433
 20
43.596484321385837
 30
0.0
 40
5.0
  0
TEXT
  5
D5CA
  8
0
 62
     3
 10
0.0
 20
0.0
 30
0.0
 40
10.0
  1
NDT38X2-M10
  7
STANDARD1
  0
ENDSEC
  0
EOF
