  0
SECTION
  2
HEADER
  9
$ACADVER
  1
AC1009
  9
$INSBASE
 10
0.0
 20
0.0
 30
0.0
  9
$EXTMIN
 10
0.0
 20
-1.4802182810368341
 30
0.0
  9
$EXTMAX
 10
242.2441691493411
 20
186.08468105459781
 30
0.0
  9
$LIMMIN
 10
0.0
 20
0.0
  9
$LIMMAX
 10
385.0
 20
270.0
  9
$ORTHOMODE
 70
     1
  9
$REGENMODE
 70
     1
  9
$FILLMODE
 70
     1
  9
$QTEXTMODE
 70
     0
  9
$MIRRTEXT
 70
     0
  9
$DRAGMODE
 70
     2
  9
$LTSCALE
 40
10.0
  9
$OSMODE
 70
  3071
  9
$ATTMODE
 70
     1
  9
$TEXTSIZE
 40
4.000000000000048
  9
$TRACEWID
 40
0.05
  9
$TEXTSTYLE
  7
STANDARD
  9
$CLAYER
  8
0
  9
$CELTYPE
  6
BYLAYER
  9
$CECOLOR
 62
   256
  9
$DIMSCALE
 40
1.0
  9
$DIMASZ
 40
3.0
  9
$DIMEXO
 40
2.0
  9
$DIMDLI
 40
0.38
  9
$DIMRND
 40
0.0
  9
$DIMDLE
 40
0.0
  9
$DIMEXE
 40
2.0
  9
$DIMTP
 40
0.0
  9
$DIMTM
 40
0.0
  9
$DIMTXT
 40
3.0
  9
$DIMCEN
 40
0.0
  9
$DIMTSZ
 40
0.0
  9
$DIMTOL
 70
     0
  9
$DIMLIM
 70
     0
  9
$DIMTIH
 70
     0
  9
$DIMTOH
 70
     0
  9
$DIMSE1
 70
     0
  9
$DIMSE2
 70
     0
  9
$DIMTAD
 70
     1
  9
$DIMZIN
 70
     0
  9
$DIMBLK
  1

  9
$DIMASO
 70
     1
  9
$DIMSHO
 70
     0
  9
$DIMPOST
  1

  9
$DIMAPOST
  1

  9
$DIMALT
 70
     0
  9
$DIMALTD
 70
     2
  9
$DIMALTF
 40
25.399999999999999
  9
$DIMLFAC
 40
1.0
  9
$DIMTOFL
 70
     1
  9
$DIMTVP
 40
1.6000000000000001
  9
$DIMTIX
 70
     1
  9
$DIMSOXD
 70
     0
  9
$DIMSAH
 70
     0
  9
$DIMBLK1
  1

  9
$DIMBLK2
  1

  9
$DIMSTYLE
  2
STANDARD
  9
$DIMCLRD
 70
     0
  9
$DIMCLRE
 70
     0
  9
$DIMCLRT
 70
     0
  9
$DIMTFAC
 40
1.0
  9
$DIMGAP
 40
1.0
  9
$LUNITS
 70
     2
  9
$LUPREC
 70
     4
  9
$SKETCHINC
 40
0.1
  9
$FILLETRAD
 40
0.0
  9
$AUNITS
 70
     0
  9
$AUPREC
 70
     4
  9
$MENU
  1
E:\r13\win\SUPPORT\ACAD
  9
$ELEVATION
 40
0.0
  9
$PELEVATION
 40
0.0
  9
$THICKNESS
 40
0.0
  9
$LIMCHECK
 70
     0
  9
$BLIPMODE
 70
     0
  9
$CHAMFERA
 40
0.0
  9
$CHAMFERB
 40
0.0
  9
$SKPOLY
 70
     0
  9
$TDCREATE
 40
2450280.598206134
  9
$TDUPDATE
 40
2456597.6880183681
  9
$TDINDWG
 40
0.0353556019
  9
$TDUSRTIMER
 40
0.0353556019
  9
$USRTIMER
 70
     1
  9
$ANGBASE
 50
0.0
  9
$ANGDIR
 70
     0
  9
$PDMODE
 70
     0
  9
$PDSIZE
 40
0.0
  9
$PLINEWID
 40
0.0
  9
$COORDS
 70
     1
  9
$SPLFRAME
 70
     0
  9
$SPLINETYPE
 70
     6
  9
$SPLINESEGS
 70
     8
  9
$ATTDIA
 70
     0
  9
$ATTREQ
 70
     1
  9
$HANDLING
 70
     1
  9
$HANDSEED
  5
34A
  9
$SURFTAB1
 70
     6
  9
$SURFTAB2
 70
     6
  9
$SURFTYPE
 70
     6
  9
$SURFU
 70
     6
  9
$SURFV
 70
     6
  9
$UCSNAME
  2

  9
$UCSORG
 10
0.0
 20
0.0
 30
0.0
  9
$UCSXDIR
 10
1.0
 20
0.0
 30
0.0
  9
$UCSYDIR
 10
0.0
 20
1.0
 30
0.0
  9
$PUCSNAME
  2

  9
$PUCSORG
 10
0.0
 20
0.0
 30
0.0
  9
$PUCSXDIR
 10
1.0
 20
0.0
 30
0.0
  9
$PUCSYDIR
 10
0.0
 20
1.0
 30
0.0
  9
$USERI1
 70
     3
  9
$USERI2
 70
     1
  9
$USERI3
 70
     1
  9
$USERI4
 70
     0
  9
$USERI5
 70
     0
  9
$USERR1
 40
1.0
  9
$USERR2
 40
3.0
  9
$USERR3
 40
3.0
  9
$USERR4
 40
3.0
  9
$USERR5
 40
10.0
  9
$WORLDVIEW
 70
     1
  9
$SHADEDGE
 70
     3
  9
$SHADEDIF
 70
    70
  9
$TILEMODE
 70
     1
  9
$MAXACTVP
 70
    16
  9
$PLIMCHECK
 70
     0
  9
$PEXTMIN
 10
1.0000000000000000E+020
 20
1.0000000000000000E+020
 30
1.0000000000000000E+020
  9
$PEXTMAX
 10
-1.0000000000000000E+020
 20
-1.0000000000000000E+020
 30
-1.0000000000000000E+020
  9
$PLIMMIN
 10
0.0
 20
0.0
  9
$PLIMMAX
 10
12.0
 20
9.0
  9
$UNITMODE
 70
     0
  9
$VISRETAIN
 70
     0
  9
$PLINEGEN
 70
     0
  9
$PSLTSCALE
 70
     0
  0
ENDSEC
  0
SECTION
  2
TABLES
  0
TABLE
  2
VPORT
 70
     1
  0
VPORT
  2
*ACTIVE
 70
     0
 10
0.0
 20
0.0
 11
1.0
 21
1.0
 12
192.49412581440311
 22
134.84202934784381
 13
0.0
 23
0.0
 14
5.0
 24
5.0
 15
10.0
 25
10.0
 16
0.0
 26
0.0
 36
1.0
 17
0.0
 27
0.0
 37
0.0
 40
275.78743625673241
 41
2.304913294797688
 42
50.0
 43
0.0
 44
0.0
 50
0.0
 51
0.0
 71
     0
 72
   500
 73
     1
 74
     0
 75
     0
 76
     0
 77
     0
 78
     2
  0
ENDTAB
  0
TABLE
  2
LTYPE
 70
     3
  0
LTYPE
  2
CONTINUOUS
 70
     0
  3
Solid Line
 72
    65
 73
     0
 40
0.0
  0
LTYPE
  2
CENTER
 70
     0
  3
____ _ ____ _ ____ _ ____ _ ____ _ ____ _ ____
 72
    65
 73
     4
 40
2.0
 49
1.25
 49
-0.25
 49
0.25
 49
-0.25
  0
LTYPE
  2
PHANTOM2
 70
     0
  3
___ _ _ ___ _ _ ___ _ _ ___ _ _
 72
    65
 73
     6
 40
1.25
 49
0.625
 49
-0.125
 49
0.125
 49
-0.125
 49
0.125
 49
-0.125
  0
ENDTAB
  0
TABLE
  2
LAYER
 70
     3
  0
LAYER
  2
0
 70
     0
 62
     7
  6
CONTINUOUS
  0
LAYER
  2
1
 70
     0
 62
     1
  6
CENTER
  0
LAYER
  2
3
 70
     0
 62
     3
  6
CONTINUOUS
  0
ENDTAB
  0
TABLE
  2
STYLE
 70
     2
  0
STYLE
  2
STANDARD
 70
     0
 40
0.0
 41
1.0
 50
0.0
 71
     0
 42
4.000000000000048
  3
SIMPLEX
  4
BIGFONT
  0
STYLE
  2
STANDARD1
 70
     0
 40
0.0
 41
1.0
 50
0.0
 71
     0
 42
3.0
  3
txt
  4

  0
ENDTAB
  0
TABLE
  2
VIEW
 70
     0
  0
ENDTAB
  0
TABLE
  2
UCS
 70
     0
  0
ENDTAB
  0
TABLE
  2
APPID
 70
     3
  0
APPID
  2
ACAD
 70
     0
  0
APPID
  2
ACAD_MLEADERVER
 70
     0
  0
APPID
  2
ACAD_NAV_VCDISPLAY
 70
     0
  0
ENDTAB
  0
TABLE
  2
DIMSTYLE
 70
     1
  0
DIMSTYLE
  2
STANDARD
 70
     0
  3

  4

  5

  6

  7

 40
1.0
 41
0.18
 42
0.0625
 43
0.38
 44
0.18
 45
0.0
 46
0.0
 47
0.0
 48
0.0
140
0.18
141
0.09
142
0.0
143
25.399999999999999
144
1.0
145
0.0
146
1.0
147
0.09
 71
     0
 72
     0
 73
     1
 74
     1
 75
     0
 76
     0
 77
     0
 78
     0
170
     0
171
     2
172
     0
173
     0
174
     0
175
     0
176
     0
177
     0
178
     0
  0
ENDTAB
  0
ENDSEC
  0
SECTION
  2
BLOCKS
  0
BLOCK
  8
0
  2
$MODEL_SPACE
 70
     0
 10
0.0
 20
0.0
 30
0.0
  3
$MODEL_SPACE
  1

  0
ENDBLK
  5
175
  8
0
  0
BLOCK
 67
     1
  8
0
  2
$PAPER_SPACE
 70
     0
 10
0.0
 20
0.0
 30
0.0
  3
$PAPER_SPACE
  1

  0
ENDBLK
  5
173
 67
     1
  8
0
  0
ENDSEC
  0
SECTION
  2
ENTITIES
  0
LINE
  5
1E
  8
1
 10
108.7159913574407
 20
115.8468767928745
 30
0.0
 11
165.7159913574408
 21
115.8468767928745
 31
0.0
  0
LINE
  5
21
  8
0
 10
160.21599135743961
 20
106.3468767928746
 30
0.0
 11
156.71599135744009
 21
106.3468767928746
 31
0.0
  0
LINE
  5
22
  8
0
 10
160.21599135743961
 20
125.3468767928745
 30
0.0
 11
156.71599135744009
 21
125.3468767928746
 31
0.0
  0
LINE
  5
23
  8
1
 10
108.7159913574407
 20
56.246597140733002
 30
0.0
 11
165.7159913574408
 21
56.246597140733002
 31
0.0
  0
LINE
  5
24
  8
0
 10
160.21599135743961
 20
46.746597140733058
 30
0.0
 11
156.71599135744009
 21
46.746597140733002
 31
0.0
  0
LINE
  5
25
  8
0
 10
160.21599135743961
 20
65.746597140732945
 30
0.0
 11
156.71599135744009
 21
65.746597140733044
 31
0.0
  0
LINE
  5
26
  8
0
 10
160.21599135743961
 20
166.08468105459801
 30
0.0
 11
156.71599135744009
 21
166.08468105459781
 31
0.0
  0
LINE
  5
27
  8
0
 10
160.21599135743961
 20
185.08468105459789
 30
0.0
 11
156.71599135744009
 21
185.08468105459789
 31
0.0
  0
LINE
  5
28
  8
1
 10
108.7159913574407
 20
175.58468105459789
 30
0.0
 11
165.7159913574408
 21
175.58468105459789
 31
0.0
  0
LINE
  5
29
  8
0
 10
155.71599135744009
 20
66.746597140732945
 30
0.0
 11
155.71599135744009
 21
45.746597140733122
 31
0.0
  0
LINE
  5
2A
  8
0
 10
156.71599135744009
 20
65.746597140733044
 30
0.0
 11
156.71599135744009
 21
46.746597140733002
 31
0.0
  0
ARC
  5
2B
  8
0
 10
133.1845016548933
 20
52.996597140733229
 30
0.0
 40
9.3871521352487513
 50
339.7438419995828
 51
20.25615800041717
  0
LINE
  5
2C
  8
0
 10
142.71599135744
 20
62.496597140731637
 30
0.0
 11
142.71599135744
 21
49.996597140734373
 31
0.0
  0
LINE
  5
2D
  8
0
 10
135.71599135744
 20
62.746597140732767
 30
0.0
 11
135.71599135744
 21
49.746597140733229
 31
0.0
  0
LINE
  5
2E
  8
0
 10
143.21599135744009
 20
62.746597140733058
 30
0.0
 11
143.21599135744
 21
49.746597140732938
 31
0.0
  0
LINE
  5
2F
  8
0
 10
149.71599135744009
 20
62.746597140733058
 30
0.0
 11
149.71599135744
 21
49.746597140733002
 31
0.0
  0
LINE
  5
30
  8
0
 10
149.71599135744
 20
49.746597140733002
 30
0.0
 11
143.21599135744
 21
49.746597140732938
 31
0.0
  0
LINE
  5
31
  8
0
 10
142.57165379014199
 20
49.746597140733229
 30
0.0
 11
135.71599135744
 21
49.746597140733229
 31
0.0
  0
LINE
  5
32
  8
0
 10
142.71599135744
 20
50.246597140732938
 30
0.0
 11
143.21599135744
 21
49.746597140732938
 31
0.0
  0
LINE
  5
33
  8
0
 10
142.57165379014199
 20
49.746597140733229
 30
0.0
 11
142.71599135744
 21
49.996597140734373
 31
0.0
  0
LINE
  5
34
  8
0
 10
149.71599135744
 20
49.746597140733002
 30
0.0
 11
155.71599135744009
 21
45.746597140736753
 31
0.0
  0
ARC
  5
35
  8
0
 10
155.71599135744009
 20
46.746597140733108
 30
0.0
 40
1.0
 50
270.00000000000091
 51
0.0
  0
LINE
  5
36
  8
0
 10
135.71599135744
 20
61.246597140724163
 30
0.0
 11
119.7159913574398
 21
61.246597140781027
 31
0.0
  0
LINE
  5
37
  8
0
 10
135.71599135744
 20
51.246597140741812
 30
0.0
 11
119.7159913574398
 21
51.246597140684848
 31
0.0
  0
LINE
  5
38
  8
3
 10
119.1744913573997
 20
60.705097140740982
 30
0.0
 11
133.71599135744009
 21
60.705097140740982
 31
0.0
  0
LINE
  5
3A
  8
3
 10
119.1744913573995
 20
51.788097140725142
 30
0.0
 11
133.71599135744009
 21
51.788097140725078
 31
0.0
  0
LINE
  5
42
  8
0
 10
119.71599135744
 20
61.246597140781383
 30
0.0
 11
119.71599135744
 21
51.246597140684571
 31
0.0
  0
LINE
  5
43
  8
0
 10
119.71599135744
 20
61.246597140781383
 30
0.0
 11
118.71599135744
 21
60.246597140781319
 31
0.0
  0
LINE
  5
44
  8
0
 10
118.71599135744
 20
60.246597140781319
 30
0.0
 11
118.71599135744
 21
52.246597140684571
 31
0.0
  0
LINE
  5
45
  8
0
 10
119.71599135744
 20
51.246597140684571
 30
0.0
 11
118.71599135744
 21
52.246597140684571
 31
0.0
  0
LINE
  5
46
  8
0
 10
149.71599135744009
 20
62.746597140733058
 30
0.0
 11
143.21599135744
 21
62.746597140733058
 31
0.0
  0
LINE
  5
47
  8
0
 10
133.71599135744009
 20
61.246597140731268
 30
0.0
 11
133.71599135744
 21
51.2465971407347
 31
0.0
  0
LINE
  5
48
  8
3
 10
133.71599135744009
 20
60.705097140741032
 30
0.0
 11
134.65389686971599
 21
61.246597140727943
 31
0.0
  0
ARC
  5
49
  8
0
 10
133.1845016548933
 20
59.496597140732767
 30
0.0
 40
9.3871521352487513
 50
339.7438419995828
 51
20.25615800041717
  0
LINE
  5
4A
  8
0
 10
141.99109720654079
 20
56.246597140733002
 30
0.0
 11
135.71599135744
 21
56.246597140733002
 31
0.0
  0
LINE
  5
4B
  8
3
 10
133.71599135744009
 20
51.788097140724972
 30
0.0
 11
134.65389686971599
 21
51.246597140738061
 31
0.0
  0
LINE
  5
4C
  8
0
 10
142.57165379014199
 20
62.746597140732767
 30
0.0
 11
135.71599135744
 21
62.746597140732767
 31
0.0
  0
LINE
  5
4D
  8
0
 10
142.71599135744
 20
62.246597140733058
 30
0.0
 11
143.21599135744
 21
62.746597140733058
 31
0.0
  0
LINE
  5
4E
  8
0
 10
142.57165379014199
 20
62.746597140732767
 30
0.0
 11
142.71599135744
 21
62.496597140731637
 31
0.0
  0
LINE
  5
4F
  8
0
 10
149.71599135744009
 20
62.746597140733058
 30
0.0
 11
155.71599135744009
 21
66.746597140725669
 31
0.0
  0
ARC
  5
50
  8
0
 10
155.71599135744009
 20
65.746597140732945
 30
0.0
 40
1.0
 50
0.0
 51
89.999999999999091
  0
CIRCLE
  5
55
  8
0
 10
45.715991357440771
 20
115.8468767928745
 30
0.0
 40
5.0000000003133627
  0
CIRCLE
  5
56
  8
3
 10
45.715991357440771
 20
115.8468767928745
 30
0.0
 40
4.4585000000079162
  0
LINE
  5
57
  8
0
 10
39.215991357441681
 20
112.0941000431423
 30
0.0
 11
45.715991357441673
 21
108.3413232934101
 31
0.0
  0
LINE
  5
58
  8
0
 10
45.715991357440771
 20
123.35243029234
 30
0.0
 11
39.215991357439862
 21
119.5996535426068
 31
0.0
  0
LINE
  5
59
  8
1
 10
30.215991357440661
 20
115.8468767928745
 30
0.0
 11
61.215991357440657
 21
115.8468767928745
 31
0.0
  0
CIRCLE
  5
5A
  8
0
 10
45.715991357440771
 20
115.8468767928745
 30
0.0
 40
10.5
  0
LINE
  5
5B
  8
0
 10
39.215991357439862
 20
119.5996535426068
 30
0.0
 11
39.215991357441681
 21
112.0941000431423
 31
0.0
  0
LINE
  5
5C
  8
0
 10
149.71599135744009
 20
169.08468105459781
 30
0.0
 11
149.71599135744
 21
182.08468105459789
 31
0.0
  0
LINE
  5
5D
  8
0
 10
143.21599135744009
 20
169.08468105459781
 30
0.0
 11
143.21599135744
 21
182.08468105459801
 31
0.0
  0
LINE
  5
5E
  8
0
 10
135.71599135744
 20
169.08468105459809
 30
0.0
 11
135.71599135744
 21
182.0846810545977
 31
0.0
  0
LINE
  5
5F
  8
0
 10
142.71599135744
 20
169.33468105459929
 30
0.0
 11
142.71599135744
 21
181.83468105459659
 31
0.0
  0
ARC
  5
60
  8
0
 10
133.1845016548933
 20
178.8346810545977
 30
0.0
 40
9.3871521352487513
 50
339.7438419995828
 51
20.256158000417141
  0
LINE
  5
61
  8
0
 10
156.71599135744009
 20
166.08468105459781
 30
0.0
 11
156.71599135744009
 21
185.08468105459789
 31
0.0
  0
LINE
  5
62
  8
0
 10
155.71599135744009
 20
165.08468105459801
 30
0.0
 11
155.71599135744009
 21
186.08468105459781
 31
0.0
  0
LINE
  5
66
  8
0
 10
119.71599135744
 20
170.58468105454949
 30
0.0
 11
119.71599135744
 21
180.5846810546463
 31
0.0
  0
LINE
  5
67
  8
0
 10
118.71599135744
 20
171.58468105454961
 30
0.0
 11
118.71599135744
 21
179.5846810546463
 31
0.0
  0
LINE
  5
68
  8
0
 10
133.71599135744009
 20
170.5846810545996
 30
0.0
 11
133.71599135744
 21
180.58468105459619
 31
0.0
  0
CIRCLE
  5
69
  8
0
 10
45.715991357440771
 20
115.8468767928745
 30
0.0
 40
2.5
  0
LINE
  5
6A
  8
0
 10
52.215991357440771
 20
112.0941000431423
 30
0.0
 11
52.215991357440771
 21
119.59965354260861
 31
0.0
  0
LINE
  5
6B
  8
1
 10
45.715991357440771
 20
131.34687679287481
 30
0.0
 11
45.715991357440771
 21
100.3468767928743
 31
0.0
  0
LINE
  5
6C
  8
0
 10
45.715991357441673
 20
108.3413232934101
 30
0.0
 11
52.215991357440771
 21
112.0941000431423
 31
0.0
  0
LINE
  5
6D
  8
0
 10
52.215991357440771
 20
119.59965354260861
 30
0.0
 11
45.715991357440771
 21
123.35243029234
 31
0.0
  0
LINE
  5
6F
  8
3
 10
119.1744913573995
 20
111.38837679286669
 30
0.0
 11
133.71599135744009
 21
111.38837679286659
 31
0.0
  0
LINE
  5
70
  8
3
 10
119.1744913573997
 20
120.3053767928825
 30
0.0
 11
133.71599135744009
 21
120.3053767928825
 31
0.0
  0
LINE
  5
71
  8
0
 10
135.71599135744
 20
110.84687679288341
 30
0.0
 11
119.7159913574398
 21
110.84687679282639
 31
0.0
  0
LINE
  5
72
  8
0
 10
135.71599135744
 20
120.8468767928657
 30
0.0
 11
119.7159913574398
 21
120.8468767929226
 31
0.0
  0
LINE
  5
74
  8
0
 10
119.71599135744
 20
120.8468767929229
 30
0.0
 11
119.71599135744
 21
110.84687679282609
 31
0.0
  0
LINE
  5
75
  8
0
 10
118.71599135744
 20
119.8468767929229
 30
0.0
 11
118.71599135744
 21
111.84687679282609
 31
0.0
  0
LINE
  5
78
  8
0
 10
119.71599135744
 20
110.84687679282609
 30
0.0
 11
118.71599135744
 21
111.84687679282609
 31
0.0
  0
LINE
  5
7D
  8
0
 10
119.71599135744
 20
120.8468767929229
 30
0.0
 11
118.71599135744
 21
119.8468767929229
 31
0.0
  0
ARC
  5
7E
  8
0
 10
130.29654800472969
 20
115.8468767928747
 30
0.0
 40
12.41944335271058
 50
342.41204613263187
 51
17.587953867366089
  0
LINE
  5
7F
  8
0
 10
143.21599135744009
 20
122.3468767928746
 30
0.0
 11
143.21599135744
 21
109.3468767928745
 31
0.0
  0
LINE
  5
80
  8
0
 10
156.71599135744009
 20
125.3468767928746
 30
0.0
 11
156.71599135744009
 21
106.3468767928746
 31
0.0
  0
LINE
  5
81
  8
0
 10
155.71599135744009
 20
126.3468767928745
 30
0.0
 11
155.71599135744009
 21
105.3468767928747
 31
0.0
  0
LINE
  5
82
  8
0
 10
149.71599135744009
 20
122.3468767928746
 30
0.0
 11
149.71599135744
 21
109.3468767928746
 31
0.0
  0
LINE
  5
83
  8
0
 10
142.71599135744
 20
122.34687678757599
 30
0.0
 11
142.71599135744
 21
109.3468767981732
 31
0.0
  0
LINE
  5
84
  8
0
 10
135.71599135744
 20
123.3524302924771
 30
0.0
 11
135.71599135744
 21
108.341323293272
 31
0.0
  0
LINE
  5
85
  8
0
 10
133.71599135744009
 20
120.84687679287281
 30
0.0
 11
133.71599135744
 21
110.8468767928763
 31
0.0
  0
LINE
  5
86
  8
0
 10
149.71599135744
 20
109.3468767928746
 30
0.0
 11
143.21599135744
 21
109.3468767928745
 31
0.0
  0
LINE
  5
87
  8
0
 10
142.13543477070081
 20
108.341323293272
 30
0.0
 11
135.71599135745811
 21
108.341323293272
 31
0.0
  0
LINE
  5
88
  8
0
 10
135.71599135744
 20
112.09410004309321
 30
0.0
 11
142.13543477070081
 21
112.09410004309321
 31
0.0
  0
LINE
  5
89
  8
3
 10
133.71599135744009
 20
111.3883767928665
 30
0.0
 11
134.65389686971599
 21
110.8468767928796
 31
0.0
  0
LINE
  5
8A
  8
0
 10
142.71599135744
 20
109.3468767981731
 30
0.0
 11
142.13543477070081
 21
108.341323293272
 31
0.0
  0
LINE
  5
8B
  8
0
 10
142.71599135744
 20
109.8468767928745
 30
0.0
 11
143.21599135744
 21
109.3468767928745
 31
0.0
  0
ARC
  5
8C
  8
0
 10
135.92571312451781
 20
109.3468767981729
 30
0.0
 40
6.7902782329225202
 50
359.99999999997527
 51
23.864925586495559
  0
LINE
  5
8D
  8
0
 10
149.71599135744
 20
109.3468767928746
 30
0.0
 11
155.71599135744009
 21
105.34687679287831
 31
0.0
  0
ARC
  5
8E
  8
0
 10
155.71599135744009
 20
106.3468767928747
 30
0.0
 40
1.0
 50
270.00000000000091
 51
0.0
  0
LINE
  5
8F
  8
0
 10
149.71599135744009
 20
122.3468767928746
 30
0.0
 11
143.21599135744
 21
122.3468767928746
 31
0.0
  0
LINE
  5
90
  8
0
 10
135.71599135744
 20
119.5996535426558
 30
0.0
 11
142.13543477070081
 21
119.5996535426558
 31
0.0
  0
LINE
  5
91
  8
0
 10
142.13543477070081
 20
123.3524302924771
 30
0.0
 11
135.71599135745811
 21
123.3524302924771
 31
0.0
  0
LINE
  5
92
  8
3
 10
133.71599135744009
 20
120.3053767928826
 30
0.0
 11
134.65389686971599
 21
120.84687679286949
 31
0.0
  0
LINE
  5
93
  8
0
 10
142.71599135744
 20
121.8468767928746
 30
0.0
 11
143.21599135744
 21
122.3468767928746
 31
0.0
  0
LINE
  5
94
  8
0
 10
142.71599135744
 20
122.34687678757599
 30
0.0
 11
142.13543477070081
 21
123.35243029247719
 31
0.0
  0
ARC
  5
95
  8
0
 10
135.92571312451781
 20
122.34687678757621
 30
0.0
 40
6.7902782329225202
 50
336.13507441350453
 51
0.0000000000246811
  0
LINE
  5
96
  8
0
 10
149.71599135744009
 20
122.3468767928746
 30
0.0
 11
155.71599135744009
 21
126.34687679286721
 31
0.0
  0
ARC
  5
97
  8
0
 10
155.71599135744009
 20
125.3468767928745
 30
0.0
 40
1.0
 50
0.0
 51
89.999999999999091
  0
LINE
  5
98
  8
3
 10
119.1744913573997
 20
171.12618105458989
 30
0.0
 11
133.71599135744009
 21
171.12618105458989
 31
0.0
  0
LINE
  5
99
  8
0
 10
135.71599135744
 20
170.5846810546067
 30
0.0
 11
119.7159913574398
 21
170.58468105454989
 31
0.0
  0
LINE
  5
9C
  8
0
 10
119.71599135744
 20
170.58468105454949
 30
0.0
 11
118.71599135744
 21
171.58468105454961
 31
0.0
  0
LINE
  5
9D
  8
0
 10
149.71599135744009
 20
169.08468105459781
 30
0.0
 11
143.21599135744
 21
169.08468105459781
 31
0.0
  0
LINE
  5
9E
  8
0
 10
141.99109720654079
 20
175.58468105459789
 30
0.0
 11
135.71599135744
 21
175.58468105459789
 31
0.0
  0
LINE
  5
9F
  8
0
 10
142.57165379014199
 20
169.08468105459809
 30
0.0
 11
135.71599135744
 21
169.08468105459809
 31
0.0
  0
LINE
  5
A0
  8
3
 10
133.71599135744009
 20
171.12618105458989
 30
0.0
 11
134.65389686971599
 21
170.58468105460301
 31
0.0
  0
ARC
  5
A1
  8
0
 10
133.1845016548933
 20
172.33468105459809
 30
0.0
 40
9.3871521352487513
 50
339.7438419995828
 51
20.256158000417141
  0
LINE
  5
A2
  8
0
 10
142.71599135744
 20
169.58468105459789
 30
0.0
 11
143.21599135744
 21
169.08468105459781
 31
0.0
  0
LINE
  5
A3
  8
0
 10
142.57165379014199
 20
169.08468105459809
 30
0.0
 11
142.71599135744
 21
169.33468105459929
 31
0.0
  0
LINE
  5
A4
  8
0
 10
149.71599135744009
 20
169.08468105459781
 30
0.0
 11
155.71599135744009
 21
165.0846810546052
 31
0.0
  0
ARC
  5
A5
  8
0
 10
155.71599135744009
 20
166.08468105459801
 30
0.0
 40
1.0
 50
270.00000000000091
 51
0.0
  0
LINE
  5
A6
  8
3
 10
119.1744913573995
 20
180.04318105460581
 30
0.0
 11
133.71599135744009
 21
180.04318105460581
 31
0.0
  0
LINE
  5
A7
  8
0
 10
135.71599135744
 20
180.58468105458911
 30
0.0
 11
119.7159913574398
 21
180.58468105464601
 31
0.0
  0
LINE
  5
AA
  8
0
 10
119.71599135744
 20
180.5846810546463
 30
0.0
 11
118.71599135744
 21
179.5846810546463
 31
0.0
  0
LINE
  5
AB
  8
0
 10
149.71599135744
 20
182.08468105459789
 30
0.0
 11
143.21599135744
 21
182.08468105459801
 31
0.0
  0
LINE
  5
AC
  8
0
 10
142.57165379014199
 20
182.0846810545977
 30
0.0
 11
135.71599135744
 21
182.0846810545977
 31
0.0
  0
LINE
  5
AD
  8
3
 10
133.71599135744009
 20
180.0431810546059
 30
0.0
 11
134.65389686971599
 21
180.58468105459281
 31
0.0
  0
LINE
  5
AE
  8
0
 10
142.71599135744
 20
181.58468105459801
 30
0.0
 11
143.21599135744
 21
182.08468105459801
 31
0.0
  0
LINE
  5
AF
  8
0
 10
142.57165379014199
 20
182.0846810545977
 30
0.0
 11
142.71599135744
 21
181.83468105459659
 31
0.0
  0
LINE
  5
B0
  8
0
 10
149.71599135744
 20
182.08468105459789
 30
0.0
 11
155.71599135744009
 21
186.08468105459411
 31
0.0
  0
ARC
  5
B1
  8
0
 10
155.71599135744009
 20
185.08468105459781
 30
0.0
 40
1.0
 50
0.0
 51
89.999999999999091
  0
LINE
  5
BF
  8
0
 10
160.71599135743961
 20
51.646597140760321
 30
0.0
 11
160.71599135743961
 21
47.246597140733058
 31
0.0
  0
ARC
  5
C0
  8
0
 10
160.21599135743961
 20
47.246597140733058
 30
0.0
 40
0.5
 50
270.00000000000028
 51
359.99999999999977
  0
LINE
  5
C1
  8
0
 10
160.71599135743961
 20
65.246597140732945
 30
0.0
 11
160.71599135743961
 21
60.846597140727617
 31
0.0
  0
ARC
  5
C2
  8
0
 10
160.7159913574335
 20
56.246597140733229
 30
0.0
 40
0.5999999999997954
 50
89.999999999424602
 51
270.00000000057543
  0
LINE
  5
C3
  8
0
 10
160.71599135743961
 20
55.646597140757017
 30
0.0
 11
160.71599135743961
 21
52.846597140712781
 31
0.0
  0
ARC
  5
C4
  8
0
 10
160.7159913574335
 20
52.246597140736519
 30
0.0
 40
0.5999999999997954
 50
89.999999999424602
 51
270.00000000057543
  0
LINE
  5
C5
  8
0
 10
160.71599135743961
 20
59.646597140738777
 30
0.0
 11
160.71599135743961
 21
56.846597140709491
 31
0.0
  0
ARC
  5
C6
  8
0
 10
160.71599135743949
 20
60.246597140733222
 30
0.0
 40
0.5999999999997954
 50
89.999999999424602
 51
270.00000000057543
  0
ARC
  5
C7
  8
0
 10
160.21599135743961
 20
65.246597140732945
 30
0.0
 40
0.5
 50
359.99999999999977
 51
89.999999999999588
  0
LINE
  5
C8
  8
0
 10
160.71599135743961
 20
176.1846810545739
 30
0.0
 11
160.71599135743961
 21
178.98468105461811
 31
0.0
  0
LINE
  5
C9
  8
0
 10
217.26313545042581
 20
115.2468767928745
 30
0.0
 11
236.22520284825671
 21
115.2468767928745
 31
0.0
  0
LINE
  5
CA
  8
0
 10
217.26313545042581
 20
116.44687679287451
 30
0.0
 11
236.22520284825671
 21
116.4468767928746
 31
0.0
  0
LINE
  5
CB
  8
0
 10
218.43212968841581
 20
111.2468767928745
 30
0.0
 11
235.05620861026671
 21
111.2468767928745
 31
0.0
  0
LINE
  5
CC
  8
0
 10
217.87343073588551
 20
112.4468767928746
 30
0.0
 11
235.61490756279781
 21
112.4468767928746
 31
0.0
  0
LINE
  5
CD
  8
0
 10
217.87343073588551
 20
119.2468767928746
 30
0.0
 11
235.61490756279781
 21
119.2468767928745
 31
0.0
  0
LINE
  5
CE
  8
0
 10
218.43212968841669
 20
120.44687679287451
 30
0.0
 11
235.05620861026591
 21
120.44687679287451
 31
0.0
  0
CIRCLE
  5
CF
  8
0
 10
226.7441691493413
 20
115.8468767928745
 30
0.0
 40
10.5
  0
LINE
  5
D0
  8
1
 10
211.2441691493411
 20
115.8468767928745
 30
0.0
 11
242.2441691493411
 21
115.8468767928745
 31
0.0
  0
CIRCLE
  5
D1
  8
0
 10
226.7441691493413
 20
115.8468767928745
 30
0.0
 40
9.4999999999987494
  0
LINE
  5
D2
  8
0
 10
160.71599135743961
 20
115.2468767928986
 30
0.0
 11
160.71599135743961
 21
112.4468767928543
 31
0.0
  0
LINE
  5
D3
  8
0
 10
160.71599135743961
 20
111.2468767929019
 30
0.0
 11
160.71599135743961
 21
106.8468767928746
 31
0.0
  0
ARC
  5
D4
  8
0
 10
160.21599135743961
 20
106.8468767928746
 30
0.0
 40
0.5
 50
270.00000000000028
 51
359.99999999999977
  0
ARC
  5
D5
  8
0
 10
160.7159913574335
 20
111.84687679287811
 30
0.0
 40
0.5999999999997954
 50
89.999999999424602
 51
270.00000000057543
  0
LINE
  5
D6
  8
0
 10
160.71599135743961
 20
124.8468767928745
 30
0.0
 11
160.71599135743961
 21
120.4468767928692
 31
0.0
  0
LINE
  5
D7
  8
0
 10
160.71599135743961
 20
119.2468767928803
 30
0.0
 11
160.71599135743961
 21
116.4468767928511
 31
0.0
  0
ARC
  5
D8
  8
0
 10
160.7159913574335
 20
115.8468767928748
 30
0.0
 40
0.5999999999997954
 50
89.999999999424602
 51
270.00000000057543
  0
ARC
  5
D9
  8
0
 10
160.71599135743949
 20
119.8468767928748
 30
0.0
 40
0.5999999999997954
 50
89.999999999424602
 51
270.00000000057543
  0
ARC
  5
DA
  8
0
 10
160.21599135743961
 20
124.8468767928745
 30
0.0
 40
0.5
 50
359.99999999999977
 51
89.999999999999588
  0
ARC
  5
DB
  8
0
 10
160.21599135743961
 20
166.58468105459801
 30
0.0
 40
0.5
 50
270.0000000000004
 51
0.0000000000002036
  0
ARC
  5
DC
  8
0
 10
160.71599135743949
 20
171.5846810545977
 30
0.0
 40
0.5999999999997954
 50
89.999999999424602
 51
270.00000000057543
  0
LINE
  5
DD
  8
0
 10
160.71599135743961
 20
166.58468105459801
 30
0.0
 11
160.71599135743961
 21
170.9846810546033
 31
0.0
  0
ARC
  5
DE
  8
0
 10
160.7159913574335
 20
175.5846810545977
 30
0.0
 40
0.5999999999997954
 50
89.999999999424602
 51
270.00000000057543
  0
LINE
  5
DF
  8
0
 10
160.71599135743961
 20
172.18468105459209
 30
0.0
 11
160.71599135743961
 21
174.9846810546214
 31
0.0
  0
LINE
  5
E0
  8
1
 10
226.7441691493413
 20
131.34687679287481
 30
0.0
 11
226.7441691493413
 21
100.3468767928743
 31
0.0
  0
LINE
  5
E1
  8
0
 10
160.71599135743961
 20
180.1846810545706
 30
0.0
 11
160.71599135743961
 21
184.58468105459781
 31
0.0
  0
ARC
  5
E2
  8
0
 10
160.7159913574335
 20
179.5846810545944
 30
0.0
 40
0.5999999999997954
 50
89.999999999424602
 51
270.00000000057543
  0
ARC
  5
E3
  8
0
 10
160.21599135743961
 20
184.58468105459781
 30
0.0
 40
0.5
 50
0.0000000000002036
 51
89.999999999999645
  0
LINE
  5
1D6
  8
0
 10
115.01599135744
 20
178.08468105459801
 30
0.0
 11
114.12786882514609
 21
177.57192327150469
 31
0.0
  0
LINE
  5
1D7
  8
0
 10
115.01599135744
 20
178.08468105459801
 30
0.0
 11
115.01599135744
 21
173.08468105459801
 31
0.0
  0
LINE
  5
1D8
  8
0
 10
114.12786882514609
 20
177.57192327150469
 30
0.0
 11
114.12786882514609
 21
173.59743883769119
 31
0.0
  0
LINE
  5
1DA
  8
0
 10
118.71599135744
 20
178.08468105459801
 30
0.0
 11
115.01599135744
 21
178.08468105459801
 31
0.0
  0
LINE
  5
1DB
  8
0
 10
118.71599135744
 20
173.08468105459801
 30
0.0
 11
115.01599135744
 21
173.08468105459801
 31
0.0
  0
LINE
  5
1DC
  8
0
 10
115.01599135744
 20
173.08468105459801
 30
0.0
 11
114.12786882514609
 21
173.59743883769119
 31
0.0
  0
ARC
  5
1E9
  8
0
 10
118.71599135744
 20
175.58468105459801
 30
0.0
 40
5.0
 50
156.58123504463521
 51
203.4187649553644
  0
ARC
  5
202
  8
0
 10
118.7159913574401
 20
115.8468767928746
 30
0.0
 40
5.0
 50
156.58123504463521
 51
203.4187649553644
  0
LINE
  5
203
  8
0
 10
118.7159913574401
 20
118.3468767928746
 30
0.0
 11
115.01599135744
 21
118.3468767928746
 31
0.0
  0
LINE
  5
204
  8
0
 10
114.12786882514609
 20
117.8341190097814
 30
0.0
 11
114.12786882514609
 21
113.8596345759678
 31
0.0
  0
LINE
  5
205
  8
0
 10
115.01599135744
 20
118.3468767928746
 30
0.0
 11
115.01599135744
 21
113.3468767928746
 31
0.0
  0
LINE
  5
206
  8
0
 10
115.01599135744
 20
118.3468767928746
 30
0.0
 11
114.12786882514609
 21
117.8341190097814
 31
0.0
  0
LINE
  5
207
  8
0
 10
115.01599135744
 20
113.3468767928746
 30
0.0
 11
114.12786882514609
 21
113.8596345759679
 31
0.0
  0
LINE
  5
208
  8
0
 10
118.7159913574401
 20
113.3468767928746
 30
0.0
 11
115.01599135744
 21
113.3468767928746
 31
0.0
  0
LINE
  5
209
  8
0
 10
118.7159913574401
 20
53.746597140733023
 30
0.0
 11
115.01599135744
 21
53.746597140733037
 31
0.0
  0
LINE
  5
20A
  8
0
 10
115.01599135744
 20
53.746597140733037
 30
0.0
 11
114.12786882514609
 21
54.259354923826308
 31
0.0
  0
LINE
  5
20B
  8
0
 10
115.01599135744
 20
58.746597140733023
 30
0.0
 11
114.12786882514609
 21
58.233839357639809
 31
0.0
  0
LINE
  5
20C
  8
0
 10
115.01599135744
 20
58.746597140733023
 30
0.0
 11
115.01599135744
 21
53.746597140733023
 31
0.0
  0
LINE
  5
20D
  8
0
 10
114.12786882514609
 20
58.233839357639809
 30
0.0
 11
114.12786882514609
 21
54.259354923826251
 31
0.0
  0
LINE
  5
20E
  8
0
 10
118.7159913574401
 20
58.746597140733023
 30
0.0
 11
115.01599135744
 21
58.746597140733037
 31
0.0
  0
ARC
  5
20F
  8
0
 10
118.7159913574401
 20
56.246597140733023
 30
0.0
 40
5.0
 50
156.58123504463521
 51
203.4187649553644
  0
CIRCLE
  5
211
  8
0
 10
45.715991357440771
 20
115.8468767928746
 30
0.0
 40
1.9872422169067641
  0
TEXT
  5
2BE
  8
0
 62
     3
 10
0.0
 20
0.0
 30
0.0
 40
5.0
  1
NDX10
  7
STANDARD1
  0
ENDSEC
  0
EOF
