  0
SECTION
  2
HEADER
  9
$ACADVER
  1
AC1009
  9
$INSBASE
 10
0.0
 20
0.0
 30
0.0
  9
$EXTMIN
 10
0.0
 20
-1.4802182810368341
 30
0.0
  9
$EXTMAX
 10
288.26397659748022
 20
214.73974387602831
 30
0.0
  9
$LIMMIN
 10
0.0
 20
0.0
  9
$LIMMAX
 10
385.0
 20
270.0
  9
$ORTHOMODE
 70
     1
  9
$REGENMODE
 70
     1
  9
$FILLMODE
 70
     1
  9
$QTEXTMODE
 70
     0
  9
$MIRRTEXT
 70
     0
  9
$DRAGMODE
 70
     2
  9
$LTSCALE
 40
10.0
  9
$OSMODE
 70
  3071
  9
$ATTMODE
 70
     1
  9
$TEXTSIZE
 40
4.000000000000048
  9
$TRACEWID
 40
0.05
  9
$TEXTSTYLE
  7
STANDARD
  9
$CLAYER
  8
0
  9
$CELTYPE
  6
BYLAYER
  9
$CECOLOR
 62
   256
  9
$DIMSCALE
 40
1.0
  9
$DIMASZ
 40
3.0
  9
$DIMEXO
 40
2.0
  9
$DIMDLI
 40
0.38
  9
$DIMRND
 40
0.0
  9
$DIMDLE
 40
0.0
  9
$DIMEXE
 40
2.0
  9
$DIMTP
 40
0.0
  9
$DIMTM
 40
0.0
  9
$DIMTXT
 40
3.0
  9
$DIMCEN
 40
0.0
  9
$DIMTSZ
 40
0.0
  9
$DIMTOL
 70
     0
  9
$DIMLIM
 70
     0
  9
$DIMTIH
 70
     0
  9
$DIMTOH
 70
     0
  9
$DIMSE1
 70
     0
  9
$DIMSE2
 70
     0
  9
$DIMTAD
 70
     1
  9
$DIMZIN
 70
     0
  9
$DIMBLK
  1

  9
$DIMASO
 70
     1
  9
$DIMSHO
 70
     0
  9
$DIMPOST
  1

  9
$DIMAPOST
  1

  9
$DIMALT
 70
     0
  9
$DIMALTD
 70
     2
  9
$DIMALTF
 40
25.399999999999999
  9
$DIMLFAC
 40
1.0
  9
$DIMTOFL
 70
     1
  9
$DIMTVP
 40
1.6000000000000001
  9
$DIMTIX
 70
     1
  9
$DIMSOXD
 70
     0
  9
$DIMSAH
 70
     0
  9
$DIMBLK1
  1

  9
$DIMBLK2
  1

  9
$DIMSTYLE
  2
STANDARD
  9
$DIMCLRD
 70
     0
  9
$DIMCLRE
 70
     0
  9
$DIMCLRT
 70
     0
  9
$DIMTFAC
 40
1.0
  9
$DIMGAP
 40
1.0
  9
$LUNITS
 70
     2
  9
$LUPREC
 70
     4
  9
$SKETCHINC
 40
0.1
  9
$FILLETRAD
 40
0.0
  9
$AUNITS
 70
     0
  9
$AUPREC
 70
     4
  9
$MENU
  1
E:\r13\win\SUPPORT\ACAD
  9
$ELEVATION
 40
0.0
  9
$PELEVATION
 40
0.0
  9
$THICKNESS
 40
0.0
  9
$LIMCHECK
 70
     0
  9
$BLIPMODE
 70
     0
  9
$CHAMFERA
 40
0.0
  9
$CHAMFERB
 40
0.0
  9
$SKPOLY
 70
     0
  9
$TDCREATE
 40
2450280.598206134
  9
$TDUPDATE
 40
2456597.6881406019
  9
$TDINDWG
 40
0.0362272685
  9
$TDUSRTIMER
 40
0.0362272685
  9
$USRTIMER
 70
     1
  9
$ANGBASE
 50
0.0
  9
$ANGDIR
 70
     0
  9
$PDMODE
 70
     0
  9
$PDSIZE
 40
0.0
  9
$PLINEWID
 40
0.0
  9
$COORDS
 70
     1
  9
$SPLFRAME
 70
     0
  9
$SPLINETYPE
 70
     6
  9
$SPLINESEGS
 70
     8
  9
$ATTDIA
 70
     0
  9
$ATTREQ
 70
     1
  9
$HANDLING
 70
     1
  9
$HANDSEED
  5
567
  9
$SURFTAB1
 70
     6
  9
$SURFTAB2
 70
     6
  9
$SURFTYPE
 70
     6
  9
$SURFU
 70
     6
  9
$SURFV
 70
     6
  9
$UCSNAME
  2

  9
$UCSORG
 10
0.0
 20
0.0
 30
0.0
  9
$UCSXDIR
 10
1.0
 20
0.0
 30
0.0
  9
$UCSYDIR
 10
0.0
 20
1.0
 30
0.0
  9
$PUCSNAME
  2

  9
$PUCSORG
 10
0.0
 20
0.0
 30
0.0
  9
$PUCSXDIR
 10
1.0
 20
0.0
 30
0.0
  9
$PUCSYDIR
 10
0.0
 20
1.0
 30
0.0
  9
$USERI1
 70
     3
  9
$USERI2
 70
     1
  9
$USERI3
 70
     1
  9
$USERI4
 70
     0
  9
$USERI5
 70
     0
  9
$USERR1
 40
1.0
  9
$USERR2
 40
3.0
  9
$USERR3
 40
3.0
  9
$USERR4
 40
3.0
  9
$USERR5
 40
10.0
  9
$WORLDVIEW
 70
     1
  9
$SHADEDGE
 70
     3
  9
$SHADEDIF
 70
    70
  9
$TILEMODE
 70
     1
  9
$MAXACTVP
 70
    16
  9
$PLIMCHECK
 70
     0
  9
$PEXTMIN
 10
1.0000000000000000E+020
 20
1.0000000000000000E+020
 30
1.0000000000000000E+020
  9
$PEXTMAX
 10
-1.0000000000000000E+020
 20
-1.0000000000000000E+020
 30
-1.0000000000000000E+020
  9
$PLIMMIN
 10
0.0
 20
0.0
  9
$PLIMMAX
 10
12.0
 20
9.0
  9
$UNITMODE
 70
     0
  9
$VISRETAIN
 70
     0
  9
$PLINEGEN
 70
     0
  9
$PSLTSCALE
 70
     0
  0
ENDSEC
  0
SECTION
  2
TABLES
  0
TABLE
  2
VPORT
 70
     1
  0
VPORT
  2
*ACTIVE
 70
     0
 10
0.0
 20
0.0
 11
1.0
 21
1.0
 12
192.49412581440311
 22
151.8059741760753
 13
0.0
 23
0.0
 14
5.0
 24
5.0
 15
10.0
 25
10.0
 16
0.0
 26
0.0
 36
1.0
 17
0.0
 27
0.0
 37
0.0
 40
310.09784993803078
 41
2.304913294797688
 42
50.0
 43
0.0
 44
0.0
 50
0.0
 51
0.0
 71
     0
 72
   500
 73
     1
 74
     0
 75
     0
 76
     0
 77
     0
 78
     2
  0
ENDTAB
  0
TABLE
  2
LTYPE
 70
     3
  0
LTYPE
  2
CONTINUOUS
 70
     0
  3
Solid Line
 72
    65
 73
     0
 40
0.0
  0
LTYPE
  2
CENTER
 70
     0
  3
____ _ ____ _ ____ _ ____ _ ____ _ ____ _ ____
 72
    65
 73
     4
 40
2.0
 49
1.25
 49
-0.25
 49
0.25
 49
-0.25
  0
LTYPE
  2
PHANTOM2
 70
     0
  3
___ _ _ ___ _ _ ___ _ _ ___ _ _
 72
    65
 73
     6
 40
1.25
 49
0.625
 49
-0.125
 49
0.125
 49
-0.125
 49
0.125
 49
-0.125
  0
ENDTAB
  0
TABLE
  2
LAYER
 70
     3
  0
LAYER
  2
0
 70
     0
 62
     7
  6
CONTINUOUS
  0
LAYER
  2
1
 70
     0
 62
     1
  6
CENTER
  0
LAYER
  2
3
 70
     0
 62
     3
  6
CONTINUOUS
  0
ENDTAB
  0
TABLE
  2
STYLE
 70
     2
  0
STYLE
  2
STANDARD
 70
     0
 40
0.0
 41
1.0
 50
0.0
 71
     0
 42
4.000000000000048
  3
SIMPLEX
  4
BIGFONT
  0
STYLE
  2
STANDARD1
 70
     0
 40
0.0
 41
1.0
 50
0.0
 71
     0
 42
3.0
  3
txt
  4

  0
ENDTAB
  0
TABLE
  2
VIEW
 70
     0
  0
ENDTAB
  0
TABLE
  2
UCS
 70
     0
  0
ENDTAB
  0
TABLE
  2
APPID
 70
     3
  0
APPID
  2
ACAD
 70
     0
  0
APPID
  2
ACAD_MLEADERVER
 70
     0
  0
APPID
  2
ACAD_NAV_VCDISPLAY
 70
     0
  0
ENDTAB
  0
TABLE
  2
DIMSTYLE
 70
     1
  0
DIMSTYLE
  2
STANDARD
 70
     0
  3

  4

  5

  6

  7

 40
1.0
 41
0.18
 42
0.0625
 43
0.38
 44
0.18
 45
0.0
 46
0.0
 47
0.0
 48
0.0
140
0.18
141
0.09
142
0.0
143
25.399999999999999
144
1.0
145
0.0
146
1.0
147
0.09
 71
     0
 72
     0
 73
     1
 74
     1
 75
     0
 76
     0
 77
     0
 78
     0
170
     0
171
     2
172
     0
173
     0
174
     0
175
     0
176
     0
177
     0
178
     0
  0
ENDTAB
  0
ENDSEC
  0
SECTION
  2
BLOCKS
  0
BLOCK
  8
0
  2
$MODEL_SPACE
 70
     0
 10
0.0
 20
0.0
 30
0.0
  3
$MODEL_SPACE
  1

  0
ENDBLK
  5
3B1
  8
0
  0
BLOCK
 67
     1
  8
0
  2
$PAPER_SPACE
 70
     0
 10
0.0
 20
0.0
 30
0.0
  3
$PAPER_SPACE
  1

  0
ENDBLK
  5
3AF
 67
     1
  8
0
  0
ENDSEC
  0
SECTION
  2
ENTITIES
  0
LINE
  5
2A8
  8
0
 10
85.735798805580657
 20
135.3986262754116
 30
0.0
 11
92.735798805580643
 21
131.3571743910835
 31
0.0
  0
LINE
  5
2A9
  8
0
 10
92.735798805580643
 20
131.3571743910835
 30
0.0
 11
99.735798805579748
 21
135.3986262754116
 31
0.0
  0
LINE
  5
2AA
  8
0
 10
99.735798805579748
 20
135.3986262754116
 30
0.0
 11
99.735798805579748
 21
143.481530044067
 31
0.0
  0
LINE
  5
2AB
  8
0
 10
99.735798805579748
 20
143.481530044067
 30
0.0
 11
92.735798805579734
 21
147.52298192839319
 31
0.0
  0
LINE
  5
2AC
  8
0
 10
92.735798805579734
 20
147.52298192839319
 30
0.0
 11
85.735798805578838
 21
143.4815300440651
 31
0.0
  0
LINE
  5
2AD
  8
0
 10
85.735798805578838
 20
143.4815300440651
 30
0.0
 11
85.735798805580657
 21
135.3986262754116
 31
0.0
  0
CIRCLE
  5
2AF
  8
0
 10
92.735798805579734
 20
139.44007815973791
 30
0.0
 40
6.000000000301398
  0
CIRCLE
  5
2B0
  8
3
 10
92.735798805579734
 20
139.44007815973791
 30
0.0
 40
5.1879999999945454
  0
CIRCLE
  5
2B1
  8
0
 10
92.735798805579734
 20
139.44007815973791
 30
0.0
 40
3.0
  0
CIRCLE
  5
2B2
  8
0
 10
92.735798805579734
 20
139.44007815973791
 30
0.0
 40
12.5
  0
LINE
  5
2B3
  8
1
 10
75.235798805579975
 20
139.44007815973791
 30
0.0
 11
110.23579880557971
 21
139.44007815973791
 31
0.0
  0
LINE
  5
2B4
  8
1
 10
92.735798805579734
 20
156.94007815973771
 30
0.0
 11
92.735798805579734
 21
121.94007815973789
 31
0.0
  0
LINE
  5
2B5
  8
0
 10
208.50870903174581
 20
134.84007815974999
 30
0.0
 11
208.50870903174581
 21
128.44007815973771
 31
0.0
  0
LINE
  5
2B6
  8
0
 10
208.50870903174581
 20
138.84007815973459
 30
0.0
 11
208.50870903174581
 21
136.04007815973279
 31
0.0
  0
LINE
  5
2B7
  8
0
 10
208.50870903174581
 20
142.84007815974371
 30
0.0
 11
208.50870903174581
 21
140.0400781597416
 31
0.0
  0
ARC
  5
2B8
  8
0
 10
208.5087090317457
 20
143.44007815973811
 30
0.0
 40
0.5999999999997954
 50
89.999999999424602
 51
270.00000000057543
  0
ARC
  5
2B9
  8
0
 10
208.5087090317397
 20
135.4400781597414
 30
0.0
 40
0.5999999999997954
 50
89.999999999424602
 51
270.00000000057543
  0
ARC
  5
2BA
  8
0
 10
208.5087090317397
 20
139.44007815973811
 30
0.0
 40
0.5999999999997954
 50
89.999999999424602
 51
270.00000000057543
  0
ARC
  5
2BB
  8
0
 10
202.5087090317455
 20
150.31507815973731
 30
0.0
 40
1.6250000000006251
 50
22.61986494791347
 51
90.000000000144325
  0
ARC
  5
2BC
  8
0
 10
202.5087090317455
 20
128.56507815973859
 30
0.0
 40
1.6250000000006251
 50
269.99999999985567
 51
337.38013505208647
  0
ARC
  5
2BD
  8
0
 10
208.00870903174581
 20
128.44007815973771
 30
0.0
 40
0.5
 50
269.99999999999972
 51
0.0
  0
ARC
  5
2BE
  8
0
 10
208.00870903174581
 20
150.44007815973811
 30
0.0
 40
0.5
 50
0.0
 51
90.000000000000298
  0
LINE
  5
2BF
  8
0
 10
186.5087090317455
 20
146.4400781540416
 30
0.0
 11
185.88349424607881
 21
147.52298192845959
 31
0.0
  0
ARC
  5
2C0
  8
0
 10
179.1961017032161
 20
146.44007815404191
 30
0.0
 40
7.3126073285298174
 50
336.13507441578679
 51
359.99999999997351
  0
ARC
  5
2C1
  8
0
 10
179.1961017032161
 20
132.44007816543399
 30
0.0
 40
7.3126073285298174
 50
0.0000000000265001
 51
23.864925584213289
  0
ARC
  5
2C2
  8
0
 10
173.13392388181819
 20
139.44007815973799
 30
0.0
 40
13.374785149927391
 50
342.41204613394399
 51
17.587953866056029
  0
LINE
  5
2C3
  8
0
 10
186.5087090317455
 20
132.4400781654343
 30
0.0
 11
185.88349424607881
 21
131.3571743910162
 31
0.0
  0
LINE
  5
2C4
  8
0
 10
187.00870903174561
 20
146.44007815973791
 30
0.0
 11
186.50870903174561
 21
145.94007815973791
 31
0.0
  0
LINE
  5
2C5
  8
0
 10
187.00870903174561
 20
132.44007815973791
 30
0.0
 11
186.50870903174561
 21
132.94007815973791
 31
0.0
  0
LINE
  5
2C6
  8
0
 10
187.00870903174561
 20
146.44007815973791
 30
0.0
 11
187.00870903174561
 21
132.44007815973791
 31
0.0
  0
LINE
  5
2C7
  8
0
 10
208.00870903174581
 20
150.94007815973811
 30
0.0
 11
204.00870903174581
 21
150.94007815973811
 31
0.0
  0
LINE
  5
2C8
  8
0
 10
208.00870903174581
 20
127.94007815973769
 30
0.0
 11
204.00870903174581
 21
127.94007815973779
 31
0.0
  0
LINE
  5
2C9
  8
0
 10
202.5087090317455
 20
151.94007815973791
 30
0.0
 11
202.5087090317455
 21
126.94007815973789
 31
0.0
  0
LINE
  5
2CA
  8
0
 10
195.00870903174561
 20
146.44007815973791
 30
0.0
 11
195.00870903174561
 21
132.44007815973791
 31
0.0
  0
LINE
  5
2CB
  8
0
 10
204.00870903174581
 20
150.94007815973791
 30
0.0
 11
204.00870903174581
 21
127.94007815973799
 31
0.0
  0
LINE
  5
2CC
  8
0
 10
208.50870903174581
 20
150.44007815973811
 30
0.0
 11
208.50870903174581
 21
144.0400781597325
 31
0.0
  0
LINE
  5
2CD
  8
0
 10
159.50870903174561
 20
133.4400781596903
 30
0.0
 11
178.50870903174561
 21
133.44007815974979
 31
0.0
  0
LINE
  5
2CE
  8
3
 10
158.73537569838831
 20
134.25207815974341
 30
0.0
 11
175.50870903174561
 21
134.25207815974329
 31
0.0
  0
LINE
  5
2CF
  8
0
 10
159.50870903174581
 20
145.44007815978591
 30
0.0
 11
178.50870903174561
 21
145.44007815972591
 31
0.0
  0
LINE
  5
2D0
  8
3
 10
158.73537569838831
 20
144.62807815973261
 30
0.0
 11
175.50870903174561
 21
144.62807815973261
 31
0.0
  0
LINE
  5
2D1
  8
0
 10
186.50870903174561
 20
146.44007815404049
 30
0.0
 11
186.50870903174561
 21
132.4400781654343
 31
0.0
  0
LINE
  5
2D2
  8
0
 10
178.50870903174561
 20
147.52298192845959
 30
0.0
 11
178.50870903174561
 21
131.3571743910162
 31
0.0
  0
LINE
  5
2D3
  8
0
 10
159.50870903174561
 20
145.44007815978549
 30
0.0
 11
159.50870903174561
 21
133.4400781596903
 31
0.0
  0
LINE
  5
2D4
  8
0
 10
158.50870903174561
 20
144.39007815974961
 30
0.0
 11
158.50870903174561
 21
134.49007815972629
 31
0.0
  0
LINE
  5
2D9
  8
0
 10
158.50870903174561
 20
134.49007815972629
 30
0.0
 11
159.50870903174561
 21
133.4400781596903
 31
0.0
  0
LINE
  5
2DA
  8
0
 10
178.50870903174561
 20
131.3571743910162
 30
0.0
 11
185.88349424607881
 21
131.3571743910162
 31
0.0
  0
LINE
  5
2DB
  8
0
 10
185.88349424607881
 20
135.39862627539159
 30
0.0
 11
178.50870903174561
 21
135.39862627539159
 31
0.0
  0
LINE
  5
2DC
  8
0
 10
187.00870903174561
 20
132.44007815973791
 30
0.0
 11
195.00870903174561
 21
132.44007815973791
 31
0.0
  0
LINE
  5
2DD
  8
0
 10
187.00870903174561
 20
146.44007815973791
 30
0.0
 11
195.00870903174561
 21
146.44007815973791
 31
0.0
  0
LINE
  5
2DE
  8
0
 10
185.88349424607881
 20
143.48153004408431
 30
0.0
 11
178.50870903174561
 21
143.4815300440842
 31
0.0
  0
LINE
  5
2DF
  8
0
 10
178.50870903174561
 20
147.52298192845959
 30
0.0
 11
185.88349424607881
 21
147.5229819284597
 31
0.0
  0
LINE
  5
2E0
  8
0
 10
158.50870903174561
 20
144.39007815974961
 30
0.0
 11
159.50870903174561
 21
145.44007815978549
 31
0.0
  0
LINE
  5
2E4
  8
1
 10
147.5087090317453
 20
139.44007815973791
 30
0.0
 11
213.50870903174581
 21
139.44007815973791
 31
0.0
  0
LINE
  5
2E5
  8
0
 10
260.22405249908132
 20
144.0400781597379
 30
0.0
 11
281.30390069587918
 21
144.0400781597379
 31
0.0
  0
LINE
  5
2E6
  8
0
 10
259.7780765433198
 20
142.840078159738
 30
0.0
 11
281.74987665164127
 21
142.84007815973791
 31
0.0
  0
LINE
  5
2E7
  8
0
 10
259.7780765433198
 20
136.0400781597379
 30
0.0
 11
281.74987665164127
 21
136.0400781597379
 31
0.0
  0
LINE
  5
2E8
  8
0
 10
260.22405249908132
 20
134.84007815973791
 30
0.0
 11
281.30390069587918
 21
134.84007815973791
 31
0.0
  0
LINE
  5
2E9
  8
0
 10
259.27963943767861
 20
140.0400781597379
 30
0.0
 11
282.24831375728309
 21
140.0400781597379
 31
0.0
  0
LINE
  5
2EA
  8
0
 10
259.27963943767799
 20
138.84007815973791
 30
0.0
 11
282.24831375728252
 21
138.840078159738
 31
0.0
  0
LINE
  5
2EB
  8
1
 10
270.76397659748022
 20
156.94007815973771
 30
0.0
 11
270.76397659748022
 21
121.94007815973789
 31
0.0
  0
LINE
  5
2EC
  8
1
 10
253.26397659748051
 20
139.44007815973791
 30
0.0
 11
288.26397659748022
 21
139.44007815973791
 31
0.0
  0
CIRCLE
  5
2ED
  8
0
 10
270.76397659748022
 20
139.44007815973791
 30
0.0
 40
12.5
  0
CIRCLE
  5
2EE
  8
0
 10
270.76397659748022
 20
139.44007815973791
 30
0.0
 40
11.50000000000108
  0
LINE
  5
2EF
  8
0
 10
175.50870903174561
 20
145.44007815973541
 30
0.0
 11
175.50870903174561
 21
133.44007815974041
 31
0.0
  0
LINE
  5
2F0
  8
3
 10
175.50870903174561
 20
144.62807815973261
 30
0.0
 11
176.91513428748871
 21
145.44007815973089
 31
0.0
  0
LINE
  5
2F1
  8
3
 10
175.50870903174561
 20
134.25207815974329
 30
0.0
 11
176.91513428748871
 21
133.4400781597449
 31
0.0
  0
LINE
  5
2F2
  8
0
 10
187.00870903174561
 20
83.640412443447516
 30
0.0
 11
195.00870903174561
 21
83.640412443447516
 31
0.0
  0
LINE
  5
2F3
  8
0
 10
187.00870903174561
 20
69.640412443447531
 30
0.0
 11
195.00870903174561
 21
69.640412443447531
 31
0.0
  0
LINE
  5
2F4
  8
1
 10
147.5087090317453
 20
76.640412443447531
 30
0.0
 11
213.50870903174581
 21
76.640412443447531
 31
0.0
  0
LINE
  5
2F5
  8
0
 10
159.50870903174581
 20
82.640412443495507
 30
0.0
 11
178.50870903174561
 21
82.640412443435494
 31
0.0
  0
LINE
  5
2F6
  8
3
 10
158.73537569838831
 20
81.828412443442176
 30
0.0
 11
175.50870903174561
 21
81.828412443442176
 31
0.0
  0
LINE
  5
2F7
  8
0
 10
159.50870903174561
 20
70.640412443399953
 30
0.0
 11
178.50870903174561
 21
70.640412443459425
 31
0.0
  0
LINE
  5
2F8
  8
3
 10
158.73537569838831
 20
71.452412443452985
 30
0.0
 11
175.50870903174561
 21
71.452412443452943
 31
0.0
  0
LINE
  5
2F9
  8
0
 10
159.50870903174561
 20
82.640412443495165
 30
0.0
 11
159.50870903174561
 21
70.640412443399953
 31
0.0
  0
LINE
  5
2FA
  8
0
 10
158.50870903174561
 20
81.590412443459229
 30
0.0
 11
158.50870903174561
 21
71.690412443435875
 31
0.0
  0
LINE
  5
2FF
  8
0
 10
158.50870903174561
 20
71.690412443435875
 30
0.0
 11
159.50870903174561
 21
70.640412443399953
 31
0.0
  0
LINE
  5
303
  8
0
 10
158.50870903174561
 20
81.590412443459229
 30
0.0
 11
159.50870903174561
 21
82.640412443495165
 31
0.0
  0
LINE
  5
304
  8
0
 10
187.00870903174561
 20
83.640412443447516
 30
0.0
 11
187.00870903174561
 21
69.640412443447531
 31
0.0
  0
LINE
  5
305
  8
0
 10
175.50870903174561
 20
82.640412443445015
 30
0.0
 11
175.50870903174561
 21
70.640412443450032
 31
0.0
  0
LINE
  5
306
  8
3
 10
175.50870903174561
 20
71.452412443452886
 30
0.0
 11
176.91513428748871
 21
70.640412443454494
 31
0.0
  0
LINE
  5
307
  8
0
 10
187.00870903174561
 20
69.640412443447531
 30
0.0
 11
186.50870903174561
 21
70.140412443447531
 31
0.0
  0
LINE
  5
308
  8
3
 10
175.50870903174561
 20
81.828412443442176
 30
0.0
 11
176.91513428748871
 21
82.640412443440553
 31
0.0
  0
LINE
  5
309
  8
0
 10
187.00870903174561
 20
83.640412443447516
 30
0.0
 11
186.50870903174561
 21
83.140412443447474
 31
0.0
  0
LINE
  5
30A
  8
0
 10
208.50870903174581
 20
76.040412443444211
 30
0.0
 11
208.50870903174581
 21
73.240412443442423
 31
0.0
  0
LINE
  5
30B
  8
0
 10
202.5087090317455
 20
89.140412443447531
 30
0.0
 11
202.5087090317455
 21
64.140412443447531
 31
0.0
  0
LINE
  5
30C
  8
0
 10
195.00870903174561
 20
83.640412443447516
 30
0.0
 11
195.00870903174561
 21
69.640412443447531
 31
0.0
  0
LINE
  5
30D
  8
0
 10
204.00870903174581
 20
88.140412443447531
 30
0.0
 11
204.00870903174581
 21
65.140412443447588
 31
0.0
  0
LINE
  5
30E
  8
0
 10
208.00870903174581
 20
65.14041244344736
 30
0.0
 11
204.00870903174581
 21
65.140412443447417
 31
0.0
  0
ARC
  5
30F
  8
0
 10
202.5087090317455
 20
65.765412443448213
 30
0.0
 40
1.6250000000006251
 50
269.99999999985567
 51
337.38013505208647
  0
LINE
  5
310
  8
0
 10
208.50870903174581
 20
72.040412443459616
 30
0.0
 11
208.50870903174581
 21
65.64041244344736
 31
0.0
  0
ARC
  5
311
  8
0
 10
208.00870903174581
 20
65.64041244344736
 30
0.0
 40
0.5
 50
269.99999999999972
 51
0.0
  0
ARC
  5
312
  8
0
 10
208.5087090317397
 20
72.640412443451055
 30
0.0
 40
0.5999999999997954
 50
89.999999999424602
 51
270.00000000057543
  0
LINE
  5
313
  8
0
 10
208.00870903174581
 20
88.140412443447758
 30
0.0
 11
204.00870903174581
 21
88.140412443447687
 31
0.0
  0
ARC
  5
314
  8
0
 10
202.5087090317455
 20
87.515412443446905
 30
0.0
 40
1.6250000000006251
 50
22.61986494791347
 51
90.000000000144325
  0
LINE
  5
315
  8
0
 10
208.50870903174581
 20
87.640412443447758
 30
0.0
 11
208.50870903174581
 21
81.240412443442153
 31
0.0
  0
ARC
  5
316
  8
0
 10
208.5087090317457
 20
80.640412443447687
 30
0.0
 40
0.5999999999997954
 50
89.999999999424602
 51
270.00000000057543
  0
ARC
  5
317
  8
0
 10
208.5087090317397
 20
76.640412443447758
 30
0.0
 40
0.5999999999997954
 50
89.999999999424602
 51
270.00000000057543
  0
LINE
  5
318
  8
0
 10
208.50870903174581
 20
80.040412443453306
 30
0.0
 11
208.50870903174581
 21
77.240412443451248
 31
0.0
  0
ARC
  5
319
  8
0
 10
208.00870903174581
 20
87.640412443447758
 30
0.0
 40
0.5
 50
0.0
 51
90.000000000000298
  0
LINE
  5
31A
  8
0
 10
178.50870903174561
 20
83.640412443447261
 30
0.0
 11
178.5087090317455
 21
69.640412443447772
 31
0.0
  0
LINE
  5
31B
  8
0
 10
186.50870903174561
 20
83.371181674215293
 30
0.0
 11
186.50870903174561
 21
69.909643212679768
 31
0.0
  0
LINE
  5
31C
  8
0
 10
186.35326857465529
 20
83.640412443447261
 30
0.0
 11
186.50870903174561
 21
83.371181674215293
 31
0.0
  0
ARC
  5
31D
  8
0
 10
176.24402781361829
 20
80.140412443447261
 30
0.0
 40
10.10924076103711
 50
339.7438419995828
 51
20.25615800041717
  0
LINE
  5
31E
  8
0
 10
186.35326857465529
 20
83.640412443447261
 30
0.0
 11
178.50870903174561
 21
83.640412443447261
 31
0.0
  0
LINE
  5
31F
  8
0
 10
185.72805379231559
 20
76.640412443447516
 30
0.0
 11
178.5087090317455
 21
76.640412443447516
 31
0.0
  0
LINE
  5
320
  8
0
 10
186.35326857465529
 20
69.640412443447772
 30
0.0
 11
178.5087090317455
 21
69.640412443447772
 31
0.0
  0
ARC
  5
321
  8
0
 10
176.24402781361829
 20
73.140412443447772
 30
0.0
 40
10.10924076103711
 50
339.7438419995828
 51
20.25615800041717
  0
LINE
  5
322
  8
0
 10
186.35326857465529
 20
69.640412443447772
 30
0.0
 11
186.50870903174561
 21
69.909643212679768
 31
0.0
  0
LINE
  5
323
  8
0
 10
187.00870903174561
 20
195.23974387602831
 30
0.0
 11
195.00870903174561
 21
195.2397438760284
 31
0.0
  0
LINE
  5
324
  8
0
 10
187.00870903174561
 20
209.23974387602831
 30
0.0
 11
195.00870903174561
 21
209.2397438760284
 31
0.0
  0
LINE
  5
325
  8
1
 10
147.5087090317453
 20
202.23974387602831
 30
0.0
 11
213.50870903174581
 21
202.23974387602831
 31
0.0
  0
LINE
  5
326
  8
0
 10
187.00870903174561
 20
195.23974387602831
 30
0.0
 11
187.00870903174561
 21
209.23974387602831
 31
0.0
  0
LINE
  5
327
  8
0
 10
175.50870903174561
 20
196.23974387603079
 30
0.0
 11
175.50870903174561
 21
208.2397438760259
 31
0.0
  0
LINE
  5
328
  8
0
 10
186.50870903174561
 20
195.50897464526059
 30
0.0
 11
186.50870903174561
 21
208.97051310679609
 31
0.0
  0
LINE
  5
329
  8
0
 10
178.50870903174561
 20
195.2397438760286
 30
0.0
 11
178.5087090317455
 21
209.23974387602809
 31
0.0
  0
ARC
  5
32A
  8
0
 10
176.24402781361829
 20
205.73974387602809
 30
0.0
 40
10.10924076103711
 50
339.7438419995828
 51
20.256158000417141
  0
LINE
  5
32D
  8
0
 10
159.50870903174561
 20
196.23974387598071
 30
0.0
 11
159.50870903174561
 21
208.23974387607589
 31
0.0
  0
LINE
  5
32E
  8
0
 10
158.50870903174561
 20
197.28974387601659
 30
0.0
 11
158.50870903174561
 21
207.18974387604001
 31
0.0
  0
LINE
  5
32F
  8
0
 10
159.50870903174561
 20
208.23974387607589
 30
0.0
 11
178.50870903174561
 21
208.23974387601641
 31
0.0
  0
LINE
  5
330
  8
3
 10
158.73537569838831
 20
207.4277438760229
 30
0.0
 11
175.50870903174561
 21
207.4277438760229
 31
0.0
  0
LINE
  5
331
  8
0
 10
158.50870903174561
 20
207.18974387604001
 30
0.0
 11
159.50870903174561
 21
208.23974387607589
 31
0.0
  0
LINE
  5
333
  8
3
 10
175.50870903174561
 20
207.42774387602299
 30
0.0
 11
176.91513428748871
 21
208.23974387602141
 31
0.0
  0
LINE
  5
334
  8
0
 10
186.35326857465529
 20
209.23974387602809
 30
0.0
 11
178.5087090317455
 21
209.23974387602809
 31
0.0
  0
LINE
  5
335
  8
0
 10
187.00870903174561
 20
209.23974387602831
 30
0.0
 11
186.50870903174561
 21
208.73974387602831
 31
0.0
  0
LINE
  5
336
  8
0
 10
186.35326857465529
 20
209.23974387602809
 30
0.0
 11
186.50870903174561
 21
208.97051310679609
 31
0.0
  0
LINE
  5
337
  8
0
 10
159.50870903174581
 20
196.23974387598031
 30
0.0
 11
178.50870903174561
 21
196.23974387604039
 31
0.0
  0
LINE
  5
338
  8
3
 10
158.73537569838831
 20
197.0517438760337
 30
0.0
 11
175.50870903174561
 21
197.0517438760337
 31
0.0
  0
LINE
  5
33D
  8
0
 10
158.50870903174561
 20
197.28974387601659
 30
0.0
 11
159.50870903174561
 21
196.23974387598071
 31
0.0
  0
LINE
  5
33E
  8
3
 10
175.50870903174561
 20
197.0517438760337
 30
0.0
 11
176.91513428748871
 21
196.23974387603531
 31
0.0
  0
LINE
  5
33F
  8
0
 10
186.35326857465529
 20
195.2397438760286
 30
0.0
 11
178.50870903174561
 21
195.2397438760286
 31
0.0
  0
LINE
  5
340
  8
0
 10
185.72805379231559
 20
202.23974387602831
 30
0.0
 11
178.5087090317455
 21
202.23974387602831
 31
0.0
  0
ARC
  5
341
  8
0
 10
176.24402781361829
 20
198.7397438760286
 30
0.0
 40
10.10924076103711
 50
339.7438419995828
 51
20.256158000417141
  0
LINE
  5
342
  8
0
 10
187.00870903174561
 20
195.23974387602831
 30
0.0
 11
186.50870903174561
 21
195.7397438760284
 31
0.0
  0
LINE
  5
343
  8
0
 10
186.35326857465529
 20
195.2397438760286
 30
0.0
 11
186.50870903174561
 21
195.50897464526059
 31
0.0
  0
LINE
  5
344
  8
0
 10
208.50870903174589
 20
202.8397438760316
 30
0.0
 11
208.50870903174581
 21
205.63974387603341
 31
0.0
  0
LINE
  5
345
  8
0
 10
202.50870903174561
 20
189.73974387602831
 30
0.0
 11
202.50870903174561
 21
214.73974387602831
 31
0.0
  0
LINE
  5
346
  8
0
 10
195.00870903174561
 20
195.23974387602831
 30
0.0
 11
195.00870903174561
 21
209.23974387602831
 31
0.0
  0
LINE
  5
347
  8
0
 10
204.00870903174589
 20
190.73974387602831
 30
0.0
 11
204.00870903174589
 21
213.73974387602831
 31
0.0
  0
LINE
  5
348
  8
0
 10
208.00870903174589
 20
213.73974387602851
 30
0.0
 11
204.00870903174589
 21
213.7397438760284
 31
0.0
  0
ARC
  5
349
  8
0
 10
202.50870903174561
 20
213.1147438760276
 30
0.0
 40
1.6250000000006251
 50
22.619864947913101
 51
90.000000000144325
  0
LINE
  5
34A
  8
0
 10
208.50870903174581
 20
206.8397438760162
 30
0.0
 11
208.50870903174581
 21
213.23974387602851
 31
0.0
  0
ARC
  5
34B
  8
0
 10
208.00870903174589
 20
213.23974387602851
 30
0.0
 40
0.5
 50
0.0
 51
90.000000000000355
  0
ARC
  5
34C
  8
0
 10
208.50870903173981
 20
206.23974387602479
 30
0.0
 40
0.5999999999997954
 50
89.999999999424602
 51
270.00000000057543
  0
LINE
  5
34D
  8
0
 10
208.00870903174589
 20
190.73974387602809
 30
0.0
 11
204.00870903174589
 21
190.73974387602809
 31
0.0
  0
ARC
  5
34E
  8
0
 10
202.50870903174561
 20
191.36474387602891
 30
0.0
 40
1.6250000000006251
 50
269.99999999985567
 51
337.38013505208693
  0
LINE
  5
34F
  8
0
 10
208.50870903174581
 20
191.23974387602809
 30
0.0
 11
208.50870903174581
 21
197.63974387603369
 31
0.0
  0
ARC
  5
350
  8
0
 10
208.50870903174581
 20
198.2397438760282
 30
0.0
 40
0.5999999999997954
 50
89.999999999424602
 51
270.00000000057543
  0
ARC
  5
351
  8
0
 10
208.5087090317399
 20
202.23974387602809
 30
0.0
 40
0.5999999999997954
 50
89.999999999424602
 51
270.00000000057543
  0
LINE
  5
352
  8
0
 10
208.50870903174581
 20
198.83974387602251
 30
0.0
 11
208.50870903174589
 21
201.6397438760246
 31
0.0
  0
ARC
  5
353
  8
0
 10
208.00870903174589
 20
191.23974387602809
 30
0.0
 40
0.5
 50
269.99999999999972
 51
0.0
  0
LINE
  5
354
  8
0
 10
195.00870903174561
 20
209.2397438760284
 30
0.0
 11
202.50870903174561
 21
214.73974387602831
 31
0.0
  0
LINE
  5
355
  8
0
 10
195.00870903174561
 20
195.2397438760284
 30
0.0
 11
202.50870903174561
 21
189.73974387602831
 31
0.0
  0
LINE
  5
356
  8
0
 10
195.00870903174561
 20
146.44007815973791
 30
0.0
 11
202.5087090317455
 21
151.94007815973791
 31
0.0
  0
LINE
  5
357
  8
0
 10
195.00870903174561
 20
132.44007815973791
 30
0.0
 11
202.5087090317455
 21
126.94007815973789
 31
0.0
  0
LINE
  5
358
  8
0
 10
195.00870903174561
 20
83.640412443447516
 30
0.0
 11
202.5087090317455
 21
89.140412443447531
 31
0.0
  0
LINE
  5
359
  8
0
 10
195.00870903174561
 20
69.640412443447531
 30
0.0
 11
202.5087090317455
 21
64.140412443447531
 31
0.0
  0
LINE
  5
401
  8
0
 10
152.9276344265478
 20
204.44238008094629
 30
0.0
 11
154.30870903174559
 21
205.2397438760282
 31
0.0
  0
ARC
  5
402
  8
0
 10
158.5087090317457
 20
202.23974387602831
 30
0.0
 40
6.0
 50
158.46275075362431
 51
201.53724924637211
  0
LINE
  5
403
  8
0
 10
154.30870903174571
 20
205.23974387602831
 30
0.0
 11
158.50870903174561
 21
205.23974387602831
 31
0.0
  0
LINE
  5
404
  8
0
 10
154.30870903174571
 20
199.23974387602831
 30
0.0
 11
158.50870903174561
 21
199.23974387602831
 31
0.0
  0
LINE
  5
406
  8
0
 10
152.9276344265478
 20
204.44238008094621
 30
0.0
 11
152.92763442654751
 21
200.03710767111079
 31
0.0
  0
LINE
  5
407
  8
0
 10
154.30870903174571
 20
205.2397438760284
 30
0.0
 11
154.30870903174571
 21
199.23974387602831
 31
0.0
  0
LINE
  5
420
  8
0
 10
152.9276344265478
 20
200.03710767111059
 30
0.0
 11
154.30870903174559
 21
199.2397438760286
 31
0.0
  0
LINE
  5
421
  8
0
 10
152.9276344265478
 20
137.23744195482021
 30
0.0
 11
154.30870903174559
 21
136.44007815973819
 31
0.0
  0
LINE
  5
422
  8
0
 10
154.30870903174571
 20
142.44007815973799
 30
0.0
 11
154.30870903174571
 21
136.44007815973799
 31
0.0
  0
LINE
  5
423
  8
0
 10
152.9276344265478
 20
141.6427143646558
 30
0.0
 11
152.92763442654751
 21
137.23744195482041
 31
0.0
  0
LINE
  5
424
  8
0
 10
154.30870903174571
 20
136.44007815973791
 30
0.0
 11
158.50870903174561
 21
136.44007815973791
 31
0.0
  0
LINE
  5
425
  8
0
 10
154.30870903174571
 20
142.44007815973791
 30
0.0
 11
158.50870903174561
 21
142.44007815973791
 31
0.0
  0
ARC
  5
426
  8
0
 10
158.5087090317457
 20
139.44007815973791
 30
0.0
 40
6.0
 50
158.46275075362431
 51
201.53724924637211
  0
LINE
  5
427
  8
0
 10
152.9276344265478
 20
141.64271436465589
 30
0.0
 11
154.30870903174559
 21
142.44007815973779
 31
0.0
  0
LINE
  5
428
  8
0
 10
152.9276344265478
 20
78.843048648365453
 30
0.0
 11
154.30870903174559
 21
79.640412443447389
 31
0.0
  0
ARC
  5
429
  8
0
 10
158.5087090317457
 20
76.640412443447474
 30
0.0
 40
6.0
 50
158.46275075362431
 51
201.53724924637211
  0
LINE
  5
42A
  8
0
 10
154.30870903174571
 20
79.640412443447445
 30
0.0
 11
158.50870903174561
 21
79.640412443447474
 31
0.0
  0
LINE
  5
42B
  8
0
 10
154.30870903174571
 20
73.640412443447474
 30
0.0
 11
158.50870903174561
 21
73.640412443447474
 31
0.0
  0
LINE
  5
42C
  8
0
 10
152.9276344265478
 20
78.843048648365425
 30
0.0
 11
152.92763442654751
 21
74.437776238529977
 31
0.0
  0
LINE
  5
42D
  8
0
 10
154.30870903174571
 20
79.640412443447616
 30
0.0
 11
154.30870903174571
 21
73.640412443447559
 31
0.0
  0
LINE
  5
42E
  8
0
 10
152.9276344265478
 20
74.43777623852975
 30
0.0
 11
154.30870903174559
 21
73.640412443447815
 31
0.0
  0
CIRCLE
  5
430
  8
0
 10
92.735798805579734
 20
139.44007815973779
 30
0.0
 40
2.2026362049180359
  0
TEXT
  5
4DB
  8
0
 62
     3
 10
0.0
 20
0.0
 30
0.0
 40
5.0
  1
NDX12
  7
STANDARD1
  0
ENDSEC
  0
EOF
