  0
SECTION
  2
HEADER
  9
$ACADVER
  1
AC1009
  9
$INSBASE
 10
0.0
 20
0.0
 30
0.0
  9
$EXTMIN
 10
0.0
 20
-1.4802182810368341
 30
0.0
  9
$EXTMAX
 10
192.5
 20
162.5000000008627978
 30
0.0
  9
$LIMMIN
 10
0.0
 20
0.0
  9
$LIMMAX
 10
385.0
 20
270.0
  9
$ORTHOMODE
 70
     1
  9
$REGENMODE
 70
     1
  9
$FILLMODE
 70
     1
  9
$QTEXTMODE
 70
     0
  9
$MIRRTEXT
 70
     0
  9
$DRAGMODE
 70
     2
  9
$LTSCALE
 40
10.0
  9
$OSMODE
 70
    37
  9
$ATTMODE
 70
     1
  9
$TEXTSIZE
 40
4.000000000000048
  9
$TRACEWID
 40
0.05
  9
$TEXTSTYLE
  7
STANDARD
  9
$CLAYER
  8
0
  9
$CELTYPE
  6
BYLAYER
  9
$CECOLOR
 62
   256
  9
$DIMSCALE
 40
1.0
  9
$DIMASZ
 40
3.0
  9
$DIMEXO
 40
2.0
  9
$DIMDLI
 40
0.38
  9
$DIMRND
 40
0.0
  9
$DIMDLE
 40
0.0
  9
$DIMEXE
 40
2.0
  9
$DIMTP
 40
0.0
  9
$DIMTM
 40
0.0
  9
$DIMTXT
 40
3.0
  9
$DIMCEN
 40
0.0
  9
$DIMTSZ
 40
0.0
  9
$DIMTOL
 70
     0
  9
$DIMLIM
 70
     0
  9
$DIMTIH
 70
     0
  9
$DIMTOH
 70
     0
  9
$DIMSE1
 70
     0
  9
$DIMSE2
 70
     0
  9
$DIMTAD
 70
     1
  9
$DIMZIN
 70
     0
  9
$DIMBLK
  1

  9
$DIMASO
 70
     1
  9
$DIMSHO
 70
     0
  9
$DIMPOST
  1

  9
$DIMAPOST
  1

  9
$DIMALT
 70
     0
  9
$DIMALTD
 70
     2
  9
$DIMALTF
 40
25.3999999999999986
  9
$DIMLFAC
 40
1.0
  9
$DIMTOFL
 70
     1
  9
$DIMTVP
 40
1.6000000000000001
  9
$DIMTIX
 70
     1
  9
$DIMSOXD
 70
     0
  9
$DIMSAH
 70
     0
  9
$DIMBLK1
  1

  9
$DIMBLK2
  1

  9
$DIMSTYLE
  2
STANDARD
  9
$DIMCLRD
 70
     0
  9
$DIMCLRE
 70
     0
  9
$DIMCLRT
 70
     0
  9
$DIMTFAC
 40
1.0
  9
$DIMGAP
 40
1.0
  9
$LUNITS
 70
     2
  9
$LUPREC
 70
     4
  9
$SKETCHINC
 40
0.1
  9
$FILLETRAD
 40
0.0
  9
$AUNITS
 70
     0
  9
$AUPREC
 70
     4
  9
$MENU
  1
E:\r13\win\SUPPORT\ACAD
  9
$ELEVATION
 40
0.0
  9
$PELEVATION
 40
0.0
  9
$THICKNESS
 40
0.0
  9
$LIMCHECK
 70
     0
  9
$BLIPMODE
 70
     0
  9
$CHAMFERA
 40
0.0
  9
$CHAMFERB
 40
0.0
  9
$SKPOLY
 70
     0
  9
$TDCREATE
 40
2450280.5982060190290213
  9
$TDUPDATE
 40
2460580.5718865739181638
  9
$TDINDWG
 40
0.3208834954
  9
$TDUSRTIMER
 40
0.3208834954
  9
$USRTIMER
 70
     1
  9
$ANGBASE
 50
0.0
  9
$ANGDIR
 70
     0
  9
$PDMODE
 70
     0
  9
$PDSIZE
 40
0.0
  9
$PLINEWID
 40
0.0
  9
$COORDS
 70
     1
  9
$SPLFRAME
 70
     0
  9
$SPLINETYPE
 70
     6
  9
$SPLINESEGS
 70
     8
  9
$ATTDIA
 70
     1
  9
$ATTREQ
 70
     1
  9
$HANDLING
 70
     1
  9
$HANDSEED
  5
186D
  9
$SURFTAB1
 70
     6
  9
$SURFTAB2
 70
     6
  9
$SURFTYPE
 70
     6
  9
$SURFU
 70
     6
  9
$SURFV
 70
     6
  9
$UCSNAME
  2

  9
$UCSORG
 10
0.0
 20
0.0
 30
0.0
  9
$UCSXDIR
 10
1.0
 20
0.0
 30
0.0
  9
$UCSYDIR
 10
0.0
 20
1.0
 30
0.0
  9
$PUCSNAME
  2

  9
$PUCSORG
 10
0.0
 20
0.0
 30
0.0
  9
$PUCSXDIR
 10
1.0
 20
0.0
 30
0.0
  9
$PUCSYDIR
 10
0.0
 20
1.0
 30
0.0
  9
$USERI1
 70
     3
  9
$USERI2
 70
     1
  9
$USERI3
 70
     1
  9
$USERI4
 70
     0
  9
$USERI5
 70
     0
  9
$USERR1
 40
1.0
  9
$USERR2
 40
3.0
  9
$USERR3
 40
3.0
  9
$USERR4
 40
3.0
  9
$USERR5
 40
10.0
  9
$WORLDVIEW
 70
     1
  9
$SHADEDGE
 70
     3
  9
$SHADEDIF
 70
    70
  9
$TILEMODE
 70
     1
  9
$MAXACTVP
 70
    16
  9
$PLIMCHECK
 70
     0
  9
$PEXTMIN
 10
1.0000000000000000E+20
 20
1.0000000000000000E+20
 30
1.0000000000000000E+20
  9
$PEXTMAX
 10
-1.0000000000000000E+20
 20
-1.0000000000000000E+20
 30
-1.0000000000000000E+20
  9
$PLIMMIN
 10
0.0
 20
0.0
  9
$PLIMMAX
 10
12.0
 20
9.0
  9
$UNITMODE
 70
     0
  9
$VISRETAIN
 70
     0
  9
$PLINEGEN
 70
     0
  9
$PSLTSCALE
 70
     0
  0
ENDSEC
  0
SECTION
  2
TABLES
  0
TABLE
  2
VPORT
 70
     1
  0
VPORT
  2
*ACTIVE
 70
     0
 10
0.0
 20
0.0
 11
1.0
 21
1.0
 12
199.62438423645321
 22
85.0
 13
0.0
 23
0.0
 14
5.0
 24
5.0
 15
10.0
 25
10.0
 16
0.0
 26
0.0
 36
1.0
 17
0.0
 27
0.0
 37
0.0
 40
170.0
 41
2.3485221674876842
 42
50.0
 43
0.0
 44
0.0
 50
0.0
 51
0.0
 71
     0
 72
   500
 73
     1
 74
     0
 75
     0
 76
     0
 77
     0
 78
     2
  0
ENDTAB
  0
TABLE
  2
LTYPE
 70
     3
  0
LTYPE
  2
CONTINUOUS
 70
     0
  3
Solid Line
 72
    65
 73
     0
 40
0.0
  0
LTYPE
  2
CENTER
 70
     0
  3
____ _ ____ _ ____ _ ____ _ ____ _ ____ _ ____
 72
    65
 73
     4
 40
2.0
 49
1.25
 49
-0.25
 49
0.25
 49
-0.25
  0
LTYPE
  2
HIDDEN
 70
     0
  3
Hidden __ __ __ __ __ __ __ __ __ __ __ __ __ __
 72
    65
 73
     2
 40
1.905
 49
1.27
 49
-0.635
  0
ENDTAB
  0
TABLE
  2
LAYER
 70
     4
  0
LAYER
  2
0
 70
     0
 62
     7
  6
CONTINUOUS
  0
LAYER
  2
1
 70
     0
 62
     1
  6
CENTER
  0
LAYER
  2
3
 70
     0
 62
     3
  6
CONTINUOUS
  0
LAYER
  2
2
 70
     0
 62
     2
  6
HIDDEN
  0
ENDTAB
  0
TABLE
  2
STYLE
 70
     2
  0
STYLE
  2
STANDARD
 70
     0
 40
0.0
 41
1.0
 50
0.0
 71
     0
 42
4.000000000000048
  3
SIMPLEX
  4
BIGFONT
  0
STYLE
  2
STANDARD1
 70
     0
 40
0.0
 41
1.0
 50
0.0
 71
     0
 42
3.0
  3
txt
  4

  0
ENDTAB
  0
TABLE
  2
VIEW
 70
     0
  0
ENDTAB
  0
TABLE
  2
UCS
 70
     0
  0
ENDTAB
  0
TABLE
  2
APPID
 70
     6
  0
APPID
  2
ACAD
 70
     0
  0
APPID
  2
ACAD_MLEADERVER
 70
     0
  0
APPID
  2
ACAD_NAV_VCDISPLAY
 70
     0
  0
APPID
  2
ACAD_EXEMPT_FROM_CAD_STANDARDS
 70
     0
  0
APPID
  2
ACAD_DSTYLE_DIMRADIAL_EXTENSION
 70
     0
  0
APPID
  2
ACAD_TC
 70
     0
  0
ENDTAB
  0
TABLE
  2
DIMSTYLE
 70
     1
  0
DIMSTYLE
  2
STANDARD
 70
     0
  3

  4

  5

  6

  7

 40
1.0
 41
0.18
 42
0.0625
 43
0.38
 44
0.18
 45
0.0
 46
0.0
 47
0.0
 48
0.0
140
0.18
141
0.09
142
0.0
143
25.3999999999999986
144
1.0
145
0.0
146
1.0
147
0.09
 71
     0
 72
     0
 73
     1
 74
     1
 75
     0
 76
     0
 77
     0
 78
     0
170
     0
171
     2
172
     0
173
     0
174
     0
175
     0
176
     0
177
     0
178
     0
  0
ENDTAB
  0
ENDSEC
  0
SECTION
  2
BLOCKS
  0
BLOCK
  8
0
  2
$MODEL_SPACE
 70
     0
 10
0.0
 20
0.0
 30
0.0
  3
$MODEL_SPACE
  1

  0
ENDBLK
  5
175
  8
0
  0
BLOCK
 67
     1
  8
0
  2
$PAPER_SPACE
 70
     0
 10
0.0
 20
0.0
 30
0.0
  3
$PAPER_SPACE
  1

  0
ENDBLK
  5
173
 67
     1
  8
0
  0
ENDSEC
  0
SECTION
  2
ENTITIES
  0
TEXT
  5
2BE
  8
0
 62
     3
 10
0.0
 20
0.0
 30
0.0
 40
5.0
  1
NDX12LW-S-SUS
  7
STANDARD1
  0
LINE
  5
F46
  8
0
 10
87.8485057757959851
 20
110.9696551136785985
 30
0.0
 11
86.9999999997637303
 21
109.4999999990748023
 31
0.0
  0
LINE
  5
F47
  8
0
 10
92.1514942237312482
 20
89.0303448844707077
 30
0.0
 11
92.999999999764114
 21
90.4999999990755555
 31
0.0
  0
LINE
  5
F48
  8
0
 10
92.9999999997637303
 20
109.4999999990749018
 30
0.0
 11
92.1514942237312482
 21
110.9696551136787974
 31
0.0
  0
LINE
  5
F49
  8
0
 10
86.9999999997641851
 20
90.4999999990743049
 30
0.0
 11
87.8485057757957435
 21
89.0303448844718446
 31
0.0
  0
LINE
  5
F4A
  8
0
 10
123.9299999997636945
 20
112.4999999990750013
 30
0.0
 11
116.9448376400943062
 21
107.3123606125296021
 31
0.0
  0
LINE
  5
F4B
  8
0
 10
116.9448376400944056
 20
92.6876393856204004
 30
0.0
 11
123.929999999763794
 21
87.4999999990750439
 31
0.0
  0
LINE
  5
F4C
  8
0
 10
123.929999999763794
 20
87.4999999990750439
 30
0.0
 11
124.2299999997638054
 21
87.4999999990750439
 31
0.0
  0
LINE
  5
F4D
  8
0
 10
124.2299999997637059
 20
112.4999999990750013
 30
0.0
 11
123.9299999997636945
 21
112.4999999990750013
 31
0.0
  0
ARC
  5
F4E
  8
0
 10
123.9896620621019991
 20
89.4855069055678456
 30
0.0
 40
2.0000000000025269
 50
276.9018543471830753
 51
330.4782807047778874
  0
ARC
  5
F4F
  8
0
 10
123.9896620621018002
 20
110.5144930925821996
 30
0.0
 40
2.0000000000025828
 50
29.5217192952224998
 51
83.0981456528185873
  0
LINE
  5
F50
  8
0
 10
125.7299999997638054
 20
88.4999999990750439
 30
0.0
 11
128.9999999997654072
 21
88.4999999990750439
 31
0.0
  0
LINE
  5
F51
  8
0
 10
128.9999999997652083
 20
111.4999999990750013
 30
0.0
 11
125.7299999997637059
 21
111.4999999990750013
 31
0.0
  0
ARC
  5
F52
  8
0
 10
128.9999999997654072
 20
89.4999999990734665
 30
0.0
 40
0.9999999999984215
 50
270.0
 51
359.9998269565186888
  0
ARC
  5
F53
  8
0
 10
128.9999999997652083
 20
110.4999999990766071
 30
0.0
 40
0.9999999999984652
 50
359.9999999999121201
 51
90.0
  0
LINE
  5
F54
  8
0
 10
116.9448376400943062
 20
107.3123606124540999
 30
0.0
 11
108.4996954132734004
 21
107.0174497474262978
 31
0.0
  0
LINE
  5
F55
  8
0
 10
108.4996954132734004
 20
92.982550250723591
 30
0.0
 11
116.9448376400944056
 21
92.6876393856958884
 31
0.0
  0
LINE
  5
F56
  8
0
 10
108.4996954132734004
 20
107.0174497474262978
 30
0.0
 11
107.9999999997638014
 21
106.4999999990750013
 31
0.0
  0
LINE
  5
F57
  8
0
 10
107.9999999997638014
 20
93.499999999074987
 30
0.0
 11
108.4996954132734004
 21
92.982550250723591
 31
0.0
  0
LINE
  5
F58
  8
0
 10
82.2734999997637289
 20
105.9999999990749018
 30
0.0
 11
79.9999999997637303
 21
104.9264999990748066
 31
0.0
  0
LINE
  5
F59
  8
0
 10
79.999999999763773
 20
95.0734999990748406
 30
0.0
 11
82.2734999997638141
 21
93.9999999990748734
 31
0.0
  0
LINE
  5
F5A
  8
0
 10
82.2734999997638141
 20
93.9999999990748734
 30
0.0
 11
86.999999999763844
 21
93.9999999990748734
 31
0.0
  0
LINE
  5
F5B
  8
0
 10
92.999999999763844
 20
93.9999999990749302
 30
0.0
 11
99.9999999997637872
 21
93.9999999990749302
 31
0.0
  0
LINE
  5
F5C
  8
0
 10
99.9999999997637872
 20
105.9999999990749018
 30
0.0
 11
92.999999999763773
 21
105.9999999990749018
 31
0.0
  0
LINE
  5
F5D
  8
0
 10
86.9999999997637872
 20
105.9999999990749018
 30
0.0
 11
82.2734999997637289
 21
105.9999999990749018
 31
0.0
  0
ARC
  5
F5E
  8
0
 10
79.7999999997632301
 20
96.8999999990743532
 30
0.0
 40
0.2000000000005428
 50
0.00000000014656
 51
89.9999999998404121
  0
ARC
  5
F5F
  8
0
 10
79.7999999997632301
 20
103.0999999990753935
 30
0.0
 40
0.2000000000005286
 50
270.0000000001596163
 51
359.9999999998372004
  0
LINE
  5
F60
  8
0
 10
75.7999999997637417
 20
96.9999999990748734
 30
0.0
 11
79.4999999997637872
 21
96.9999999990748734
 31
0.0
  0
LINE
  5
F61
  8
0
 10
79.4999999997637872
 20
102.9999999990748023
 30
0.0
 11
75.7999999997637417
 21
102.9999999990748023
 31
0.0
  0
LINE
  5
F62
  8
0
 10
75.7999999997637417
 20
102.9999999990748023
 30
0.0
 11
74.4189253945638853
 21
102.2026362039918013
 31
0.0
  0
LINE
  5
F63
  8
0
 10
74.4189253945638853
 20
97.7973637941578318
 30
0.0
 11
75.7999999997637417
 21
96.9999999990748734
 31
0.0
  0
LINE
  5
F64
  8
0
 10
79.4999999997637872
 20
96.9999999990748734
 30
0.0
 11
79.6732050805207734
 21
97.0999999990748393
 31
0.0
  0
LINE
  5
F65
  8
0
 10
79.6732050805207734
 20
102.8999999990748933
 30
0.0
 11
79.4999999997637872
 21
102.9999999990748023
 31
0.0
  0
LINE
  5
F66
  8
0
 10
79.6732050805207734
 20
97.0999999990748393
 30
0.0
 11
79.7999999997637985
 21
97.0999999990748393
 31
0.0
  0
LINE
  5
F67
  8
0
 10
79.7999999997637417
 20
102.8999999990748933
 30
0.0
 11
79.6732050805207734
 21
102.8999999990748933
 31
0.0
  0
LINE
  5
F68
  8
0
 10
100.5097447282734038
 20
108.0829037677439999
 30
0.0
 11
99.9999999997637445
 21
107.1999999990749046
 31
0.0
  0
LINE
  5
F69
  8
0
 10
99.9999999997637872
 20
92.7999999990749274
 30
0.0
 11
100.5097447282726932
 21
91.9170962304070827
 31
0.0
  0
ARC
  5
F6A
  8
0
 10
79.999999999792891
 20
99.9999999990748734
 30
0.0
 40
6.0000000000291838
 50
158.4627507537271072
 51
201.5372492462728076
  0
LINE
  5
F6B
  8
0
 10
107.5882952110201956
 20
91.9170962304073669
 30
0.0
 11
107.6999999997638042
 21
92.1566479229221045
 31
0.0
  0
LINE
  5
F6C
  8
0
 10
107.6999999997637047
 20
107.843352075227898
 30
0.0
 11
107.5882952110356996
 21
108.0829037677091975
 31
0.0
  0
LINE
  5
F6D
  8
0
 10
87.8485057658634503
 20
105.4848275219683984
 30
0.0
 11
92.1514942237321435
 21
105.4848275563765014
 31
0.0
  0
LINE
  5
F6E
  8
0
 10
87.848505775795644
 20
94.5151724417734158
 30
0.0
 11
92.1514942290989154
 21
94.5151724464229801
 31
0.0
  0
LINE
  5
F6F
  8
0
 10
87.8485057757966104
 20
110.969655113678499
 30
0.0
 11
92.1514942237311345
 21
110.9696551136787974
 31
0.0
  0
LINE
  5
F70
  8
0
 10
87.8485057757962124
 20
89.0303448844718446
 30
0.0
 11
92.1514942237306229
 21
89.0303448844707077
 31
0.0
  0
LINE
  5
F71
  8
0
 10
86.9999999997641851
 20
90.4999999990743049
 30
0.0
 11
86.9999999997637303
 21
109.4999999990748023
 31
0.0
  0
LINE
  5
F72
  8
0
 10
92.999999999764114
 20
90.4999999990755555
 30
0.0
 11
92.9999999997637303
 21
109.4999999990749018
 31
0.0
  0
LINE
  5
F73
  8
0
 10
123.929999999763794
 20
87.4999999990750439
 30
0.0
 11
123.9299999997636945
 21
112.4999999990750013
 31
0.0
  0
LINE
  5
F74
  8
0
 10
116.9448376400944056
 20
92.687639385620443
 30
0.0
 11
116.9448376400943062
 21
107.3123606125296021
 31
0.0
  0
LINE
  5
F75
  8
0
 10
125.7299999997638054
 20
88.4999999990750439
 30
0.0
 11
125.7299999997637059
 21
111.4999999990750013
 31
0.0
  0
LINE
  5
F76
  8
0
 10
129.9999999997637872
 20
105.5000002903200027
 30
0.0
 11
129.9999999997637019
 21
110.4999999990750013
 31
0.0
  0
LINE
  5
F78
  8
0
 10
129.9999999997637872
 20
100.9999998446938037
 30
0.0
 11
129.9999999997637872
 21
103.4999999990752997
 31
0.0
  0
LINE
  5
F7A
  8
0
 10
129.9999999997637872
 20
96.4999998428867798
 30
0.0
 11
129.9999999997637872
 21
98.9999999990750439
 31
0.0
  0
LINE
  5
F7C
  8
0
 10
129.9999999997637872
 20
89.4999969788949983
 30
0.0
 11
129.9999999997637872
 21
94.4999975697534751
 31
0.0
  0
LINE
  5
F7D
  8
0
 10
99.9999999997637872
 20
101.6852299559388939
 30
0.0
 11
99.9999999997637872
 21
105.2195628479081932
 31
0.0
  0
LINE
  5
F7E
  8
0
 10
100.5097447282732048
 20
95.9585481147287851
 30
0.0
 11
107.5882952110008972
 21
95.9585481148023547
 31
0.0
  0
LINE
  5
F7F
  8
0
 10
99.9999999999231051
 20
101.685229956068099
 30
0.0
 11
99.9999999997981348
 21
98.3147700439318442
 31
0.0
  0
LINE
  5
F80
  8
0
 10
100.5097447282748959
 20
104.0414518833889019
 30
0.0
 11
107.5882952110170976
 21
104.0414518834129041
 31
0.0
  0
LINE
  5
F81
  8
0
 10
107.8064279756176944
 20
102.9983328691879052
 30
0.0
 11
101.2999999997637985
 21
102.9983328691879052
 31
0.0
  0
LINE
  5
F82
  8
0
 10
101.2999999997637985
 20
97.0016671289619836
 30
0.0
 11
101.2999999997637985
 21
102.9983328691879052
 31
0.0
  0
LINE
  5
F83
  8
0
 10
101.2999999997637985
 20
97.0016671289619836
 30
0.0
 11
107.8064279758477966
 21
97.0016671289633337
 31
0.0
  0
LINE
  5
F84
  8
0
 10
99.9999999997637872
 20
94.7804371514808963
 30
0.0
 11
99.9999999997637872
 21
98.3147700439596406
 31
0.0
  0
LINE
  5
F85
  8
0
 10
107.9999999997638014
 20
94.7804370763632136
 30
0.0
 11
107.9999999997638014
 21
97.0477456245869803
 31
0.0
  0
LINE
  5
F86
  8
0
 10
107.9999999997638014
 20
102.9522543735633064
 30
0.0
 11
107.9999999997638014
 21
105.2195629203051936
 31
0.0
  0
LINE
  5
F87
  8
0
 10
108.4996954132734004
 20
92.982550250723591
 30
0.0
 11
108.4996954132734004
 21
107.0174497474262978
 31
0.0
  0
LINE
  5
F88
  8
0
 10
107.6999999997638042
 20
92.1687707466431903
 30
0.0
 11
107.6999999997638042
 21
93.6011741058892568
 31
0.0
  0
LINE
  5
F89
  8
0
 10
100.5097447282726932
 20
91.9170962304070827
 30
0.0
 11
107.5882952110201956
 21
91.9170962304073669
 31
0.0
  0
LINE
  5
F8A
  8
0
 10
99.9999999999231903
 20
94.7804371510807044
 30
0.0
 11
99.9999999997981348
 21
93.0952071950122644
 31
0.0
  0
LINE
  5
F8B
  8
0
 10
107.9999999997638014
 20
94.7804370949958752
 30
0.0
 11
107.9999999997638014
 21
93.6011741058892568
 31
0.0
  0
LINE
  5
F8C
  8
0
 10
107.9999999997638014
 20
93.6011741058892568
 30
0.0
 11
107.6999999997638042
 21
93.6011741058892568
 31
0.0
  0
LINE
  5
F8D
  8
0
 10
107.9999999997638014
 20
106.3988258922607031
 30
0.0
 11
107.9999999997638014
 21
105.219562902047997
 31
0.0
  0
LINE
  5
F8E
  8
0
 10
99.9999999999230624
 20
106.9047928040628932
 30
0.0
 11
99.9999999997981348
 21
105.2195628479944958
 31
0.0
  0
LINE
  5
F8F
  8
0
 10
100.5097447282734038
 20
108.0829037677439999
 30
0.0
 11
107.5882952110356996
 21
108.0829037677091975
 31
0.0
  0
LINE
  5
F90
  8
0
 10
107.6999999997638042
 20
106.3988258922607031
 30
0.0
 11
107.6999999997638042
 21
107.8312292515067981
 31
0.0
  0
LINE
  5
F91
  8
0
 10
107.6999999997638042
 20
106.3988258922607031
 30
0.0
 11
107.9999999997638014
 21
106.3988258922607031
 31
0.0
  0
LINE
  5
F92
  8
0
 10
107.9999999997638014
 20
93.499999999074987
 30
0.0
 11
107.9999999997638014
 21
93.6011741058892568
 31
0.0
  0
LINE
  5
F93
  8
0
 10
107.9999999997638014
 20
97.2541582528235153
 30
0.0
 11
107.9999999997638014
 21
97.474125619632801
 31
0.0
  0
LINE
  5
F94
  8
0
 10
108.4828443871654997
 20
97.4741256196327157
 30
0.0
 11
108.4828443871654997
 21
102.5258743785172015
 31
0.0
  0
LINE
  5
F95
  8
0
 10
107.9999999997638014
 20
102.5258743785172015
 30
0.0
 11
107.9999999997638014
 21
102.7458417453264019
 31
0.0
  0
LINE
  5
F96
  8
0
 10
107.9999999997638014
 20
106.3988258922607031
 30
0.0
 11
107.9999999997637019
 21
106.4999999990750013
 31
0.0
  0
LINE
  5
F97
  8
0
 10
107.9999999997638014
 20
102.7458417453264019
 30
0.0
 11
107.9999999997638014
 21
102.9522543735641023
 31
0.0
  0
LINE
  5
F98
  8
0
 10
107.9999999997638014
 20
97.0477456245855592
 30
0.0
 11
107.9999999997638014
 21
97.2541582528235153
 31
0.0
  0
LINE
  5
F99
  8
0
 10
101.6999999997638042
 20
102.5258743785168036
 30
0.0
 11
101.6999999997638042
 21
97.4741256196330141
 31
0.0
  0
LINE
  5
F9A
  8
0
 10
108.482844387164306
 20
102.5258743785172015
 30
0.0
 11
101.6999999997638042
 21
102.5258743785168036
 31
0.0
  0
LINE
  5
F9B
  8
0
 10
108.4828443871654997
 20
97.4741256196327157
 30
0.0
 11
101.6999999997638042
 21
97.4741256196330141
 31
0.0
  0
LINE
  5
F9C
  8
0
 10
79.999999999763773
 20
95.0734999990748406
 30
0.0
 11
79.9999999997637303
 21
104.9264999990748066
 31
0.0
  0
LINE
  5
F9D
  8
0
 10
82.2734999997638141
 20
93.9999999990748734
 30
0.0
 11
82.2734999997637289
 21
105.9999999990749018
 31
0.0
  0
LINE
  5
F9E
  8
0
 10
75.7999999997637417
 20
96.9999999990748734
 30
0.0
 11
75.7999999997637417
 21
102.9999999990748023
 31
0.0
  0
LINE
  5
F9F
  8
0
 10
79.4999999997637872
 20
96.9999999990748734
 30
0.0
 11
79.4999999997637872
 21
102.9999999990748023
 31
0.0
  0
LINE
  5
FA0
  8
0
 10
74.4189253945638853
 20
97.7973637941562401
 30
0.0
 11
74.4189253945638853
 21
102.2026362039934071
 31
0.0
  0
LINE
  5
FA1
  8
0
 10
99.9999999997637872
 20
106.9047928035334962
 30
0.0
 11
99.9999999997637445
 21
107.1999999990749046
 31
0.0
  0
LINE
  5
FA2
  8
0
 10
99.9999999997637872
 20
92.7999999990749274
 30
0.0
 11
99.9999999997637872
 21
93.0952071951263065
 31
0.0
  0
LINE
  5
FA3
  8
0
 10
107.6999999997638042
 20
92.1566479229221045
 30
0.0
 11
107.6999999997638042
 21
92.1687707466431903
 31
0.0
  0
LINE
  5
FA4
  8
0
 10
107.6999999997638042
 20
107.8312292515067981
 30
0.0
 11
107.6999999997638042
 21
107.843352075227898
 31
0.0
  0
LINE
  5
FA5
  8
0
 10
128.9999999997654072
 20
88.4999999990750439
 30
0.0
 11
128.9999999997652083
 21
111.4999999990750013
 31
0.0
  0
LINE
  5
FA6
  8
0
 10
123.9299999998606978
 20
62.5000000000241016
 30
0.0
 11
116.9448376401912952
 21
57.3123606134786883
 31
0.0
  0
LINE
  5
FA7
  8
0
 10
116.9448376401910963
 20
42.6876393865695718
 30
0.0
 11
123.9299999998604989
 21
37.5000000000241016
 31
0.0
  0
LINE
  5
FA8
  8
0
 10
123.9299999998604989
 20
37.5000000000241016
 30
0.0
 11
124.229999999860496
 21
37.5000000000241016
 31
0.0
  0
LINE
  5
FA9
  8
0
 10
124.2299999998605955
 20
62.5000000000240519
 30
0.0
 11
123.9299999998606978
 21
62.5000000000241016
 31
0.0
  0
ARC
  5
FAA
  8
0
 10
123.989662062198704
 20
39.4855069065168891
 30
0.0
 40
2.0000000000025731
 50
276.9018543471830753
 51
330.4782807047776032
  0
ARC
  5
FAB
  8
0
 10
123.9896620621988035
 20
60.5144930935312573
 30
0.0
 40
2.0000000000025828
 50
29.5217192952222192
 51
83.0981456528185873
  0
LINE
  5
FAC
  8
0
 10
125.729999999860496
 20
38.5000000000241016
 30
0.0
 11
128.9999999998605063
 21
38.5000000000240519
 31
0.0
  0
ARC
  5
FAD
  8
0
 10
128.9999999998605915
 20
39.5000000000240377
 30
0.0
 40
1.0
 50
269.9999999999984084
 51
0.0
  0
LINE
  5
FAE
  8
0
 10
128.9999999998605915
 20
61.5000000000240377
 30
0.0
 11
125.7299999998605955
 21
61.5000000000240377
 31
0.0
  0
LINE
  5
FAF
  8
0
 10
116.9448376401912952
 20
57.3123606134032002
 30
0.0
 11
108.4996954133702047
 21
57.0174497483755616
 31
0.0
  0
LINE
  5
FB0
  8
0
 10
108.4996954133701053
 20
42.9825502516728122
 30
0.0
 11
116.5909017907876972
 21
42.6999990988568285
 31
0.0
  0
LINE
  5
FB1
  8
0
 10
108.4996954133702047
 20
57.0174497483755616
 30
0.0
 11
108.4828443872640946
 21
57.0000000000241585
 31
0.0
  0
LINE
  5
FB2
  8
0
 10
108.4828443872639951
 20
43.0000000000242082
 30
0.0
 11
108.4996954133701053
 21
42.9825502516728122
 31
0.0
  0
LINE
  5
FB3
  8
0
 10
82.2734999998605758
 20
44.000000000024329
 30
0.0
 11
86.9999999998605631
 21
44.000000000024329
 31
0.0
  0
LINE
  5
FB4
  8
0
 10
92.9999999998606057
 20
44.000000000024329
 30
0.0
 11
99.9999999998605631
 21
44.0000000000242721
 31
0.0
  0
LINE
  5
FB5
  8
0
 10
99.9999999998606199
 20
56.0000000000242721
 30
0.0
 11
92.9999999998606768
 21
56.0000000000242721
 31
0.0
  0
LINE
  5
FB6
  8
0
 10
86.9999999998606768
 20
56.000000000024329
 30
0.0
 11
82.2734999998606327
 21
56.0000000000243787
 31
0.0
  0
LINE
  5
FB7
  8
0
 10
82.2734999998606327
 20
56.0000000000243787
 30
0.0
 11
79.9999999998606199
 21
54.9265000000243617
 31
0.0
  0
LINE
  5
FB8
  8
0
 10
79.9999999998605631
 20
45.0735000000243531
 30
0.0
 11
82.2734999998605758
 21
44.000000000024329
 31
0.0
  0
ARC
  5
FB9
  8
0
 10
79.799999999860006
 20
46.9000000000237875
 30
0.0
 40
0.2000000000005571
 50
0.0000000001628444
 51
89.9999999998404121
  0
ARC
  5
FBA
  8
0
 10
79.7999999998600629
 20
53.1000000000249202
 30
0.0
 40
0.2000000000005571
 50
270.0000000001629132
 51
359.9999999998372004
  0
LINE
  5
FBB
  8
0
 10
75.7999999998605745
 20
47.0000000000244427
 30
0.0
 11
79.4999999998605631
 21
47.0000000000243929
 31
0.0
  0
LINE
  5
FBC
  8
0
 10
79.4999999998606057
 20
53.0000000000243787
 30
0.0
 11
75.7999999998606313
 21
53.0000000000244427
 31
0.0
  0
LINE
  5
FBD
  8
0
 10
75.7999999998606313
 20
53.0000000000244427
 30
0.0
 11
74.4189253946607323
 21
52.2026362049414274
 31
0.0
  0
LINE
  5
FBE
  8
0
 10
74.4189253946607323
 20
47.7973637951073869
 30
0.0
 11
75.7999999998605745
 21
47.0000000000244427
 31
0.0
  0
LINE
  5
FBF
  8
0
 10
79.4999999998605631
 20
47.0000000000243929
 30
0.0
 11
79.6732050806175494
 21
47.1000000000243517
 31
0.0
  0
LINE
  5
FC0
  8
0
 10
79.6732050806176062
 20
52.9000000000243631
 30
0.0
 11
79.4999999998606057
 21
53.0000000000243787
 31
0.0
  0
LINE
  5
FC1
  8
0
 10
79.6732050806175494
 20
47.1000000000243517
 30
0.0
 11
79.7999999998605745
 21
47.1000000000243517
 31
0.0
  0
LINE
  5
FC2
  8
0
 10
79.7999999998606313
 20
52.9000000000243631
 30
0.0
 11
79.6732050806176062
 21
52.9000000000243631
 31
0.0
  0
ARC
  5
FC3
  8
0
 10
79.9999999998897238
 20
50.0000000000192699
 30
0.0
 40
6.0000000000291758
 50
158.4627507537271072
 51
201.5372492462728928
  0
LINE
  5
FC4
  8
0
 10
116.5909018016762957
 20
42.7000000000241968
 30
0.0
 11
108.1199999998605961
 21
42.7000000000242608
 31
0.0
  0
LINE
  5
FC5
  8
0
 10
108.1199999998604966
 20
40.3000000000242835
 30
0.0
 11
120.1520056145677984
 21
40.3000000000242267
 31
0.0
  0
LINE
  5
FC6
  8
0
 10
103.1199999998604966
 20
40.5000000000242082
 30
0.0
 11
108.1199999998605961
 21
40.5000000000242082
 31
0.0
  0
LINE
  5
FC7
  8
0
 10
108.1199999998605961
 20
42.5000000000242224
 30
0.0
 11
103.1199999998604966
 21
42.5000000000242721
 31
0.0
  0
LINE
  5
FC8
  8
0
 10
103.1199999998604966
 20
41.2500000000241513
 30
0.0
 11
98.1199999998605108
 21
41.2500000000241513
 31
0.0
  0
LINE
  5
FC9
  8
0
 10
98.1199999998605108
 20
40.7500000000241585
 30
0.0
 11
103.1199999998604966
 21
40.7500000000241585
 31
0.0
  0
LINE
  5
FCA
  8
0
 10
103.1199999998604966
 20
42.2500000000241585
 30
0.0
 11
98.1199999998605108
 21
42.2500000000241585
 31
0.0
  0
LINE
  5
FCB
  8
0
 10
98.1199999998605108
 20
41.7500000000241513
 30
0.0
 11
103.1199999998604966
 21
41.7500000000241513
 31
0.0
  0
LINE
  5
FCC
  8
0
 10
86.9999999998606057
 20
59.4999999984362304
 30
0.0
 11
92.9999999998606057
 21
59.5000000096653707
 31
0.0
  0
LINE
  5
FCD
  8
0
 10
87.8485057758930452
 20
50.0000000000244427
 30
0.0
 11
92.1514942238274557
 21
50.0000000000264322
 31
0.0
  0
LINE
  5
FCE
  8
0
 10
86.9999999998606057
 20
40.5000000000242721
 30
0.0
 11
92.9999999998606057
 21
40.5000000000242721
 31
0.0
  0
LINE
  5
FCF
  8
0
 10
86.9999999998606057
 20
40.5000000000242721
 30
0.0
 11
86.9999999998606057
 21
59.4999999984362304
 31
0.0
  0
LINE
  5
FD0
  8
0
 10
92.9999999998606057
 20
40.5000000000242721
 30
0.0
 11
92.9999999998606057
 21
59.5000000096653707
 31
0.0
  0
LINE
  5
FD1
  8
0
 10
123.9299999998604989
 20
37.5000000000241016
 30
0.0
 11
123.9299999998606978
 21
62.5000000000241016
 31
0.0
  0
LINE
  5
FD2
  8
0
 10
116.9448376401910963
 20
42.6893754270172323
 30
0.0
 11
116.9448376401912952
 21
57.3123606134786883
 31
0.0
  0
LINE
  5
FD3
  8
0
 10
125.7299999998605955
 20
38.5000000000241585
 30
0.0
 11
125.7299999998605955
 21
61.5000000000240377
 31
0.0
  0
LINE
  5
FD4
  8
0
 10
129.9999999998605915
 20
39.5000000000240377
 30
0.0
 11
129.9999999998605915
 21
60.5000000000240519
 31
0.0
  0
ARC
  5
FD5
  8
0
 10
128.9999999998605915
 20
60.5000000000240519
 30
0.0
 40
1.0
 50
0.0
 51
90.0
  0
LINE
  5
FD6
  8
0
 10
107.9999999998589999
 20
56.5669014084784223
 30
0.0
 11
107.9999999998600941
 21
43.4330985915714223
 31
0.0
  0
LINE
  5
FD7
  8
0
 10
100.5097447283716008
 20
43.0000000000009095
 30
0.0
 11
108.4828443872413999
 21
43.0000000000475211
 31
0.0
  0
LINE
  5
FD9
  8
0
 10
100.5097447283721976
 20
50.0000000000015916
 30
0.0
 11
107.5882952110988953
 21
50.0000000000020535
 31
0.0
  0
LINE
  5
FDA
  8
0
 10
107.6999999998605944
 20
47.0830915558090624
 30
0.0
 11
107.9999999998606057
 21
47.0830915558090624
 31
0.0
  0
LINE
  5
FDB
  8
0
 10
107.6999999998605944
 20
47.0830915558090624
 30
0.0
 11
107.6999999998605944
 21
52.9169084442392474
 31
0.0
  0
LINE
  5
FDC
  8
0
 10
99.9999999998606199
 20
57.0000000000242224
 30
0.0
 11
108.4828443872641941
 21
57.0000000000242224
 31
0.0
  0
LINE
  5
FDD
  8
0
 10
107.9999999998606057
 20
52.9169084442392474
 30
0.0
 11
107.6999999998605944
 21
52.9169084442392474
 31
0.0
  0
LINE
  5
FDF
  8
0
 10
108.4996954133702047
 20
42.9825502516728122
 30
0.0
 11
108.4996954133702047
 21
57.0174497483755616
 31
0.0
  0
LINE
  5
FE0
  8
0
 10
108.4828443872624035
 20
56.52839632831774
 30
0.0
 11
108.4828443872624035
 21
57.0000000000242224
 31
0.0
  0
LINE
  5
FE1
  8
0
 10
108.4828443872634978
 20
43.0000000000242082
 30
0.0
 11
108.4828443872634978
 21
43.4716036717305698
 31
0.0
  0
LINE
  5
FE2
  8
0
 10
100.0000000001392948
 20
43.0000000000912905
 30
0.0
 11
99.9999999998606199
 21
56.9999999999087095
 31
0.0
  0
LINE
  5
FE3
  8
0
 10
82.2734999998606327
 20
44.000000000024329
 30
0.0
 11
82.2734999998606327
 21
56.0000000000243787
 31
0.0
  0
LINE
  5
FE4
  8
0
 10
79.9999999998605631
 20
45.0735000000243531
 30
0.0
 11
79.9999999998606199
 21
54.9265000000243617
 31
0.0
  0
LINE
  5
FE6
  8
0
 10
75.7999999998605745
 20
47.0000000000244427
 30
0.0
 11
75.7999999998606313
 21
53.0000000000244427
 31
0.0
  0
LINE
  5
FE7
  8
0
 10
79.4999999998605631
 20
47.0000000000243929
 30
0.0
 11
79.4999999998606057
 21
53.0000000000243787
 31
0.0
  0
LINE
  5
FE8
  8
0
 10
74.4189253946607323
 20
47.7973637951006936
 30
0.0
 11
74.4189253946607323
 21
52.2026362049378534
 31
0.0
  0
LINE
  5
FE9
  8
0
 10
108.4828443872624035
 20
56.52839632831774
 30
0.0
 11
107.9999999998606057
 21
56.52839632831774
 31
0.0
  0
LINE
  5
FEA
  8
0
 10
108.4828443872624035
 20
43.4716036717305698
 30
0.0
 11
107.9999999998605063
 21
43.4716036717305698
 31
0.0
  0
LINE
  5
FEB
  8
0
 10
108.1199999998605961
 20
42.70000000002414
 30
0.0
 11
108.1199999998604966
 21
40.3000000000241627
 31
0.0
  0
LINE
  5
FEC
  8
0
 10
108.1199999998605961
 20
41.5000000000242082
 30
0.0
 11
103.1199999998604966
 21
41.5000000000242082
 31
0.0
  0
LINE
  5
FED
  8
0
 10
103.1199999998604966
 20
42.5000000000242224
 30
0.0
 11
103.1199999998604966
 21
40.5000000000242082
 31
0.0
  0
LINE
  5
FEE
  8
0
 10
98.1199999998605108
 20
42.2500000000241585
 30
0.0
 11
98.1199999998605108
 21
40.7500000000241585
 31
0.0
  0
LINE
  5
FEF
  8
0
 10
128.9999999998622116
 20
38.5000000000240519
 30
0.0
 11
128.9999999998622116
 21
61.5000000000240377
 31
0.0
  0
CIRCLE
  5
FF0
  8
0
 10
25.0000000000001101
 20
99.9999999990748876
 30
0.0
 40
3.0
  0
CIRCLE
  5
FF1
  8
0
 10
25.0000000000000604
 20
99.9999999990748876
 30
0.0
 40
4.926499999999975
  0
CIRCLE
  5
FF2
  8
0
 10
25.0000000000000604
 20
99.9999999990748876
 30
0.0
 40
6.0
  0
ARC
  5
FF3
  8
0
 10
16.4999999999998792
 20
99.9999999990750155
 30
0.0
 40
1.200000000000023
 50
148.1472717180238874
 51
211.9899827748999996
  0
CIRCLE
  5
FF4
  8
0
 10
24.9999999999997691
 20
99.9999999990750581
 30
0.0
 40
12.5
  0
CIRCLE
  5
FF5
  8
0
 10
175.0000000000001137
 20
99.9999999990750297
 30
0.0
 40
11.5
  0
ARC
  5
FF6
  8
0
 10
175.0000000000001137
 20
99.9999999990750297
 30
0.0
 40
10.5000000000000107
 50
31.5881355052006896
 51
148.4118626291244993
  0
ARC
  5
FF8
  8
0
 10
175.0000000000001137
 20
99.9999999990750297
 30
0.0
 40
10.4999990963412095
 50
160.5287776221244087
 51
174.5349765745939123
  0
ARC
  5
FFA
  8
0
 10
175.0000000000001137
 20
99.9999999990750297
 30
0.0
 40
10.5000000000000302
 50
185.4650237999078968
 51
199.4712215384705019
  0
ARC
  5
FFC
  8
0
 10
175.0000000000001137
 20
99.9999999990750297
 30
0.0
 40
10.50000302018009
 50
211.5881409330322924
 51
328.4118695610682721
  0
ARC
  5
FFE
  8
0
 10
175.0000000000001137
 20
99.9999999990750297
 30
0.0
 40
10.5000000000022293
 50
340.5287793655137989
 51
354.5349762000951728
  0
ARC
  5
1000
  8
0
 10
175.0000000000001137
 20
99.9999999990750297
 30
0.0
 40
10.5000000000001403
 50
5.4650237999046833
 51
19.4712206344866487
  0
LINE
  5
1002
  8
0
 10
166.0557264901098051
 20
94.4999978475557754
 30
0.0
 11
183.9442736824790927
 21
94.4999999990759392
 31
0.0
  0
LINE
  5
1003
  8
0
 10
184.8994949366141896
 20
96.4999999990752144
 30
0.0
 11
165.1005055603754954
 21
96.4999999990746886
 31
0.0
  0
LINE
  5
1004
  8
0
 10
164.5477275198167035
 20
98.9999999990750297
 30
0.0
 11
185.4522724801836091
 21
98.999999999074987
 31
0.0
  0
LINE
  5
1005
  8
0
 10
185.4522724801836091
 20
100.9999999990751007
 30
0.0
 11
164.5477267991994097
 21
100.9999999990748023
 31
0.0
  0
LINE
  5
1006
  8
0
 10
165.1005060218633957
 20
103.4999999990752997
 30
0.0
 11
184.8994949366129106
 21
103.4999999990748023
 31
0.0
  0
LINE
  5
1007
  8
0
 10
183.9442719099997134
 20
105.4999999990755981
 30
0.0
 11
166.0557287427247957
 21
105.4999999990750013
 31
0.0
  0
CIRCLE
  5
1008
  8
0
 10
175.0000000000001137
 20
99.9999999990750297
 30
0.0
 40
12.5
  0
LINE
  5
1009
  8
3
 10
80.5538148557342453
 20
94.8120000000054546
 30
0.0
 11
86.9999999997640714
 21
94.8120000000055256
 31
0.0
  0
LINE
  5
100A
  8
3
 10
92.9999999997640714
 20
94.8120000000054546
 30
0.0
 11
96.9999999998606484
 21
94.8120000000054119
 31
0.0
  0
LINE
  5
100B
  8
3
 10
80.5538148596530448
 20
105.1879999999946023
 30
0.0
 11
86.999999999763844
 21
105.1879999999946023
 31
0.0
  0
LINE
  5
100C
  8
3
 10
92.999999999763773
 20
105.1879999999946023
 30
0.0
 11
96.9999999998606484
 21
105.1879999999946023
 31
0.0
  0
LINE
  5
100D
  8
1
 10
68.999999999860421
 20
100.0
 30
0.0
 11
134.9999999998607905
 21
100.0
 31
0.0
  0
LINE
  5
100E
  8
3
 10
96.9999999998606484
 20
105.1879999999946023
 30
0.0
 11
98.4064252556037644
 21
105.999999999992994
 31
0.0
  0
LINE
  5
100F
  8
3
 10
96.9999999998606484
 20
94.8120000000053551
 30
0.0
 11
98.4064252556037644
 21
94.0000000000069349
 31
0.0
  0
LINE
  5
1010
  8
0
 10
96.9999999998606484
 20
105.9999999999974989
 30
0.0
 11
96.9999999998606484
 21
94.0000000000025011
 31
0.0
  0
LINE
  5
1011
  8
3
 10
80.5538148557342311
 20
44.8120000008923967
 30
0.0
 11
86.999999999764114
 21
44.8120000008924535
 31
0.0
  0
LINE
  5
1012
  8
3
 10
92.9999999997640998
 20
44.8120000008923967
 30
0.0
 11
96.999999999860691
 21
44.8120000008923327
 31
0.0
  0
LINE
  5
1013
  8
3
 10
80.5538148596530164
 20
55.1880000008815728
 30
0.0
 11
86.9999999997638156
 21
55.1880000008815728
 31
0.0
  0
LINE
  5
1014
  8
3
 10
92.9999999997638156
 20
55.1880000008815728
 30
0.0
 11
96.999999999860691
 21
55.1880000008815728
 31
0.0
  0
LINE
  5
1015
  8
1
 10
68.9999999998603926
 20
50.0000000008869279
 30
0.0
 11
134.9999999998609042
 21
50.0000000008869279
 31
0.0
  0
LINE
  5
1016
  8
3
 10
96.9999999998606057
 20
55.1880000008815728
 30
0.0
 11
98.4064252556037218
 21
56.000000000879993
 31
0.0
  0
LINE
  5
1017
  8
3
 10
96.9999999998606057
 20
44.812000000892283
 30
0.0
 11
98.4064252556037218
 21
44.0000000008938628
 31
0.0
  0
LINE
  5
1018
  8
0
 10
96.999999999860691
 20
56.0000000008844196
 30
0.0
 11
96.999999999860691
 21
44.000000000889429
 31
0.0
  0
CIRCLE
  5
1019
  8
3
 10
25.0
 20
99.9999999990748876
 30
0.0
 40
5.1879999999945454
  0
LINE
  5
101A
  8
1
 10
7.5000000000001128
 20
99.9999999990747739
 30
0.0
 11
42.4999999999998792
 21
99.9999999990747739
 31
0.0
  0
LINE
  5
101B
  8
1
 10
25.0
 20
117.4999999990747028
 30
0.0
 11
25.0
 21
82.4999999990748307
 31
0.0
  0
POLYLINE
  5
101C
  8
0
 66
     1
 10
0.0
 20
0.0
 30
0.0
 70
     1
  0
VERTEX
  5
1143
  8
0
 10
15.5000000000001101
 20
105.4848275563763025
 30
0.0
  0
VERTEX
  5
1144
  8
0
 10
15.5000000000001101
 20
94.5151724417734869
 30
0.0
  0
VERTEX
  5
1145
  8
0
 10
25.0000000000001101
 20
89.0303448844720151
 30
0.0
  0
VERTEX
  5
1146
  8
0
 10
34.5000000000001208
 20
94.5151724417734869
 30
0.0
  0
VERTEX
  5
1147
  8
0
 10
34.5000000000001208
 20
105.4848275563763025
 30
0.0
  0
VERTEX
  5
1148
  8
0
 10
25.0000000000001101
 20
110.9696551136778027
 30
0.0
  0
SEQEND
  5
1149
  8
0
  0
CIRCLE
  5
101D
  8
0
 10
25.0
 20
99.9999999990747739
 30
0.0
 40
9.5000000000033431
  0
LINE
  5
101E
  8
1
 10
157.500000000000199
 20
99.9999999990750297
 30
0.0
 11
192.5
 21
99.9999999990750297
 31
0.0
  0
LINE
  5
101F
  8
1
 10
175.0
 20
117.4999999990748023
 30
0.0
 11
175.0
 21
82.4999999990749728
 31
0.0
  0
ARC
  5
1020
  8
0
 10
100.7196839697287061
 20
45.2499999873800789
 30
0.0
 40
13.7196839698681003
 50
159.7438420625782953
 51
200.2561578210114988
  0
ARC
  5
1021
  8
0
 10
100.7196838895638962
 20
54.7500000000738325
 30
0.0
 40
13.7196838897033793
 50
159.7438419993787022
 51
200.2561579972231982
  0
ARC
  5
1022
  8
0
 10
79.2803160850379953
 20
54.7500000044665285
 30
0.0
 40
13.7196839148225695
 50
339.7438420181042034
 51
20.2561579535646104
  0
ARC
  5
1023
  8
0
 10
79.2803161098829037
 20
45.2500000000237605
 30
0.0
 40
13.7196838899777003
 50
339.7438419995827985
 51
20.2561580004309292
  0
ARC
  5
1024
  8
0
 10
112.448237307991306
 20
47.0662711564592087
 30
0.0
 40
12.6119850218543998
 50
189.2428209692284895
 51
198.8089313310684076
  0
ARC
  5
1025
  8
0
 10
93.1219807528705132
 20
46.9805578250824283
 30
0.0
 40
15.0039692949321708
 50
344.6152014999997277
 51
352.5708694642315209
  0
ARC
  5
1026
  8
0
 10
128.6502895515359057
 20
33.9437105233826131
 30
0.0
 40
22.7262611196108892
 50
155.3198901971846908
 51
156.51590552283389
  0
ARC
  5
1027
  8
0
 10
95.1202568038921754
 20
30.6775720870414794
 30
0.0
 40
18.4998916513933196
 50
43.754780581267319
 51
45.8765691914662312
  0
ARC
  5
1028
  8
0
 10
90.0027679530563631
 20
45.2613561884369773
 30
0.0
 40
18.2127843597062302
 50
13.6651894266555498
 51
15.0808784378192904
  0
ARC
  5
1029
  8
0
 10
90.0025662365183052
 20
54.7386955212926409
 30
0.0
 40
18.2129925825208794
 50
344.9191296029230784
 51
346.3348024229126167
  0
ARC
  5
102A
  8
0
 10
112.4408601963587984
 20
45.9355717028919273
 30
0.0
 40
12.6044077089236897
 50
161.1881865637921862
 51
170.7600611300684079
  0
ARC
  5
102B
  8
0
 10
112.4485513353468065
 20
54.0663496030363717
 30
0.0
 40
12.6123075720723907
 50
189.2429435727717077
 51
198.808808719357387
  0
ARC
  5
102C
  8
0
 10
112.4422817914369972
 20
52.9352165775397907
 30
0.0
 40
12.6058678809977103
 50
161.188742225136906
 51
170.7595054700236972
  0
ARC
  5
102D
  8
0
 10
92.9758190427038471
 20
52.9899523076555283
 30
0.0
 40
15.1527206226418691
 50
7.4682418078207267
 51
15.3456869658215105
  0
ARC
  5
102E
  8
0
 10
95.1202568041657486
 20
69.3224279127256295
 30
0.0
 40
18.499891651000901
 50
314.1234308085245743
 51
316.2452194187725922
  0
ARC
  5
102F
  8
0
 10
128.2028433207522085
 20
65.8563048112512206
 30
0.0
 40
22.2361843360772191
 50
203.4709141050277026
 51
204.6932901282177113
  0
ARC
  5
1030
  8
0
 10
107.7496404189473935
 20
102.3301435105817063
 30
0.0
 40
0.6705981252190231
 50
68.0783884860496613
 51
85.1422640141003768
  0
ARC
  5
1031
  8
0
 10
85.7285627434806941
 20
98.9258673775046304
 30
0.0
 40
22.4503253515255885
 50
10.4512554120430696
 51
13.1712535569900293
  0
ARC
  5
1032
  8
0
 10
102.5767954297496942
 20
106.4537726845927068
 30
0.0
 40
5.5618721403361917
 50
334.295833707381405
 51
347.1790251500740965
  0
ARC
  5
1033
  8
0
 10
104.7917646330516988
 20
105.5308269844113056
 30
0.0
 40
4.9848561035345593
 50
150.7948722108301922
 51
164.000558834067192
  0
ARC
  5
1034
  8
0
 10
104.7939736982616949
 20
106.5944844837633951
 30
0.0
 40
4.9872430586295788
 50
196.0030015827539955
 51
210.7913117743700866
  0
ARC
  5
1035
  8
0
 10
116.2684102633588026
 20
99.3989743293922174
 30
0.0
 40
16.4282724985314417
 50
163.5851112648030892
 51
172.000415586215297
  0
ARC
  5
1036
  8
0
 10
116.2773559155963028
 20
100.6029609699778007
 30
0.0
 40
16.4374004430322991
 50
188.0019251881340097
 51
196.4125479546862039
  0
ARC
  5
1037
  8
0
 10
104.7903653774987021
 20
93.4070767613245607
 30
0.0
 40
4.9833441793455773
 50
149.2028707987317944
 51
164.0028158258045039
  0
ARC
  5
1038
  8
0
 10
104.7933056941245979
 20
94.4698397990258059
 30
0.0
 40
4.986521259885996
 50
196.0019252965965109
 51
209.2076119379854049
  0
ARC
  5
1039
  8
0
 10
107.7530205817730007
 20
97.6556567065455141
 30
0.0
 40
0.6561666834570925
 50
274.6686415828078793
 51
292.1107055763703784
  0
ARC
  5
103A
  8
0
 10
85.7275151286411017
 20
101.0743515305159974
 30
0.0
 40
22.4513952884502785
 50
346.828811674430824
 51
349.5486801674369985
  0
ARC
  5
103B
  8
0
 10
102.4750124501430975
 20
93.5106580439247637
 30
0.0
 40
5.669023407218063
 50
12.9432297136768302
 51
25.58191159182795
  0
ARC
  5
103C
  8
0
 10
91.8560632217689346
 20
91.7727586631231134
 30
0.0
 40
4.8560632220047983
 50
145.6157525319692922
 51
205.615752532018405
  0
ARC
  5
103D
  8
0
 10
88.1439367575731438
 20
91.772758669368784
 30
0.0
 40
4.8560632421910483
 50
334.3842473943785194
 51
34.3842472822244432
  0
ARC
  5
103E
  8
0
 10
105.1514942138008024
 20
99.9999999975378842
 30
0.0
 40
18.1514942140368909
 50
162.4120463249161901
 51
197.5879537788420919
  0
ARC
  5
103F
  8
0
 10
74.8485057361022257
 20
99.9999999929342493
 30
0.0
 40
18.1514942636617107
 50
342.4120463014510847
 51
17.5879537546118492
  0
ARC
  5
1040
  8
0
 10
91.8560633008261505
 20
108.2272413105657023
 30
0.0
 40
4.8560633010623251
 50
154.384247179374313
 51
214.3842469719253927
  0
ARC
  5
1041
  8
0
 10
88.1439367777597056
 20
108.2272413350271023
 30
0.0
 40
4.8560632220041082
 50
325.6157525319609931
 51
25.6157525319461712
  0
LINE
  5
1042
  8
0
 10
123.9299999998606978
 20
137.5000000008627978
 30
0.0
 11
116.9448376401912952
 21
142.6876393874082112
 31
0.0
  0
LINE
  5
1043
  8
0
 10
116.9448376401910963
 20
157.3123606143172992
 30
0.0
 11
123.9299999998604989
 21
162.5000000008627978
 31
0.0
  0
LINE
  5
1044
  8
0
 10
123.9299999998604989
 20
162.5000000008627978
 30
0.0
 11
124.229999999860496
 21
162.5000000008627978
 31
0.0
  0
LINE
  5
1045
  8
0
 10
124.2299999998605955
 20
137.5000000008629115
 30
0.0
 11
123.9299999998606978
 21
137.5000000008627978
 31
0.0
  0
ARC
  5
1046
  8
0
 10
123.989662062198704
 20
160.5144930943700103
 30
0.0
 40
2.0000000000025731
 50
29.5217192952222192
 51
83.0981456528169531
  0
ARC
  5
1047
  8
0
 10
123.9896620621988035
 20
139.485506907355699
 30
0.0
 40
2.0000000000025828
 50
276.9018543471814269
 51
330.4782807047777737
  0
LINE
  5
1048
  8
0
 10
125.729999999860496
 20
161.5000000008627978
 30
0.0
 11
128.9999999998605063
 21
161.5000000008629115
 31
0.0
  0
ARC
  5
1049
  8
0
 10
128.9999999998605915
 20
160.5000000008629115
 30
0.0
 40
1.0
 50
0.0
 51
90.0000000000016058
  0
LINE
  5
104A
  8
0
 10
128.9999999998605915
 20
138.5000000008629115
 30
0.0
 11
125.7299999998605955
 21
138.5000000008629115
 31
0.0
  0
LINE
  5
104B
  8
0
 10
116.9448376401912952
 20
142.6876393874836992
 30
0.0
 11
108.4996954133702047
 21
142.9825502525114018
 31
0.0
  0
LINE
  5
104C
  8
0
 10
108.4996954133701053
 20
157.0174497492141086
 30
0.0
 11
116.5909017907876972
 21
157.3000009020300922
 31
0.0
  0
LINE
  5
104D
  8
0
 10
108.4996954133702047
 20
142.9825502525114018
 30
0.0
 11
108.4828443872640946
 21
143.0000000008627126
 31
0.0
  0
LINE
  5
104E
  8
0
 10
108.4828443872639951
 20
157.0000000008627126
 30
0.0
 11
108.4996954133701053
 21
157.0174497492141086
 31
0.0
  0
LINE
  5
104F
  8
0
 10
82.2734999998605758
 20
156.0000000008625989
 30
0.0
 11
86.9999999998605631
 21
156.0000000008625989
 31
0.0
  0
LINE
  5
1050
  8
0
 10
92.9999999998606057
 20
156.0000000008625989
 30
0.0
 11
99.9999999998605631
 21
156.0000000008625989
 31
0.0
  0
LINE
  5
1051
  8
0
 10
99.9999999998606199
 20
144.0000000008625989
 30
0.0
 11
92.9999999998606768
 21
144.0000000008625989
 31
0.0
  0
LINE
  5
1052
  8
0
 10
86.9999999998606768
 20
144.0000000008625989
 30
0.0
 11
82.2734999998606327
 21
144.0000000008625136
 31
0.0
  0
LINE
  5
1053
  8
0
 10
82.2734999998606327
 20
144.0000000008625136
 30
0.0
 11
79.9999999998606199
 21
145.0735000008625093
 31
0.0
  0
LINE
  5
1054
  8
0
 10
79.9999999998605631
 20
154.9265000008626032
 30
0.0
 11
82.2734999998605758
 21
156.0000000008625989
 31
0.0
  0
ARC
  5
1055
  8
0
 10
79.799999999860006
 20
153.1000000008631048
 30
0.0
 40
0.2000000000005571
 50
270.0000000001580247
 51
359.9999999998372004
  0
ARC
  5
1056
  8
0
 10
79.7999999998600629
 20
146.9000000008620077
 30
0.0
 40
0.2000000000005571
 50
0.0000000001628444
 51
89.9999999998355236
  0
LINE
  5
1057
  8
0
 10
75.7999999998605745
 20
153.0000000008625136
 30
0.0
 11
79.4999999998605631
 21
153.0000000008625136
 31
0.0
  0
LINE
  5
1058
  8
0
 10
79.4999999998606057
 20
147.0000000008625136
 30
0.0
 11
75.7999999998606313
 21
147.0000000008625136
 31
0.0
  0
LINE
  5
1059
  8
0
 10
75.7999999998606313
 20
147.0000000008625136
 30
0.0
 11
74.4189253946607323
 21
147.7973637959455004
 31
0.0
  0
LINE
  5
105A
  8
0
 10
74.4189253946607323
 20
152.2026362057794984
 30
0.0
 11
75.7999999998605745
 21
153.0000000008625136
 31
0.0
  0
LINE
  5
105B
  8
0
 10
79.4999999998605631
 20
153.0000000008625136
 30
0.0
 11
79.6732050806175494
 21
152.9000000008626046
 31
0.0
  0
LINE
  5
105C
  8
0
 10
79.6732050806176062
 20
147.1000000008625079
 30
0.0
 11
79.4999999998606057
 21
147.0000000008625136
 31
0.0
  0
LINE
  5
105D
  8
0
 10
79.6732050806175494
 20
152.9000000008626046
 30
0.0
 11
79.7999999998605745
 21
152.9000000008626046
 31
0.0
  0
LINE
  5
105E
  8
0
 10
79.7999999998606313
 20
147.1000000008625079
 30
0.0
 11
79.6732050806176062
 21
147.1000000008625079
 31
0.0
  0
ARC
  5
105F
  8
0
 10
79.9999999998897238
 20
150.0000000008676011
 30
0.0
 40
6.0000000000291758
 50
158.4627507537269082
 51
201.5372492462730918
  0
LINE
  5
1060
  8
0
 10
116.5909018016762957
 20
157.3000000008626955
 30
0.0
 11
108.1199999998605961
 21
157.3000000008626102
 31
0.0
  0
LINE
  5
1061
  8
0
 10
108.1199999998604966
 20
159.7000000008625875
 30
0.0
 11
120.1520056145677984
 21
159.7000000008627012
 31
0.0
  0
LINE
  5
1062
  8
0
 10
103.1199999998604966
 20
159.5000000008627126
 30
0.0
 11
108.1199999998605961
 21
159.5000000008627126
 31
0.0
  0
LINE
  5
1063
  8
0
 10
108.1199999998605961
 20
157.5000000008627126
 30
0.0
 11
103.1199999998604966
 21
157.5000000008625989
 31
0.0
  0
LINE
  5
1064
  8
0
 10
103.1199999998604966
 20
158.7500000008627126
 30
0.0
 11
98.1199999998605108
 21
158.7500000008627126
 31
0.0
  0
LINE
  5
1065
  8
0
 10
98.1199999998605108
 20
159.2500000008627978
 30
0.0
 11
103.1199999998604966
 21
159.2500000008627978
 31
0.0
  0
LINE
  5
1066
  8
0
 10
103.1199999998604966
 20
157.7500000008627126
 30
0.0
 11
98.1199999998605108
 21
157.7500000008627126
 31
0.0
  0
LINE
  5
1067
  8
0
 10
98.1199999998605108
 20
158.2500000008627978
 30
0.0
 11
103.1199999998604966
 21
158.2500000008627978
 31
0.0
  0
LINE
  5
1068
  8
0
 10
86.9999999998606057
 20
140.5000000024506903
 30
0.0
 11
92.9999999998606057
 21
140.4999999912215003
 31
0.0
  0
LINE
  5
1069
  8
0
 10
87.8485057758930452
 20
150.0000000008625136
 30
0.0
 11
92.1514942238274557
 21
150.0000000008604957
 31
0.0
  0
LINE
  5
106A
  8
0
 10
86.9999999998606057
 20
159.5000000008625989
 30
0.0
 11
92.9999999998606057
 21
159.5000000008625989
 31
0.0
  0
LINE
  5
106B
  8
0
 10
86.9999999998606057
 20
159.5000000008625989
 30
0.0
 11
86.9999999998606057
 21
140.5000000024506903
 31
0.0
  0
LINE
  5
106C
  8
0
 10
92.9999999998606057
 20
159.5000000008625989
 30
0.0
 11
92.9999999998606057
 21
140.4999999912215003
 31
0.0
  0
LINE
  5
106D
  8
0
 10
123.9299999998604989
 20
162.5000000008627978
 30
0.0
 11
123.9299999998606978
 21
137.5000000008627978
 31
0.0
  0
LINE
  5
106E
  8
0
 10
116.9448376401910963
 20
157.3106245738696884
 30
0.0
 11
116.9448376401912952
 21
142.6876393874082112
 31
0.0
  0
LINE
  5
106F
  8
0
 10
125.7299999998605955
 20
161.5000000008627126
 30
0.0
 11
125.7299999998605955
 21
138.5000000008629115
 31
0.0
  0
LINE
  5
1070
  8
0
 10
129.9999999998605915
 20
160.5000000008629115
 30
0.0
 11
129.9999999998605915
 21
139.5000000008629115
 31
0.0
  0
ARC
  5
1071
  8
0
 10
128.9999999998605915
 20
139.5000000008629115
 30
0.0
 40
1.0
 50
270.0
 51
0.0
  0
LINE
  5
1072
  8
0
 10
107.9999999998589999
 20
143.4330985924084985
 30
0.0
 11
107.9999999998600941
 21
156.5669014093155056
 31
0.0
  0
LINE
  5
1073
  8
0
 10
100.5097447283716008
 20
157.0000000008859899
 30
0.0
 11
108.4828443872413999
 21
157.0000000008394068
 31
0.0
  0
LINE
  5
1075
  8
0
 10
100.5097447283721976
 20
150.0000000008853078
 30
0.0
 11
107.5882952110988953
 21
150.0000000008849099
 31
0.0
  0
LINE
  5
1076
  8
0
 10
107.6999999998605944
 20
152.9169084450778087
 30
0.0
 11
107.9999999998606057
 21
152.9169084450778087
 31
0.0
  0
LINE
  5
1077
  8
0
 10
107.6999999998605944
 20
152.9169084450778087
 30
0.0
 11
107.6999999998605944
 21
147.083091556647588
 31
0.0
  0
LINE
  5
1078
  8
0
 10
99.9999999998606199
 20
143.0000000008627126
 30
0.0
 11
108.4828443872641941
 21
143.0000000008627126
 31
0.0
  0
LINE
  5
1079
  8
0
 10
107.9999999998606057
 20
147.083091556647588
 30
0.0
 11
107.6999999998605944
 21
147.083091556647588
 31
0.0
  0
LINE
  5
107B
  8
0
 10
108.4996954133702047
 20
157.0174497492141086
 30
0.0
 11
108.4996954133702047
 21
142.9825502525114018
 31
0.0
  0
LINE
  5
107C
  8
0
 10
108.4828443872624035
 20
143.4716036725691879
 30
0.0
 11
108.4828443872624035
 21
143.0000000008627126
 31
0.0
  0
LINE
  5
107D
  8
0
 10
108.4828443872634978
 20
157.0000000008627126
 30
0.0
 11
108.4828443872634978
 21
156.5283963291562941
 31
0.0
  0
LINE
  5
107E
  8
0
 10
100.0000000001392948
 20
157.0000000007956089
 30
0.0
 11
99.9999999998606199
 21
143.00000000097819
 31
0.0
  0
LINE
  5
107F
  8
0
 10
82.2734999998606327
 20
156.0000000008625989
 30
0.0
 11
82.2734999998606327
 21
144.0000000008625136
 31
0.0
  0
LINE
  5
1080
  8
0
 10
79.9999999998605631
 20
154.9265000008626032
 30
0.0
 11
79.9999999998606199
 21
145.0735000008625093
 31
0.0
  0
LINE
  5
1082
  8
0
 10
75.7999999998605745
 20
153.0000000008625136
 30
0.0
 11
75.7999999998606313
 21
147.0000000008625136
 31
0.0
  0
LINE
  5
1083
  8
0
 10
79.4999999998605631
 20
153.0000000008625136
 30
0.0
 11
79.4999999998606057
 21
147.0000000008625136
 31
0.0
  0
LINE
  5
1084
  8
0
 10
74.4189253946607323
 20
152.2026362057862059
 30
0.0
 11
74.4189253946607323
 21
147.7973637959489963
 31
0.0
  0
LINE
  5
1085
  8
0
 10
108.4828443872624035
 20
143.4716036725691879
 30
0.0
 11
107.9999999998606057
 21
143.4716036725691879
 31
0.0
  0
LINE
  5
1086
  8
0
 10
108.4828443872624035
 20
156.5283963291562941
 30
0.0
 11
107.9999999998605063
 21
156.5283963291562941
 31
0.0
  0
LINE
  5
1087
  8
0
 10
108.1199999998605961
 20
157.3000000008628092
 30
0.0
 11
108.1199999998604966
 21
159.7000000008627012
 31
0.0
  0
LINE
  5
1088
  8
0
 10
108.1199999998605961
 20
158.5000000008627126
 30
0.0
 11
103.1199999998604966
 21
158.5000000008627126
 31
0.0
  0
LINE
  5
1089
  8
0
 10
103.1199999998604966
 20
157.5000000008627126
 30
0.0
 11
103.1199999998604966
 21
159.5000000008627126
 31
0.0
  0
LINE
  5
108A
  8
0
 10
98.1199999998605108
 20
157.7500000008627126
 30
0.0
 11
98.1199999998605108
 21
159.2500000008627978
 31
0.0
  0
LINE
  5
108B
  8
0
 10
128.9999999998622116
 20
161.5000000008629115
 30
0.0
 11
128.9999999998622116
 21
138.5000000008629115
 31
0.0
  0
LINE
  5
108C
  8
3
 10
80.5538148557342311
 20
155.1879999999945028
 30
0.0
 11
86.999999999764114
 21
155.1879999999945028
 31
0.0
  0
LINE
  5
108D
  8
3
 10
92.9999999997640998
 20
155.1879999999945028
 30
0.0
 11
96.999999999860691
 21
155.1879999999945881
 31
0.0
  0
LINE
  5
108E
  8
3
 10
80.5538148596530164
 20
144.8120000000052983
 30
0.0
 11
86.9999999997638156
 21
144.8120000000052983
 31
0.0
  0
LINE
  5
108F
  8
3
 10
92.9999999997638156
 20
144.8120000000052983
 30
0.0
 11
96.999999999860691
 21
144.8120000000052983
 31
0.0
  0
LINE
  5
1090
  8
1
 10
68.9999999998603926
 20
150.0
 30
0.0
 11
134.9999999998609042
 21
150.0
 31
0.0
  0
LINE
  5
1091
  8
3
 10
96.9999999998606057
 20
144.8120000000052983
 30
0.0
 11
98.4064252556037218
 21
144.0000000000069065
 31
0.0
  0
LINE
  5
1092
  8
3
 10
96.9999999998606057
 20
155.1879999999945881
 30
0.0
 11
98.4064252556037218
 21
155.9999999999930935
 31
0.0
  0
LINE
  5
1093
  8
0
 10
96.999999999860691
 20
144.0000000000025011
 30
0.0
 11
96.999999999860691
 21
155.9999999999974989
 31
0.0
  0
ARC
  5
1094
  8
0
 10
100.7196839697287061
 20
154.7500000135067921
 30
0.0
 40
13.7196839698681003
 50
159.7438421789881886
 51
200.2561579374217047
  0
ARC
  5
1095
  8
0
 10
100.7196838895638962
 20
145.2500000008130883
 30
0.0
 40
13.7196838897033793
 50
159.7438420027768018
 51
200.2561580006249926
  0
ARC
  5
1096
  8
0
 10
79.2803160850379953
 20
145.2499999964203994
 30
0.0
 40
13.7196839148225695
 50
339.7438420464354181
 51
20.2561579818995092
  0
ARC
  5
1097
  8
0
 10
79.2803161098829037
 20
154.7500000008631105
 30
0.0
 40
13.7196838899777003
 50
339.7438419995690992
 51
20.256158000417031
  0
ARC
  5
1098
  8
0
 10
112.448237307991306
 20
152.9337288444276908
 30
0.0
 40
12.6119850218543998
 50
161.1910686689313081
 51
170.7571790307684125
  0
ARC
  5
1099
  8
0
 10
93.1219807528705132
 20
153.0194421758044996
 30
0.0
 40
15.0039692949321708
 50
7.4291305357683699
 51
15.38479850000029
  0
ARC
  5
109A
  8
0
 10
128.6502895515359057
 20
166.0562894775042935
 30
0.0
 40
22.7262611196108892
 50
203.48409447716611
 51
204.6801098028116996
  0
ARC
  5
109B
  8
0
 10
95.1202568038921754
 20
169.322427913845388
 30
0.0
 40
18.4998916513933196
 50
314.1234308085336124
 51
316.2452194187325745
  0
ARC
  5
109C
  8
0
 10
90.0027679530563631
 20
154.738643812449908
 30
0.0
 40
18.2127843597062302
 50
344.9191215621777928
 51
346.3348105733443845
  0
ARC
  5
109D
  8
0
 10
90.0025662365183052
 20
145.2613044795942869
 30
0.0
 40
18.2129925825208794
 50
13.6651975770874206
 51
15.0808703970806004
  0
ARC
  5
109E
  8
0
 10
112.4408601963587984
 20
154.0644282979949935
 30
0.0
 40
12.6044077089236897
 50
189.239938869927812
 51
198.8118134362077001
  0
ARC
  5
109F
  8
0
 10
112.4485513353468065
 20
145.9336503978504993
 30
0.0
 40
12.6123075720723907
 50
161.191191280642613
 51
170.757056427231305
  0
ARC
  5
10A0
  8
0
 10
112.4422817914369972
 20
147.0647834233471087
 30
0.0
 40
12.6058678809977103
 50
189.2404945299763028
 51
198.8112577748630088
  0
ARC
  5
10A1
  8
0
 10
92.9758190427038471
 20
147.0100476932313995
 30
0.0
 40
15.1527206226418691
 50
344.6543130341784149
 51
352.5317581921760279
  0
ARC
  5
10A2
  8
0
 10
95.1202568041657486
 20
130.6775720881612983
 30
0.0
 40
18.499891651000901
 50
43.7547805812299018
 51
45.8765691914754612
  0
ARC
  5
10A3
  8
0
 10
128.2028433207522085
 20
134.1436951896357073
 30
0.0
 40
22.2361843360772191
 50
155.3067098717822034
 51
156.5290858949686879
  0
CIRCLE
  5
10A4
  8
0
 10
25.0
 20
99.9999999990747739
 30
0.0
 40
2.202636204916586
  0
LINE
  5
10A5
  8
2
 10
18.0000000000009095
 20
95.9585481147485808
 30
0.0
 11
25.0000000000009095
 21
91.9170962304204551
 31
0.0
  0
LINE
  5
10A6
  8
2
 10
25.0000000000009095
 20
91.9170962304204551
 30
0.0
 11
32.0
 21
95.9585481147485808
 31
0.0
  0
LINE
  5
10A7
  8
2
 10
32.0
 20
95.9585481147485808
 30
0.0
 11
32.0
 21
104.0414518834038944
 31
0.0
  0
LINE
  5
10A8
  8
2
 10
32.0
 20
104.0414518834038944
 30
0.0
 11
25.0
 21
108.0829037677302011
 31
0.0
  0
LINE
  5
10A9
  8
2
 10
25.0
 20
108.0829037677302011
 30
0.0
 11
17.9999999999990905
 21
104.0414518834021038
 31
0.0
  0
LINE
  5
10AA
  8
2
 10
17.9999999999990905
 20
104.0414518834021038
 30
0.0
 11
18.0000000000009095
 21
95.9585481147485808
 31
0.0
  0
POLYLINE
  5
10C3
  8
0
 66
     1
 10
0.0
 20
0.0
 30
0.0
  0
VERTEX
  5
114A
  8
0
 10
100.0000000001392948
 20
157.0000000007956089
 30
0.0
  0
VERTEX
  5
114B
  8
0
 10
100.0072364655949997
 20
156.9999630463370863
 30
0.0
  0
VERTEX
  5
114C
  8
0
 10
100.0145078025742009
 20
156.9999261914996964
 30
0.0
  0
VERTEX
  5
114D
  8
0
 10
100.0218488826003949
 20
156.9998895359042876
 30
0.0
  0
VERTEX
  5
114E
  8
0
 10
100.0292945771971063
 20
156.9998531791721916
 30
0.0
  0
VERTEX
  5
114F
  8
0
 10
100.0368797578879025
 20
156.999817220924399
 30
0.0
  0
VERTEX
  5
1150
  8
0
 10
100.0446392961961948
 20
156.9997817607817865
 30
0.0
  0
VERTEX
  5
1151
  8
0
 10
100.0526079629008933
 20
156.9997469029412116
 30
0.0
  0
VERTEX
  5
1152
  8
0
 10
100.0608066321959058
 20
156.9997133827368998
 30
0.0
  0
VERTEX
  5
1153
  8
0
 10
100.0692282187297053
 20
156.9996832053352875
 30
0.0
  0
VERTEX
  5
1154
  8
0
 10
100.0778622850833983
 20
156.999658528142902
 30
0.0
  0
VERTEX
  5
1155
  8
0
 10
100.0866983938380059
 20
156.9996415085660999
 30
0.0
  0
VERTEX
  5
1156
  8
0
 10
100.095726107574194
 20
156.9996343040114084
 30
0.0
  0
VERTEX
  5
1157
  8
0
 10
100.1049349888732962
 20
156.9996390718852979
 30
0.0
  0
VERTEX
  5
1158
  8
0
 10
100.1143149968205961
 20
156.9996577261034076
 30
0.0
  0
VERTEX
  5
1159
  8
0
 10
100.1238613618916986
 20
156.9996889434532932
 30
0.0
  0
VERTEX
  5
115A
  8
0
 10
100.133573058729695
 20
156.9997291014533118
 30
0.0
  0
VERTEX
  5
115B
  8
0
 10
100.143449141787201
 20
156.9997745286111126
 30
0.0
  0
VERTEX
  5
115C
  8
0
 10
100.1534886655171022
 20
156.9998215534338044
 30
0.0
  0
VERTEX
  5
115D
  8
0
 10
100.1636906843720993
 20
156.9998665044290931
 30
0.0
  0
VERTEX
  5
115E
  8
0
 10
100.1740542527679025
 20
156.999905710456602
 30
0.0
  0
VERTEX
  5
115F
  8
0
 10
100.1845783268237966
 20
156.9999364309379075
 30
0.0
  0
VERTEX
  5
1160
  8
0
 10
100.1952615510217015
 20
156.9999588755389084
 30
0.0
  0
VERTEX
  5
1161
  8
0
 10
100.2061025082285965
 20
156.9999738372291915
 30
0.0
  0
VERTEX
  5
1162
  8
0
 10
100.2170997813114042
 20
156.9999821089782017
 30
0.0
  0
VERTEX
  5
1163
  8
0
 10
100.2282519531370042
 20
156.9999844837554122
 30
0.0
  0
VERTEX
  5
1164
  8
0
 10
100.2395576065723048
 20
156.999981754530296
 30
0.0
  0
VERTEX
  5
1165
  8
0
 10
100.2510153044710961
 20
156.9999747223644988
 30
0.0
  0
VERTEX
  5
1166
  8
0
 10
100.2626231102016021
 20
156.9999643902791888
 30
0.0
  0
VERTEX
  5
1167
  8
0
 10
100.2743785648589068
 20
156.9999519724694039
 30
0.0
  0
VERTEX
  5
1168
  8
0
 10
100.2862791849638029
 20
156.9999386930660137
 30
0.0
  0
VERTEX
  5
1169
  8
0
 10
100.2983224870373959
 20
156.9999257762002003
 30
0.0
  0
VERTEX
  5
116A
  8
0
 10
100.3105059876008056
 20
156.9999144460028049
 30
0.0
  0
VERTEX
  5
116B
  8
0
 10
100.3228272031750947
 20
156.999905926604896
 30
0.0
  0
VERTEX
  5
116C
  8
0
 10
100.3352842145249042
 20
156.9999012872519017
 30
0.0
  0
VERTEX
  5
116D
  8
0
 10
100.3478792971486939
 20
156.9999004457274907
 30
0.0
  0
VERTEX
  5
116E
  8
0
 10
100.360616616314303
 20
156.9999028010711015
 30
0.0
  0
VERTEX
  5
116F
  8
0
 10
100.373500346413195
 20
156.9999077498177087
 30
0.0
  0
VERTEX
  5
1170
  8
0
 10
100.3865346618366061
 20
156.9999146885020025
 30
0.0
  0
VERTEX
  5
1171
  8
0
 10
100.3997237369759006
 20
156.9999230136589858
 30
0.0
  0
VERTEX
  5
1172
  8
0
 10
100.4130717462223998
 20
156.9999321218234911
 30
0.0
  0
VERTEX
  5
1173
  8
0
 10
100.4265784805107984
 20
156.9999415017151136
 30
0.0
  0
VERTEX
  5
1174
  8
0
 10
100.4402253802046943
 20
156.9999510279687911
 30
0.0
  0
VERTEX
  5
1175
  8
0
 10
100.4539890844165058
 20
156.9999606761907103
 30
0.0
  0
VERTEX
  5
1176
  8
0
 10
100.4678462322424934
 20
156.9999704219870864
 30
0.0
  0
VERTEX
  5
1177
  8
0
 10
100.481773462779401
 20
156.9999802409645042
 30
0.0
  0
VERTEX
  5
1178
  8
0
 10
100.4957474151234038
 20
156.9999901087290937
 30
0.0
  0
VERTEX
  5
1179
  8
0
 10
100.5097447283709045
 20
157.0000000008872973
 30
0.0
  0
SEQEND
  5
117A
  8
0
  0
POLYLINE
  5
10C4
  8
0
 66
     1
 10
0.0
 20
0.0
 30
0.0
  0
VERTEX
  5
117B
  8
0
 10
116.9448376402391006
 20
157.3106245739043061
 30
0.0
  0
VERTEX
  5
117C
  8
0
 10
116.9352316060545007
 20
157.3103405931641987
 30
0.0
  0
VERTEX
  5
117D
  8
0
 10
116.9256271879594067
 20
157.3100566385400896
 30
0.0
  0
VERTEX
  5
117E
  8
0
 10
116.9160260020430968
 20
157.3097727361480054
 30
0.0
  0
VERTEX
  5
117F
  8
0
 10
116.9064296643953043
 20
157.3094889121040865
 30
0.0
  0
VERTEX
  5
1180
  8
0
 10
116.8968397911052932
 20
157.309205192524189
 30
0.0
  0
VERTEX
  5
1181
  8
0
 10
116.8872579982624984
 20
157.3089216035245101
 30
0.0
  0
VERTEX
  5
1182
  8
0
 10
116.8776859019564967
 20
157.3086381712209914
 30
0.0
  0
VERTEX
  5
1183
  8
0
 10
116.8681251182766943
 20
157.3083549217296877
 30
0.0
  0
VERTEX
  5
1184
  8
0
 10
116.8585772633124975
 20
157.3080718811665974
 30
0.0
  0
VERTEX
  5
1185
  8
0
 10
116.849043953153398
 20
157.3077890756478041
 30
0.0
  0
VERTEX
  5
1186
  8
0
 10
116.8395268038889014
 20
157.3075065312893059
 30
0.0
  0
VERTEX
  5
1187
  8
0
 10
116.8300274316084
 20
157.3072242742071012
 30
0.0
  0
VERTEX
  5
1188
  8
0
 10
116.8205474524013994
 20
157.3069423305173018
 30
0.0
  0
VERTEX
  5
1189
  8
0
 10
116.8110884823573059
 20
157.3066607263357923
 30
0.0
  0
VERTEX
  5
118A
  8
0
 10
116.8016521375654975
 20
157.3063794877787984
 30
0.0
  0
VERTEX
  5
118B
  8
0
 10
116.792240034115693
 20
157.3060986409622046
 30
0.0
  0
VERTEX
  5
118C
  8
0
 10
116.7828537880970998
 20
157.3058182120020945
 30
0.0
  0
VERTEX
  5
118D
  8
0
 10
116.7734950155992948
 20
157.3055382270144946
 30
0.0
  0
VERTEX
  5
118E
  8
0
 10
116.7641653327115989
 20
157.3052587121154033
 30
0.0
  0
VERTEX
  5
118F
  8
0
 10
116.7548663555237027
 20
157.3049796934207905
 30
0.0
  0
VERTEX
  5
1190
  8
0
 10
116.7455997001247994
 20
157.30470119704691
 30
0.0
  0
VERTEX
  5
1191
  8
0
 10
116.7363669826044941
 20
157.3044232491095897
 30
0.0
  0
VERTEX
  5
1192
  8
0
 10
116.7271698190523068
 20
157.3041458757249131
 30
0.0
  0
VERTEX
  5
1193
  8
0
 10
116.7180098255575018
 20
157.3038691030089069
 30
0.0
  0
VERTEX
  5
1194
  8
0
 10
116.7088886182096985
 20
157.3035929570777114
 30
0.0
  0
VERTEX
  5
1195
  8
0
 10
116.6998078130983032
 20
157.3033174640470975
 30
0.0
  0
VERTEX
  5
1196
  8
0
 10
116.6907690263126938
 20
157.3030426500334045
 30
0.0
  0
VERTEX
  5
1197
  8
0
 10
116.6817764804396944
 20
157.3027686367572073
 30
0.0
  0
VERTEX
  5
1198
  8
0
 10
116.6728501775512967
 20
157.3024961247216993
 30
0.0
  0
VERTEX
  5
1199
  8
0
 10
116.664016026986701
 20
157.302226031105107
 30
0.0
  0
VERTEX
  5
119A
  8
0
 10
116.6552999484247977
 20
157.3019592734646892
 30
0.0
  0
VERTEX
  5
119B
  8
0
 10
116.6467278615439938
 20
157.3016967693581023
 30
0.0
  0
VERTEX
  5
119C
  8
0
 10
116.6383256860230944
 20
157.3014394363426049
 30
0.0
  0
VERTEX
  5
119D
  8
0
 10
116.6301206980839993
 20
157.3011882389839968
 30
0.0
  0
VERTEX
  5
119E
  8
0
 10
116.6221768092850937
 20
157.3009454113696961
 30
0.0
  0
VERTEX
  5
119F
  8
0
 10
116.6145978672735026
 20
157.3007145714900901
 30
0.0
  0
VERTEX
  5
11A0
  8
0
 10
116.6075050384828984
 20
157.3004997708171118
 30
0.0
  0
VERTEX
  5
11A1
  8
0
 10
116.6011314424926013
 20
157.3003077208500997
 30
0.0
  0
VERTEX
  5
11A2
  8
0
 10
116.5957810923439979
 20
157.3001469610597098
 30
0.0
  0
VERTEX
  5
11A3
  8
0
 10
116.5921488899328011
 20
157.3000379692080912
 30
0.0
  0
VERTEX
  5
11A4
  8
0
 10
116.5909018018396068
 20
157.3000005855469112
 30
0.0
  0
SEQEND
  5
11A5
  8
0
  0
POLYLINE
  5
10C5
  8
0
 66
     1
 10
0.0
 20
0.0
 30
0.0
  0
VERTEX
  5
11A6
  8
0
 10
100.5097447283709045
 20
157.0000000008872973
 30
0.0
  0
VERTEX
  5
11A7
  8
0
 10
100.4937431302462016
 20
156.9509453326332107
 30
0.0
  0
VERTEX
  5
11A8
  8
0
 10
100.4777722101314055
 20
156.9018835370293061
 30
0.0
  0
VERTEX
  5
11A9
  8
0
 10
100.4618626460361952
 20
156.8528074867257942
 30
0.0
  0
VERTEX
  5
11AA
  8
0
 10
100.4460451159707048
 20
156.8037100543726865
 30
0.0
  0
VERTEX
  5
11AB
  8
0
 10
100.4303502979446989
 20
156.7545841126203072
 30
0.0
  0
VERTEX
  5
11AC
  8
0
 10
100.4148088699680983
 20
156.7054225341188101
 30
0.0
  0
VERTEX
  5
11AD
  8
0
 10
100.3994515100506959
 20
156.6562181915182066
 30
0.0
  0
VERTEX
  5
11AE
  8
0
 10
100.384304417542495
 20
156.6069651390538979
 30
0.0
  0
VERTEX
  5
11AF
  8
0
 10
100.3693700864004938
 20
156.5576636850501018
 30
0.0
  0
VERTEX
  5
11B0
  8
0
 10
100.3546431969371042
 20
156.5083161992706096
 30
0.0
  0
VERTEX
  5
11B1
  8
0
 10
100.3401184246541931
 20
156.4589250527480999
 30
0.0
  0
VERTEX
  5
11B2
  8
0
 10
100.3257904450533005
 20
156.4094926165155073
 30
0.0
  0
VERTEX
  5
11B3
  8
0
 10
100.311653933636407
 20
156.3600212616055956
 30
0.0
  0
VERTEX
  5
11B4
  8
0
 10
100.2977035659074971
 20
156.3105133590499918
 30
0.0
  0
VERTEX
  5
11B5
  8
0
 10
100.2839355573851066
 20
156.2609705217230101
 30
0.0
  0
VERTEX
  5
11B6
  8
0
 10
100.2703520670899024
 20
156.2113914364792038
 30
0.0
  0
VERTEX
  5
11B7
  8
0
 10
100.2569566876703959
 20
156.1617740843909132
 30
0.0
  0
VERTEX
  5
11B8
  8
0
 10
100.2437530117748992
 20
156.1121164465299955
 30
0.0
  0
VERTEX
  5
11B9
  8
0
 10
100.2307446320516959
 20
156.062416503968592
 30
0.0
  0
VERTEX
  5
11BA
  8
0
 10
100.2179351411493968
 20
156.0126722377789008
 30
0.0
  0
VERTEX
  5
11BB
  8
0
 10
100.2053281244324978
 20
155.9628816412937908
 30
0.0
  0
VERTEX
  5
11BC
  8
0
 10
100.1929262756325016
 20
155.913044208778814
 30
0.0
  0
VERTEX
  5
11BD
  8
0
 10
100.1807305512253947
 20
155.8631623589126036
 30
0.0
  0
VERTEX
  5
11BE
  8
0
 10
100.1687417073075039
 20
155.8132388476828112
 30
0.0
  0
VERTEX
  5
11BF
  8
0
 10
100.1569604999752983
 20
155.7632764310768891
 30
0.0
  0
VERTEX
  5
11C0
  8
0
 10
100.1453876853251046
 20
155.7132778650824889
 30
0.0
  0
VERTEX
  5
11C1
  8
0
 10
100.1340240194533067
 20
155.663245905687404
 30
0.0
  0
VERTEX
  5
11C2
  8
0
 10
100.1228706968047959
 20
155.6131831777634034
 30
0.0
  0
VERTEX
  5
11C3
  8
0
 10
100.1119363422846931
 20
155.5630900836331989
 30
0.0
  0
VERTEX
  5
11C4
  8
0
 10
100.1012357820703045
 20
155.5129651707374876
 30
0.0
  0
VERTEX
  5
11C5
  8
0
 10
100.0907840323265958
 20
155.46280692968881
 30
0.0
  0
VERTEX
  5
11C6
  8
0
 10
100.0805961092184049
 20
155.4126138510997066
 30
0.0
  0
VERTEX
  5
11C7
  8
0
 10
100.0706870289106973
 20
155.3623844255828033
 30
0.0
  0
VERTEX
  5
11C8
  8
0
 10
100.0610718075684957
 20
155.3121171437508963
 30
0.0
  0
VERTEX
  5
11C9
  8
0
 10
100.0517588897684931
 20
155.261811288820212
 30
0.0
  0
VERTEX
  5
11CA
  8
0
 10
100.0427175151882011
 20
155.2114708725374044
 30
0.0
  0
VERTEX
  5
11CB
  8
0
 10
100.0339024458474029
 20
155.1611016528092932
 30
0.0
  0
VERTEX
  5
11CC
  8
0
 10
100.0252684206979978
 20
155.1107093903248995
 30
0.0
  0
VERTEX
  5
11CD
  8
0
 10
100.0167701786923971
 20
155.0602998457733008
 30
0.0
  0
VERTEX
  5
11CE
  8
0
 10
100.0083624587825994
 20
155.0098787798436035
 30
0.0
  0
VERTEX
  5
11CF
  8
0
 10
99.9999999999206466
 20
154.9594519532249137
 30
0.0
  0
SEQEND
  5
11D0
  8
0
  0
POLYLINE
  5
10C6
  8
0
 66
     1
 10
0.0
 20
0.0
 30
0.0
  0
VERTEX
  5
11D1
  8
0
 10
183.9442719099997134
 20
105.4999999990755981
 30
0.0
  0
VERTEX
  5
11D2
  8
0
 10
183.9682517906537953
 20
105.4996024620214001
 30
0.0
  0
VERTEX
  5
11D3
  8
0
 10
183.9922214937433012
 20
105.4991203182947004
 30
0.0
  0
VERTEX
  5
11D4
  8
0
 10
184.0161708417035129
 20
105.4984689612229971
 30
0.0
  0
VERTEX
  5
11D5
  8
0
 10
184.0400896569697125
 20
105.4975637841338028
 30
0.0
  0
VERTEX
  5
11D6
  8
0
 10
184.0639678557207048
 20
105.4963246918768931
 30
0.0
  0
VERTEX
  5
11D7
  8
0
 10
184.0877966019191945
 20
105.4947316405855986
 30
0.0
  0
VERTEX
  5
11D8
  8
0
 10
184.1115679465476944
 20
105.492807275421896
 30
0.0
  0
VERTEX
  5
11D9
  8
0
 10
184.1352739595351977
 20
105.4905751533538023
 30
0.0
  0
VERTEX
  5
11DA
  8
0
 10
184.1589067110978988
 20
105.4880588246509063
 30
0.0
  0
VERTEX
  5
11DB
  8
0
 10
184.1824585581194924
 20
105.4852751566159981
 30
0.0
  0
VERTEX
  5
11DC
  8
0
 10
184.2059226822530036
 20
105.482221789046207
 30
0.0
  0
VERTEX
  5
11DD
  8
0
 10
184.2292924125763136
 20
105.4788929248836951
 30
0.0
  0
VERTEX
  5
11DE
  8
0
 10
184.2525610781669911
 20
105.4752827670709934
 30
0.0
  0
VERTEX
  5
11DF
  8
0
 10
184.2757220309360093
 20
105.4713856498799061
 30
0.0
  0
VERTEX
  5
11E0
  8
0
 10
184.2987691851784007
 20
105.4671991422944046
 30
0.0
  0
VERTEX
  5
11E1
  8
0
 10
184.3216970390689937
 20
105.4627241716413977
 30
0.0
  0
VERTEX
  5
11E2
  8
0
 10
184.3445001179156861
 20
105.4579618213146972
 30
0.0
  0
VERTEX
  5
11E3
  8
0
 10
184.3671729470268019
 20
105.4529131747082005
 30
0.0
  0
VERTEX
  5
11E4
  8
0
 10
184.3897101070973861
 20
105.4475790051025967
 30
0.0
  0
VERTEX
  5
11E5
  8
0
 10
184.4121065903125043
 20
105.441957781838596
 30
0.0
  0
VERTEX
  5
11E6
  8
0
 10
184.4343575741310133
 20
105.4360469369045035
 30
0.0
  0
VERTEX
  5
11E7
  8
0
 10
184.4564582369038135
 20
105.4298438972935941
 30
0.0
  0
VERTEX
  5
11E8
  8
0
 10
184.4784037572188993
 20
105.4233460905849
 30
0.0
  0
VERTEX
  5
11E9
  8
0
 10
184.500189677613406
 20
105.4165518444328029
 30
0.0
  0
VERTEX
  5
11EA
  8
0
 10
184.5218126386627091
 20
105.4094622020278962
 30
0.0
  0
VERTEX
  5
11EB
  8
0
 10
184.5432694871998933
 20
105.4020787166518005
 30
0.0
  0
VERTEX
  5
11EC
  8
0
 10
184.5645570700577025
 20
105.3944029415861934
 30
0.0
  0
VERTEX
  5
11ED
  8
0
 10
184.5856722338697864
 20
105.386436375683104
 30
0.0
  0
VERTEX
  5
11EE
  8
0
 10
184.6066118183975959
 20
105.3781786433016947
 30
0.0
  0
VERTEX
  5
11EF
  8
0
 10
184.6273726549572132
 20
105.3696270649155053
 30
0.0
  0
VERTEX
  5
11F0
  8
0
 10
184.6479515743455977
 20
105.3607788195429009
 30
0.0
  0
VERTEX
  5
11F1
  8
0
 10
184.6683454073603059
 20
105.3516310862024028
 30
0.0
  0
VERTEX
  5
11F2
  8
0
 10
184.6885509101230127
 20
105.3421807100439054
 30
0.0
  0
VERTEX
  5
11F3
  8
0
 10
184.708564156401394
 20
105.3324214854620067
 30
0.0
  0
VERTEX
  5
11F4
  8
0
 10
184.7283808543992905
 20
105.3223455724426003
 30
0.0
  0
VERTEX
  5
11F5
  8
0
 10
184.7479967088482056
 20
105.3119451154464059
 30
0.0
  0
VERTEX
  5
11F6
  8
0
 10
184.7674074244795008
 20
105.3012122589341004
 30
0.0
  0
VERTEX
  5
11F7
  8
0
 10
184.7866090562417014
 20
105.2901402200663057
 30
0.0
  0
VERTEX
  5
11F8
  8
0
 10
184.8056002283281032
 20
105.2787300854902952
 30
0.0
  0
VERTEX
  5
11F9
  8
0
 10
184.824380709051411
 20
105.2669864462423988
 30
0.0
  0
VERTEX
  5
11FA
  8
0
 10
184.8429502719639004
 20
105.2549139094077049
 30
0.0
  0
VERTEX
  5
11FB
  8
0
 10
184.8613086906181024
 20
105.2425170820713021
 30
0.0
  0
VERTEX
  5
11FC
  8
0
 10
184.8794557766088076
 20
105.2298006239477957
 30
0.0
  0
VERTEX
  5
11FD
  8
0
 10
184.8973922737139901
 20
105.2167704843713949
 30
0.0
  0
VERTEX
  5
11FE
  8
0
 10
184.9151198908284073
 20
105.2034339478572065
 30
0.0
  0
VERTEX
  5
11FF
  8
0
 10
184.9326403814787056
 20
105.1897983606661029
 30
0.0
  0
VERTEX
  5
1200
  8
0
 10
184.9499554991911054
 20
105.1758710690587009
 30
0.0
  0
VERTEX
  5
1201
  8
0
 10
184.967066997492509
 20
105.1616594192959013
 30
0.0
  0
VERTEX
  5
1202
  8
0
 10
184.9839764001258118
 20
105.1471701498526983
 30
0.0
  0
VERTEX
  5
1203
  8
0
 10
185.0006823449359104
 20
105.1324023659048947
 30
0.0
  0
VERTEX
  5
1204
  8
0
 10
185.0171815006239058
 20
105.1173499641729023
 30
0.0
  0
VERTEX
  5
1205
  8
0
 10
185.0334704978965874
 20
105.1020067408825014
 30
0.0
  0
VERTEX
  5
1206
  8
0
 10
185.049545967461313
 20
105.0863664922597991
 30
0.0
  0
VERTEX
  5
1207
  8
0
 10
185.0654048028254977
 20
105.0704236930508984
 30
0.0
  0
VERTEX
  5
1208
  8
0
 10
185.0810474645064119
 20
105.0541820276064016
 30
0.0
  0
VERTEX
  5
1209
  8
0
 10
185.0964769833232992
 20
105.0376518164993058
 30
0.0
  0
VERTEX
  5
120A
  8
0
 10
185.1116964468199058
 20
105.0208435267574032
 30
0.0
  0
VERTEX
  5
120B
  8
0
 10
185.126708942539608
 20
105.0037676254085994
 30
0.0
  0
VERTEX
  5
120C
  8
0
 10
185.141517558026095
 20
104.9864345794806013
 30
0.0
  0
VERTEX
  5
120D
  8
0
 10
185.1561250728146888
 20
104.9688540186058958
 30
0.0
  0
VERTEX
  5
120E
  8
0
 10
185.1705322118673962
 20
104.9510299865553975
 30
0.0
  0
VERTEX
  5
120F
  8
0
 10
185.1847388594331107
 20
104.9329642414147941
 30
0.0
  0
VERTEX
  5
1210
  8
0
 10
185.1987448972386119
 20
104.9146585344139027
 30
0.0
  0
VERTEX
  5
1211
  8
0
 10
185.2125502070109917
 20
104.8961146167823983
 30
0.0
  0
VERTEX
  5
1212
  8
0
 10
185.2261546704772002
 20
104.8773342397499988
 30
0.0
  0
VERTEX
  5
1213
  8
0
 10
185.239558169364301
 20
104.8583191545466065
 30
0.0
  0
VERTEX
  5
1214
  8
0
 10
185.2527605782663898
 20
104.8390711306068965
 30
0.0
  0
VERTEX
  5
1215
  8
0
 10
185.2657609468762132
 20
104.8195940428216062
 30
0.0
  0
VERTEX
  5
1216
  8
0
 10
185.2785567429237119
 20
104.799895803835895
 30
0.0
  0
VERTEX
  5
1217
  8
0
 10
185.2911452551587956
 20
104.7799847831198008
 30
0.0
  0
VERTEX
  5
1218
  8
0
 10
185.30352377233109
 20
104.7598693501431057
 30
0.0
  0
VERTEX
  5
1219
  8
0
 10
185.3156895831903057
 20
104.7395578743758051
 30
0.0
  0
VERTEX
  5
121A
  8
0
 10
185.3276399764860969
 20
104.7190587252876952
 30
0.0
  0
VERTEX
  5
121B
  8
0
 10
185.3393722409682027
 20
104.6983802723488992
 30
0.0
  0
VERTEX
  5
121C
  8
0
 10
185.3508836653863909
 20
104.6775308850291992
 30
0.0
  0
VERTEX
  5
121D
  8
0
 10
185.3621715384902018
 20
104.6565189327986047
 30
0.0
  0
VERTEX
  5
121E
  8
0
 10
185.3732331490294882
 20
104.6353527851269973
 30
0.0
  0
VERTEX
  5
121F
  8
0
 10
185.3840657857539043
 20
104.6140408114843012
 30
0.0
  0
VERTEX
  5
1220
  8
0
 10
185.3946667597062117
 20
104.5925913593793979
 30
0.0
  0
VERTEX
  5
1221
  8
0
 10
185.4050347811104871
 20
104.5710113979786939
 30
0.0
  0
VERTEX
  5
1222
  8
0
 10
185.4151707651039089
 20
104.5493057243754009
 30
0.0
  0
VERTEX
  5
1223
  8
0
 10
185.4250758207857928
 20
104.5274789445885943
 30
0.0
  0
VERTEX
  5
1224
  8
0
 10
185.4347504020801125
 20
104.5055358875827949
 30
0.0
  0
VERTEX
  5
1225
  8
0
 10
185.444188125916412
 20
104.4834837088362036
 30
0.0
  0
VERTEX
  5
1226
  8
0
 10
185.4533785422028132
 20
104.4613309477656031
 30
0.0
  0
VERTEX
  5
1227
  8
0
 10
185.4623111469657033
 20
104.439086162122905
 30
0.0
  0
VERTEX
  5
1228
  8
0
 10
185.4709754362318108
 20
104.4167579096597933
 30
0.0
  0
VERTEX
  5
1229
  8
0
 10
185.479360895850192
 20
104.3943546799353044
 30
0.0
  0
VERTEX
  5
122A
  8
0
 10
185.4874566212897093
 20
104.3718823468499011
 30
0.0
  0
VERTEX
  5
122B
  8
0
 10
185.4952512039332078
 20
104.3493434067788996
 30
0.0
  0
VERTEX
  5
122C
  8
0
 10
185.5027332017774881
 20
104.3267401324033017
 30
0.0
  0
VERTEX
  5
122D
  8
0
 10
185.5098911728196072
 20
104.3040747964037962
 30
0.0
  0
VERTEX
  5
122E
  8
0
 10
185.5167129946428872
 20
104.2813506078282018
 30
0.0
  0
VERTEX
  5
122F
  8
0
 10
185.523180237579993
 20
104.2585794555970011
 30
0.0
  0
VERTEX
  5
1230
  8
0
 10
185.5292710535829031
 20
104.2357779329158944
 30
0.0
  0
VERTEX
  5
1231
  8
0
 10
185.534963560836502
 20
104.2129626794604036
 30
0.0
  0
VERTEX
  5
1232
  8
0
 10
185.5402358775255038
 20
104.1901503349057947
 30
0.0
  0
VERTEX
  5
1233
  8
0
 10
185.5450661218349069
 20
104.1673575389275044
 30
0.0
  0
VERTEX
  5
1234
  8
0
 10
185.5494324119493967
 20
104.1446009312008982
 30
0.0
  0
VERTEX
  5
1235
  8
0
 10
185.5533128660538864
 20
104.1218971514011997
 30
0.0
  0
VERTEX
  5
1236
  8
0
 10
185.5566856023330899
 20
104.0992628392039023
 30
0.0
  0
VERTEX
  5
1237
  8
0
 10
185.5595287389720056
 20
104.0767146342844001
 30
0.0
  0
VERTEX
  5
1238
  8
0
 10
185.5618203941554043
 20
104.0542691763179022
 30
0.0
  0
VERTEX
  5
1239
  8
0
 10
185.563538186187202
 20
104.0319435026754036
 30
0.0
  0
VERTEX
  5
123A
  8
0
 10
185.5646541877520121
 20
104.009759062716995
 30
0.0
  0
VERTEX
  5
123B
  8
0
 10
185.5651370158763029
 20
103.9877400550580973
 30
0.0
  0
VERTEX
  5
123C
  8
0
 10
185.5649552352398928
 20
103.9659107199602062
 30
0.0
  0
VERTEX
  5
123D
  8
0
 10
185.5640774105226001
 20
103.9442952976846044
 30
0.0
  0
VERTEX
  5
123E
  8
0
 10
185.5624721064044138
 20
103.9229180284929015
 30
0.0
  0
VERTEX
  5
123F
  8
0
 10
185.5601078875652092
 20
103.9018031526463943
 30
0.0
  0
VERTEX
  5
1240
  8
0
 10
185.5569533186848048
 20
103.8809749104065929
 30
0.0
  0
VERTEX
  5
1241
  8
0
 10
185.5529775933999872
 20
103.8604582913987002
 30
0.0
  0
VERTEX
  5
1242
  8
0
 10
185.5481572666429031
 20
103.8402870557861064
 30
0.0
  0
VERTEX
  5
1243
  8
0
 10
185.5424736662631915
 20
103.8205006503739014
 30
0.0
  0
VERTEX
  5
1244
  8
0
 10
185.5359082007304039
 20
103.8011386180209001
 30
0.0
  0
VERTEX
  5
1245
  8
0
 10
185.5284422785138077
 20
103.7822405015859033
 30
0.0
  0
VERTEX
  5
1246
  8
0
 10
185.5200573080830111
 20
103.7638458439276974
 30
0.0
  0
VERTEX
  5
1247
  8
0
 10
185.5107346979073952
 20
103.7459941879052963
 30
0.0
  0
VERTEX
  5
1248
  8
0
 10
185.5004558564565116
 20
103.7287250763773017
 30
0.0
  0
VERTEX
  5
1249
  8
0
 10
185.4892072484084053
 20
103.7120753642651039
 30
0.0
  0
VERTEX
  5
124A
  8
0
 10
185.4770085032282907
 20
103.6960642757152016
 30
0.0
  0
VERTEX
  5
124B
  8
0
 10
185.463892615855201
 20
103.6807039296378008
 30
0.0
  0
VERTEX
  5
124C
  8
0
 10
185.4498926180702938
 20
103.666006425357196
 30
0.0
  0
VERTEX
  5
124D
  8
0
 10
185.4350415416548969
 20
103.6519838621975964
 30
0.0
  0
VERTEX
  5
124E
  8
0
 10
185.4193724183901963
 20
103.6386483394833959
 30
0.0
  0
VERTEX
  5
124F
  8
0
 10
185.4029182800574063
 20
103.6260119565388038
 30
0.0
  0
VERTEX
  5
1250
  8
0
 10
185.385712454279286
 20
103.6140860403236985
 30
0.0
  0
VERTEX
  5
1251
  8
0
 10
185.3677944933452011
 20
103.6028656668240018
 30
0.0
  0
VERTEX
  5
1252
  8
0
 10
185.3492098682424114
 20
103.5923304598561003
 30
0.0
  0
VERTEX
  5
1253
  8
0
 10
185.3300042845571056
 20
103.5824594307600961
 30
0.0
  0
VERTEX
  5
1254
  8
0
 10
185.3102234478753871
 20
103.5732315908762047
 30
0.0
  0
VERTEX
  5
1255
  8
0
 10
185.2899130637835015
 20
103.5646259515444001
 30
0.0
  0
VERTEX
  5
1256
  8
0
 10
185.2691188378676088
 20
103.5566215241049974
 30
0.0
  0
VERTEX
  5
1257
  8
0
 10
185.2478864592999912
 20
103.549197347232095
 30
0.0
  0
VERTEX
  5
1258
  8
0
 10
185.2262580464008863
 20
103.5423384061709982
 30
0.0
  0
VERTEX
  5
1259
  8
0
 10
185.204267705227295
 20
103.5360430290581064
 30
0.0
  0
VERTEX
  5
125A
  8
0
 10
185.1819484506816025
 20
103.5303113611394963
 30
0.0
  0
VERTEX
  5
125B
  8
0
 10
185.1593332976661941
 20
103.5251435476608037
 30
0.0
  0
VERTEX
  5
125C
  8
0
 10
185.1364552610831993
 20
103.5205397338682047
 30
0.0
  0
VERTEX
  5
125D
  8
0
 10
185.1133473558352023
 20
103.5165000650073068
 30
0.0
  0
VERTEX
  5
125E
  8
0
 10
185.0900425968241905
 20
103.5130246863243002
 30
0.0
  0
VERTEX
  5
125F
  8
0
 10
185.0665733277828053
 20
103.5101099575577024
 30
0.0
  0
VERTEX
  5
1260
  8
0
 10
185.0429643349837079
 20
103.5077096131568055
 30
0.0
  0
VERTEX
  5
1261
  8
0
 10
185.0192356427401137
 20
103.5057505293487026
 30
0.0
  0
VERTEX
  5
1262
  8
0
 10
184.9954072009593062
 20
103.5041591627011996
 30
0.0
  0
VERTEX
  5
1263
  8
0
 10
184.9714989595487111
 20
103.5028619697822023
 30
0.0
  0
VERTEX
  5
1264
  8
0
 10
184.9475308684158108
 20
103.5017854071595025
 30
0.0
  0
VERTEX
  5
1265
  8
0
 10
184.9235228774680877
 20
103.5008559314011052
 30
0.0
  0
VERTEX
  5
1266
  8
0
 10
184.8994949366129106
 20
103.4999999990748023
 30
0.0
  0
SEQEND
  5
1267
  8
0
  0
POLYLINE
  5
10C7
  8
0
 66
     1
 10
0.0
 20
0.0
 30
0.0
  0
VERTEX
  5
1268
  8
0
 10
185.4522724801836091
 20
100.9999999990751007
 30
0.0
  0
VERTEX
  5
1269
  8
0
 10
185.4707027058634878
 20
100.9996587916972999
 30
0.0
  0
VERTEX
  5
126A
  8
0
 10
185.4891237337301106
 20
100.9992529895150994
 30
0.0
  0
VERTEX
  5
126B
  8
0
 10
185.5075263659701079
 20
100.9987179977239009
 30
0.0
  0
VERTEX
  5
126C
  8
0
 10
185.5259014047701953
 20
100.9979892215192052
 30
0.0
  0
VERTEX
  5
126D
  8
0
 10
185.544239652493502
 20
100.9970021671805966
 30
0.0
  0
VERTEX
  5
126E
  8
0
 10
185.5625319501995989
 20
100.9957145282911029
 30
0.0
  0
VERTEX
  5
126F
  8
0
 10
185.5807692259436124
 20
100.9941338785098992
 30
0.0
  0
VERTEX
  5
1270
  8
0
 10
185.5989424196540085
 20
100.9922745994571045
 30
0.0
  0
VERTEX
  5
1271
  8
0
 10
185.6170424712597082
 20
100.9901510727530933
 30
0.0
  0
VERTEX
  5
1272
  8
0
 10
185.6350603227591023
 20
100.9877775422871053
 30
0.0
  0
VERTEX
  5
1273
  8
0
 10
185.6529870346942062
 20
100.985160363816405
 30
0.0
  0
VERTEX
  5
1274
  8
0
 10
185.6708138481743902
 20
100.9822938777742962
 30
0.0
  0
VERTEX
  5
1275
  8
0
 10
185.6885320194766109
 20
100.9791714153235063
 30
0.0
  0
VERTEX
  5
1276
  8
0
 10
185.7061328048775977
 20
100.9757863076268052
 30
0.0
  0
VERTEX
  5
1277
  8
0
 10
185.7236074681430011
 20
100.9721319664173933
 30
0.0
  0
VERTEX
  5
1278
  8
0
 10
185.740947505442989
 20
100.9682043038462069
 30
0.0
  0
VERTEX
  5
1279
  8
0
 10
185.7581446846913025
 20
100.9640021557174947
 30
0.0
  0
VERTEX
  5
127A
  8
0
 10
185.7751907892181009
 20
100.9595245237029957
 30
0.0
  0
VERTEX
  5
127B
  8
0
 10
185.7920776023537996
 20
100.9547704094746052
 30
0.0
  0
VERTEX
  5
127C
  8
0
 10
185.8087969248938123
 20
100.9497387924159
 30
0.0
  0
VERTEX
  5
127D
  8
0
 10
185.8253409463258947
 20
100.9444281558800043
 30
0.0
  0
VERTEX
  5
127E
  8
0
 10
185.8417022377381898
 20
100.9388364962396025
 30
0.0
  0
VERTEX
  5
127F
  8
0
 10
185.8578733862659931
 20
100.9329617893890969
 30
0.0
  0
VERTEX
  5
1280
  8
0
 10
185.8738469790440888
 20
100.9268020112233017
 30
0.0
  0
VERTEX
  5
1281
  8
0
 10
185.8896156323351079
 20
100.920355167506699
 30
0.0
  0
VERTEX
  5
1282
  8
0
 10
185.9051725078595894
 20
100.9136198233693023
 30
0.0
  0
VERTEX
  5
1283
  8
0
 10
185.9205112514767109
 20
100.906595040422701
 30
0.0
  0
VERTEX
  5
1284
  8
0
 10
185.9356255258545048
 20
100.8992798975163936
 30
0.0
  0
VERTEX
  5
1285
  8
0
 10
185.9505089936610034
 20
100.8916734734993952
 30
0.0
  0
VERTEX
  5
1286
  8
0
 10
185.9651553610858059
 20
100.883774880416297
 30
0.0
  0
VERTEX
  5
1287
  8
0
 10
185.9795591128506089
 20
100.8755838241241065
 30
0.0
  0
VERTEX
  5
1288
  8
0
 10
185.9937154056169106
 20
100.8671005229900999
 30
0.0
  0
VERTEX
  5
1289
  8
0
 10
186.0076194181042979
 20
100.8583252122061964
 30
0.0
  0
VERTEX
  5
128A
  8
0
 10
186.0212663290319028
 20
100.8492581269640027
 30
0.0
  0
VERTEX
  5
128B
  8
0
 10
186.0346513514060973
 20
100.8398995223142975
 30
0.0
  0
VERTEX
  5
128C
  8
0
 10
186.0477703727555081
 20
100.8302500439880021
 30
0.0
  0
VERTEX
  5
128D
  8
0
 10
186.0606198972500067
 20
100.8203106948723047
 30
0.0
  0
VERTEX
  5
128E
  8
0
 10
186.0731964517414951
 20
100.8100824909917037
 30
0.0
  0
VERTEX
  5
128F
  8
0
 10
186.0854965630819038
 20
100.799566448370598
 30
0.0
  0
VERTEX
  5
1290
  8
0
 10
186.0975168132420947
 20
100.788763649153907
 30
0.0
  0
VERTEX
  5
1291
  8
0
 10
186.109255256097498
 20
100.7776769411749029
 30
0.0
  0
VERTEX
  5
1292
  8
0
 10
186.1207115406691912
 20
100.7663110857944986
 30
0.0
  0
VERTEX
  5
1293
  8
0
 10
186.1318853957957913
 20
100.7546709401220966
 30
0.0
  0
VERTEX
  5
1294
  8
0
 10
186.1427765503158014
 20
100.7427613612670001
 30
0.0
  0
VERTEX
  5
1295
  8
0
 10
186.1533847405322888
 20
100.7305872007255942
 30
0.0
  0
VERTEX
  5
1296
  8
0
 10
186.1637101172273105
 20
100.7181529983278949
 30
0.0
  0
VERTEX
  5
1297
  8
0
 10
186.1737534551187139
 20
100.7054628247370971
 30
0.0
  0
VERTEX
  5
1298
  8
0
 10
186.1835155804903081
 20
100.692520711841297
 30
0.0
  0
VERTEX
  5
1299
  8
0
 10
186.1929973196259027
 20
100.6793306915289037
 30
0.0
  0
VERTEX
  5
129A
  8
0
 10
186.2021994983414004
 20
100.6658967951800037
 30
0.0
  0
VERTEX
  5
129B
  8
0
 10
186.211122177066386
 20
100.6522222225497956
 30
0.0
  0
VERTEX
  5
129C
  8
0
 10
186.2197630924289058
 20
100.6383076484846981
 30
0.0
  0
VERTEX
  5
129D
  8
0
 10
186.228119541680087
 20
100.624153270429602
 30
0.0
  0
VERTEX
  5
129E
  8
0
 10
186.2361888220711137
 20
100.6097592858296963
 30
0.0
  0
VERTEX
  5
129F
  8
0
 10
186.2439682308533975
 20
100.595125892130099
 30
0.0
  0
VERTEX
  5
12A0
  8
0
 10
186.2514550961101065
 20
100.5802533212507939
 30
0.0
  0
VERTEX
  5
12A1
  8
0
 10
186.2586506775392934
 20
100.565146201255402
 30
0.0
  0
VERTEX
  5
12A2
  8
0
 10
186.2655639811542017
 20
100.5498178217677037
 30
0.0
  0
VERTEX
  5
12A3
  8
0
 10
186.2722049185937863
 20
100.5342824850384034
 30
0.0
  0
VERTEX
  5
12A4
  8
0
 10
186.2785834014966042
 20
100.5185544933181063
 30
0.0
  0
VERTEX
  5
12A5
  8
0
 10
186.2847093415012978
 20
100.5026481488576025
 30
0.0
  0
VERTEX
  5
12A6
  8
0
 10
186.2905926502469072
 20
100.4865777539075964
 30
0.0
  0
VERTEX
  5
12A7
  8
0
 10
186.2962432099440093
 20
100.4703575760999996
 30
0.0
  0
VERTEX
  5
12A8
  8
0
 10
186.3016660187662126
 20
100.4539961375023012
 30
0.0
  0
VERTEX
  5
12A9
  8
0
 10
186.3068557781759864
 20
100.4374898471688056
 30
0.0
  0
VERTEX
  5
12AA
  8
0
 10
186.3118058849395027
 20
100.4208335793129976
 30
0.0
  0
VERTEX
  5
12AB
  8
0
 10
186.3165099373478029
 20
100.4040224472446994
 30
0.0
  0
VERTEX
  5
12AC
  8
0
 10
186.3209677736726064
 20
100.3870589675973974
 30
0.0
  0
VERTEX
  5
12AD
  8
0
 10
186.3251865203156115
 20
100.3699543038875959
 30
0.0
  0
VERTEX
  5
12AE
  8
0
 10
186.3291737164178983
 20
100.3527201093206003
 30
0.0
  0
VERTEX
  5
12AF
  8
0
 10
186.3329369011212009
 20
100.335368037101702
 30
0.0
  0
VERTEX
  5
12B0
  8
0
 10
186.33648366439499
 20
100.317908905279495
 30
0.0
  0
VERTEX
  5
12B1
  8
0
 10
186.3398218399426014
 20
100.3003495271016021
 30
0.0
  0
VERTEX
  5
12B2
  8
0
 10
186.3429593344380919
 20
100.2826955168279994
 30
0.0
  0
VERTEX
  5
12B3
  8
0
 10
186.3459040545687913
 20
100.2649524884978973
 30
0.0
  0
VERTEX
  5
12B4
  8
0
 10
186.3486639070225976
 20
100.2471260561505062
 30
0.0
  0
VERTEX
  5
12B5
  8
0
 10
186.3512449780166094
 20
100.2292217068809066
 30
0.0
  0
VERTEX
  5
12B6
  8
0
 10
186.3536416335346075
 20
100.2112441105148974
 30
0.0
  0
VERTEX
  5
12B7
  8
0
 10
186.3558435958420034
 20
100.1931976130652941
 30
0.0
  0
VERTEX
  5
12B8
  8
0
 10
186.3578405755945084
 20
100.1750865597351066
 30
0.0
  0
VERTEX
  5
12B9
  8
0
 10
186.3596222834480898
 20
100.1569152957273019
 30
0.0
  0
VERTEX
  5
12BA
  8
0
 10
186.3611784300586862
 20
100.1386881662451032
 30
0.0
  0
VERTEX
  5
12BB
  8
0
 10
186.3624987260820944
 20
100.120409516491506
 30
0.0
  0
VERTEX
  5
12BC
  8
0
 10
186.3635752875827052
 20
100.1020840164189991
 30
0.0
  0
VERTEX
  5
12BD
  8
0
 10
186.364421384470802
 20
100.0837191919179929
 30
0.0
  0
VERTEX
  5
12BE
  8
0
 10
186.3650612716890009
 20
100.065324051946007
 30
0.0
  0
VERTEX
  5
12BF
  8
0
 10
186.3655192977790875
 20
100.0469076180972934
 30
0.0
  0
VERTEX
  5
12C0
  8
0
 10
186.3658198112829041
 20
100.0284789119661042
 30
0.0
  0
VERTEX
  5
12C1
  8
0
 10
186.3659849448827117
 20
100.0100467576823036
 30
0.0
  0
VERTEX
  5
12C2
  8
0
 10
186.3660085861500875
 20
99.9916174623395051
 30
0.0
  0
VERTEX
  5
12C3
  8
0
 10
186.3658651457232907
 20
99.9731955973626754
 30
0.0
  0
VERTEX
  5
12C4
  8
0
 10
186.3655286483192128
 20
99.954785699785802
 30
0.0
  0
VERTEX
  5
12C5
  8
0
 10
186.3649784963475042
 20
99.9363920727938932
 30
0.0
  0
VERTEX
  5
12C6
  8
0
 10
186.3642204093025896
 20
99.9180178751738168
 30
0.0
  0
VERTEX
  5
12C7
  8
0
 10
186.3632681444809975
 20
99.8996659161885958
 30
0.0
  0
VERTEX
  5
12C8
  8
0
 10
186.3621354611753134
 20
99.8813390050145955
 30
0.0
  0
VERTEX
  5
12C9
  8
0
 10
186.3608350227677874
 20
99.8630402821871996
 30
0.0
  0
VERTEX
  5
12CA
  8
0
 10
186.3593654642191098
 20
99.8447771298726252
 30
0.0
  0
VERTEX
  5
12CB
  8
0
 10
186.3577157179607013
 20
99.8265598638917169
 30
0.0
  0
VERTEX
  5
12CC
  8
0
 10
186.3558745227308009
 20
99.808398858630369
 30
0.0
  0
VERTEX
  5
12CD
  8
0
 10
186.3538306172675902
 20
99.7903044884744617
 30
0.0
  0
VERTEX
  5
12CE
  8
0
 10
186.3515727403093933
 20
99.7722871278099035
 30
0.0
  0
VERTEX
  5
12CF
  8
0
 10
186.3490896305945057
 20
99.7543571510225888
 30
0.0
  0
VERTEX
  5
12D0
  8
0
 10
186.3463723094581894
 20
99.7365236823662542
 30
0.0
  0
VERTEX
  5
12D1
  8
0
 10
186.3434249406761865
 20
99.7187886482466439
 30
0.0
  0
VERTEX
  5
12D2
  8
0
 10
186.3402563820961859
 20
99.7011514042213065
 30
0.0
  0
VERTEX
  5
12D3
  8
0
 10
186.3368754974212038
 20
99.683611302641026
 30
0.0
  0
VERTEX
  5
12D4
  8
0
 10
186.3332911503543983
 20
99.6661676958566147
 30
0.0
  0
VERTEX
  5
12D5
  8
0
 10
186.3295110345841863
 20
99.6488206871470652
 30
0.0
  0
VERTEX
  5
12D6
  8
0
 10
186.3255312933459891
 20
99.631577792998911
 30
0.0
  0
VERTEX
  5
12D7
  8
0
 10
186.3213414887767954
 20
99.6144507537197654
 30
0.0
  0
VERTEX
  5
12D8
  8
0
 10
186.3169311065618956
 20
99.5974513586849639
 30
0.0
  0
VERTEX
  5
12D9
  8
0
 10
186.3122896323864097
 20
99.580591397269842
 30
0.0
  0
VERTEX
  5
12DA
  8
0
 10
186.3074065519357134
 20
99.5638826588496642
 30
0.0
  0
VERTEX
  5
12DB
  8
0
 10
186.3022724718489087
 20
99.5473358146928433
 30
0.0
  0
VERTEX
  5
12DC
  8
0
 10
186.2968847317804091
 20
99.5309548201539656
 30
0.0
  0
VERTEX
  5
12DD
  8
0
 10
186.2912431735908001
 20
99.5147411347368944
 30
0.0
  0
VERTEX
  5
12DE
  8
0
 10
186.2853476433070909
 20
99.4986962137896143
 30
0.0
  0
VERTEX
  5
12DF
  8
0
 10
186.2791979869562056
 20
99.4828215126601947
 30
0.0
  0
VERTEX
  5
12E0
  8
0
 10
186.2727939968170858
 20
99.4671185896195595
 30
0.0
  0
VERTEX
  5
12E1
  8
0
 10
186.2661337007120039
 20
99.4515923817275933
 30
0.0
  0
VERTEX
  5
12E2
  8
0
 10
186.259213006442593
 20
99.436251885707776
 30
0.0
  0
VERTEX
  5
12E3
  8
0
 10
186.252027696198013
 20
99.4211063388218008
 30
0.0
  0
VERTEX
  5
12E4
  8
0
 10
186.2445735521671111
 20
99.4061649783314323
 30
0.0
  0
VERTEX
  5
12E5
  8
0
 10
186.2368463565387913
 20
99.3914370414984063
 30
0.0
  0
VERTEX
  5
12E6
  8
0
 10
186.2288418915020998
 20
99.376931765584402
 30
0.0
  0
VERTEX
  5
12E7
  8
0
 10
186.2205559392459975
 20
99.362658387851198
 30
0.0
  0
VERTEX
  5
12E8
  8
0
 10
186.2119842819593885
 20
99.348626145560516
 30
0.0
  0
VERTEX
  5
12E9
  8
0
 10
186.2031227018312052
 20
99.3348442759740635
 30
0.0
  0
VERTEX
  5
12EA
  8
0
 10
186.1939669810504085
 20
99.321322016353605
 30
0.0
  0
VERTEX
  5
12EB
  8
0
 10
186.1845130289839858
 20
99.3080684395851563
 30
0.0
  0
VERTEX
  5
12EC
  8
0
 10
186.1747599217210904
 20
99.2950885256122859
 30
0.0
  0
VERTEX
  5
12ED
  8
0
 10
186.1647100424289079
 20
99.2823829800283733
 30
0.0
  0
VERTEX
  5
12EE
  8
0
 10
186.1543659295402904
 20
99.2699523077482837
 30
0.0
  0
VERTEX
  5
12EF
  8
0
 10
186.1437301214882041
 20
99.2577970136867691
 30
0.0
  0
VERTEX
  5
12F0
  8
0
 10
186.1328051567053876
 20
99.2459176027586807
 30
0.0
  0
VERTEX
  5
12F1
  8
0
 10
186.1215935736246934
 20
99.2343145798788271
 30
0.0
  0
VERTEX
  5
12F2
  8
0
 10
186.1100979106788884
 20
99.2229884499620454
 30
0.0
  0
VERTEX
  5
12F3
  8
0
 10
186.0983207063009104
 20
99.2119397179231157
 30
0.0
  0
VERTEX
  5
12F4
  8
0
 10
186.0862644989236969
 20
99.2011688886768468
 30
0.0
  0
VERTEX
  5
12F5
  8
0
 10
186.0739318419772985
 20
99.1906764884102046
 30
0.0
  0
VERTEX
  5
12F6
  8
0
 10
186.0613257975776946
 20
99.1804637648212264
 30
0.0
  0
VERTEX
  5
12F7
  8
0
 10
186.0484500485891033
 20
99.1705328460671751
 30
0.0
  0
VERTEX
  5
12F8
  8
0
 10
186.0353083155646914
 20
99.1608859137625842
 30
0.0
  0
VERTEX
  5
12F9
  8
0
 10
186.0219043190573984
 20
99.1515251495219871
 30
0.0
  0
VERTEX
  5
12FA
  8
0
 10
186.0082417796205903
 20
99.1424527349598605
 30
0.0
  0
VERTEX
  5
12FB
  8
0
 10
185.9943244178072064
 20
99.1336708516907663
 30
0.0
  0
VERTEX
  5
12FC
  8
0
 10
185.9801559541704137
 20
99.1251816813291668
 30
0.0
  0
VERTEX
  5
12FD
  8
0
 10
185.9657401092632938
 20
99.1169874054896241
 30
0.0
  0
VERTEX
  5
12FE
  8
0
 10
185.9510806036388999
 20
99.1090902057866145
 30
0.0
  0
VERTEX
  5
12FF
  8
0
 10
185.9361814367449028
 20
99.1014917424949289
 30
0.0
  0
VERTEX
  5
1300
  8
0
 10
185.9210488415826887
 20
99.0941895006869657
 30
0.0
  0
VERTEX
  5
1301
  8
0
 10
185.9056901238967896
 20
99.0871789601474404
 30
0.0
  0
VERTEX
  5
1302
  8
0
 10
185.8901125962318019
 20
99.0804555879494444
 30
0.0
  0
VERTEX
  5
1303
  8
0
 10
185.8743235711324076
 20
99.0740148511659697
 30
0.0
  0
VERTEX
  5
1304
  8
0
 10
185.8583303611430892
 20
99.0678522168701363
 30
0.0
  0
VERTEX
  5
1305
  8
0
 10
185.8421402788086141
 20
99.0619631521349504
 30
0.0
  0
VERTEX
  5
1306
  8
0
 10
185.8257606366734933
 20
99.0563431240334751
 30
0.0
  0
VERTEX
  5
1307
  8
0
 10
185.809198747282494
 20
99.0509875996387734
 30
0.0
  0
VERTEX
  5
1308
  8
0
 10
185.792461923456699
 20
99.045892049160102
 30
0.0
  0
VERTEX
  5
1309
  8
0
 10
185.7755577133586087
 20
99.0410546103225045
 30
0.0
  0
VERTEX
  5
130A
  8
0
 10
185.7584943290783031
 20
99.0364809462690232
 30
0.0
  0
VERTEX
  5
130B
  8
0
 10
185.7412800989486072
 20
99.0321780377142602
 30
0.0
  0
VERTEX
  5
130C
  8
0
 10
185.7239233513022896
 20
99.0281528653727889
 30
0.0
  0
VERTEX
  5
130D
  8
0
 10
185.7064324144720047
 20
99.0244124099591687
 30
0.0
  0
VERTEX
  5
130E
  8
0
 10
185.6888156167902935
 20
99.0209636521879872
 30
0.0
  0
VERTEX
  5
130F
  8
0
 10
185.6710812865902085
 20
99.0178135727738464
 30
0.0
  0
VERTEX
  5
1310
  8
0
 10
185.6532377522042054
 20
99.0149691524312914
 30
0.0
  0
VERTEX
  5
1311
  8
0
 10
185.6352933419651947
 20
99.0124373718748956
 30
0.0
  0
VERTEX
  5
1312
  8
0
 10
185.6172564038369899
 20
99.010224386595155
 30
0.0
  0
VERTEX
  5
1313
  8
0
 10
185.5991357498074876
 20
99.0083168465026517
 30
0.0
  0
VERTEX
  5
1314
  8
0
 10
185.5809406629392129
 20
99.0066815994812259
 30
0.0
  0
VERTEX
  5
1315
  8
0
 10
185.5626804473369873
 20
99.0052846088969716
 30
0.0
  0
VERTEX
  5
1316
  8
0
 10
185.5443644071058031
 20
99.0040918381160253
 30
0.0
  0
VERTEX
  5
1317
  8
0
 10
185.5260018463503968
 20
99.0030692505045238
 30
0.0
  0
VERTEX
  5
1318
  8
0
 10
185.50760206917559
 20
99.0021828094285326
 30
0.0
  0
VERTEX
  5
1319
  8
0
 10
185.4891743796864034
 20
99.0013984782542167
 30
0.0
  0
VERTEX
  5
131A
  8
0
 10
185.4707280819874029
 20
99.0006822203476418
 30
0.0
  0
VERTEX
  5
131B
  8
0
 10
185.4522724801836091
 20
98.999999999074987
 30
0.0
  0
SEQEND
  5
131C
  8
0
  0
POLYLINE
  5
10C8
  8
0
 66
     1
 10
0.0
 20
0.0
 30
0.0
  0
VERTEX
  5
131D
  8
0
 10
184.8994949366141896
 20
96.4999999990752144
 30
0.0
  0
VERTEX
  5
131E
  8
0
 10
184.9201709824307045
 20
96.4996137168730002
 30
0.0
  0
VERTEX
  5
131F
  8
0
 10
184.9408352723513076
 20
96.4991425025431937
 30
0.0
  0
VERTEX
  5
1320
  8
0
 10
184.9614760504798028
 20
96.4985014239581602
 30
0.0
  0
VERTEX
  5
1321
  8
0
 10
184.9820815609203066
 20
96.4976055489903217
 30
0.0
  0
VERTEX
  5
1322
  8
0
 10
185.0026399891968936
 20
96.4963715935520128
 30
0.0
  0
VERTEX
  5
1323
  8
0
 10
185.0231379270418017
 20
96.4947611120084758
 30
0.0
  0
VERTEX
  5
1324
  8
0
 10
185.0435602221149907
 20
96.4927847250504271
 30
0.0
  0
VERTEX
  5
1325
  8
0
 10
185.0638916333637098
 20
96.4904555491360014
 30
0.0
  0
VERTEX
  5
1326
  8
0
 10
185.084116919735493
 20
96.487786700723305
 30
0.0
  0
VERTEX
  5
1327
  8
0
 10
185.1042203595833939
 20
96.4847876795565043
 30
0.0
  0
VERTEX
  5
1328
  8
0
 10
185.1241836832020908
 20
96.4814488099468264
 30
0.0
  0
VERTEX
  5
1329
  8
0
 10
185.1439877796431972
 20
96.4777540854281312
 30
0.0
  0
VERTEX
  5
132A
  8
0
 10
185.1636135374320133
 20
96.4736874955722641
 30
0.0
  0
VERTEX
  5
132B
  8
0
 10
185.1830418095460118
 20
96.469233075315671
 30
0.0
  0
VERTEX
  5
132C
  8
0
 10
185.2022516626225865
 20
96.4643771392339886
 30
0.0
  0
VERTEX
  5
132D
  8
0
 10
185.2212195772345069
 20
96.4591093021124237
 30
0.0
  0
VERTEX
  5
132E
  8
0
 10
185.2399218315665905
 20
96.4534194370134372
 30
0.0
  0
VERTEX
  5
132F
  8
0
 10
185.2583347038037118
 20
96.4472974169996036
 30
0.0
  0
VERTEX
  5
1330
  8
0
 10
185.2764340622588861
 20
96.4407330176499471
 30
0.0
  0
VERTEX
  5
1331
  8
0
 10
185.2941931464783067
 20
96.433715389320156
 30
0.0
  0
VERTEX
  5
1332
  8
0
 10
185.3115841580614074
 20
96.4262334355017003
 30
0.0
  0
VERTEX
  5
1333
  8
0
 10
185.3285792960652998
 20
96.418276059081407
 30
0.0
  0
VERTEX
  5
1334
  8
0
 10
185.3451507571504919
 20
96.4098322132473129
 30
0.0
  0
VERTEX
  5
1335
  8
0
 10
185.3612706237603049
 20
96.4008932484460246
 30
0.0
  0
VERTEX
  5
1336
  8
0
 10
185.3769108164904083
 20
96.3914539120738283
 30
0.0
  0
VERTEX
  5
1337
  8
0
 10
185.3920432436497947
 20
96.3815092094119734
 30
0.0
  0
VERTEX
  5
1338
  8
0
 10
185.4066398135474003
 20
96.3710541457417236
 30
0.0
  0
VERTEX
  5
1339
  8
0
 10
185.4206730877928067
 20
96.3600848585684133
 30
0.0
  0
VERTEX
  5
133A
  8
0
 10
185.4341191145045968
 20
96.3486035278035047
 30
0.0
  0
VERTEX
  5
133B
  8
0
 10
185.4469551001600962
 20
96.3366143408895539
 30
0.0
  0
VERTEX
  5
133C
  8
0
 10
185.459158252008308
 20
96.3241214866067281
 30
0.0
  0
VERTEX
  5
133D
  8
0
 10
185.4707059874037895
 20
96.3111293189579953
 30
0.0
  0
VERTEX
  5
133E
  8
0
 10
185.4815836290077868
 20
96.2976484085308755
 30
0.0
  0
VERTEX
  5
133F
  8
0
 10
185.4917866194016085
 20
96.2836972840277951
 30
0.0
  0
VERTEX
  5
1340
  8
0
 10
185.5013110626809123
 20
96.2692949943535439
 30
0.0
  0
VERTEX
  5
1341
  8
0
 10
185.5101530629414128
 20
96.2544605884127833
 30
0.0
  0
VERTEX
  5
1342
  8
0
 10
185.5183090556930949
 20
96.2392129203325908
 30
0.0
  0
VERTEX
  5
1343
  8
0
 10
185.5257780299737078
 20
96.2235693434904249
 30
0.0
  0
VERTEX
  5
1344
  8
0
 10
185.5325601613899948
 20
96.2075465138975687
 30
0.0
  0
VERTEX
  5
1345
  8
0
 10
185.538655632109112
 20
96.1911610837099289
 30
0.0
  0
VERTEX
  5
1346
  8
0
 10
185.5440646242979028
 20
96.1744297050833694
 30
0.0
  0
VERTEX
  5
1347
  8
0
 10
185.548790950740397
 20
96.157370492405505
 30
0.0
  0
VERTEX
  5
1348
  8
0
 10
185.5528591357939092
 20
96.1400099016546505
 30
0.0
  0
VERTEX
  5
1349
  8
0
 10
185.556301037023502
 20
96.1223773422601937
 30
0.0
  0
VERTEX
  5
134A
  8
0
 10
185.5591485205391962
 20
96.1045022270929081
 30
0.0
  0
VERTEX
  5
134B
  8
0
 10
185.5614334524507001
 20
96.0864139690234396
 30
0.0
  0
VERTEX
  5
134C
  8
0
 10
185.5631876890803937
 20
96.0681419740692633
 30
0.0
  0
VERTEX
  5
134D
  8
0
 10
185.5644347328725985
 20
96.0497097986629456
 30
0.0
  0
VERTEX
  5
134E
  8
0
 10
185.5651745083251001
 20
96.0311244893964329
 30
0.0
  0
VERTEX
  5
134F
  8
0
 10
185.5654028098898038
 20
96.0123902009052159
 30
0.0
  0
VERTEX
  5
1350
  8
0
 10
185.5651154320190983
 20
95.9935110878247286
 30
0.0
  0
VERTEX
  5
1351
  8
0
 10
185.5643081691648035
 20
95.9744913047904475
 30
0.0
  0
VERTEX
  5
1352
  8
0
 10
185.5629832499679139
 20
95.9553374824453158
 30
0.0
  0
VERTEX
  5
1353
  8
0
 10
185.561168739039914
 20
95.9360661936430574
 30
0.0
  0
VERTEX
  5
1354
  8
0
 10
185.558899184885405
 20
95.9166965063719488
 30
0.0
  0
VERTEX
  5
1355
  8
0
 10
185.5562091360087891
 20
95.8972474886202946
 30
0.0
  0
VERTEX
  5
1356
  8
0
 10
185.5531331409144968
 20
95.8777382083764564
 30
0.0
  0
VERTEX
  5
1357
  8
0
 10
185.5497057481069874
 20
95.8581877336287249
 30
0.0
  0
VERTEX
  5
1358
  8
0
 10
185.5459615060904923
 20
95.8386151323654047
 30
0.0
  0
VERTEX
  5
1359
  8
0
 10
185.541928994788492
 20
95.8190363300333274
 30
0.0
  0
VERTEX
  5
135A
  8
0
 10
185.5376129278481869
 20
95.7994546861515488
 30
0.0
  0
VERTEX
  5
135B
  8
0
 10
185.5330120543598014
 20
95.7798704198163335
 30
0.0
  0
VERTEX
  5
135C
  8
0
 10
185.528125123413588
 20
95.7602837501240032
 30
0.0
  0
VERTEX
  5
135D
  8
0
 10
185.5229509513885091
 20
95.7406949653374824
 30
0.0
  0
VERTEX
  5
135E
  8
0
 10
185.5174918242869921
 20
95.7211079201705104
 30
0.0
  0
VERTEX
  5
135F
  8
0
 10
185.5117551027582863
 20
95.7015316856030154
 30
0.0
  0
VERTEX
  5
1360
  8
0
 10
185.5057485503637054
 20
95.6819757467708456
 30
0.0
  0
VERTEX
  5
1361
  8
0
 10
185.4994799306645064
 20
95.6624495888099347
 30
0.0
  0
VERTEX
  5
1362
  8
0
 10
185.4929570072216904
 20
95.6429626968560882
 30
0.0
  0
VERTEX
  5
1363
  8
0
 10
185.4861875435964862
 20
95.6235245560451972
 30
0.0
  0
VERTEX
  5
1364
  8
0
 10
185.4791793033502927
 20
95.6041446515131241
 30
0.0
  0
VERTEX
  5
1365
  8
0
 10
185.4719400270419101
 20
95.584831333197684
 30
0.0
  0
VERTEX
  5
1366
  8
0
 10
185.4644773497703056
 20
95.5655877464001264
 30
0.0
  0
VERTEX
  5
1367
  8
0
 10
185.4567989962559977
 20
95.5464155090812142
 30
0.0
  0
VERTEX
  5
1368
  8
0
 10
185.4489182360364907
 20
95.5273145430370363
 30
0.0
  0
VERTEX
  5
1369
  8
0
 10
185.4408561010613141
 20
95.5082823957074538
 30
0.0
  0
VERTEX
  5
136A
  8
0
 10
185.432634202420104
 20
95.4893164373855825
 30
0.0
  0
VERTEX
  5
136B
  8
0
 10
185.4242665473607872
 20
95.4704173582550055
 30
0.0
  0
VERTEX
  5
136C
  8
0
 10
185.4157371340081113
 20
95.451598950691519
 30
0.0
  0
VERTEX
  5
136D
  8
0
 10
185.4070227785877876
 20
95.4328781222312301
 30
0.0
  0
VERTEX
  5
136E
  8
0
 10
185.3981127285335901
 20
95.4142651950067346
 30
0.0
  0
VERTEX
  5
136F
  8
0
 10
185.3890150645096071
 20
95.3957605142910836
 30
0.0
  0
VERTEX
  5
1370
  8
0
 10
185.3797394374309988
 20
95.3773635935207835
 30
0.0
  0
VERTEX
  5
1371
  8
0
 10
185.3702954982124993
 20
95.3590739461322272
 30
0.0
  0
VERTEX
  5
1372
  8
0
 10
185.3606928977692121
 20
95.3408910855618643
 30
0.0
  0
VERTEX
  5
1373
  8
0
 10
185.3509412870160133
 20
95.3228145252461019
 30
0.0
  0
VERTEX
  5
1374
  8
0
 10
185.3410488508098126
 20
95.3048448769623064
 30
0.0
  0
VERTEX
  5
1375
  8
0
 10
185.3310139272105914
 20
95.2869901295081547
 30
0.0
  0
VERTEX
  5
1376
  8
0
 10
185.3208307999971964
 20
95.2692613090664935
 30
0.0
  0
VERTEX
  5
1377
  8
0
 10
185.3104937403718111
 20
95.2516694512423641
 30
0.0
  0
VERTEX
  5
1378
  8
0
 10
185.2999970195365904
 20
95.2342255916406657
 30
0.0
  0
VERTEX
  5
1379
  8
0
 10
185.2893349086938031
 20
95.2169407658663403
 30
0.0
  0
VERTEX
  5
137A
  8
0
 10
185.2785017204124074
 20
95.1998259543244245
 30
0.0
  0
VERTEX
  5
137B
  8
0
 10
185.2674957989245001
 20
95.1828867575436561
 30
0.0
  0
VERTEX
  5
137C
  8
0
 10
185.2563228428699915
 20
95.1661189622854238
 30
0.0
  0
VERTEX
  5
137D
  8
0
 10
185.2449893330555142
 20
95.149517311583466
 30
0.0
  0
VERTEX
  5
137E
  8
0
 10
185.2335017502871892
 20
95.1330765484715073
 30
0.0
  0
VERTEX
  5
137F
  8
0
 10
185.2218665753123048
 20
95.1167914160664054
 30
0.0
  0
VERTEX
  5
1380
  8
0
 10
185.2100887812520114
 20
95.1006587635486511
 30
0.0
  0
VERTEX
  5
1381
  8
0
 10
185.1981679148800879
 20
95.0846830203857252
 30
0.0
  0
VERTEX
  5
1382
  8
0
 10
185.1861023025618067
 20
95.0688703208835193
 30
0.0
  0
VERTEX
  5
1383
  8
0
 10
185.173890270662298
 20
95.0532267993479394
 30
0.0
  0
VERTEX
  5
1384
  8
0
 10
185.1615301455468057
 20
95.0377585900848345
 30
0.0
  0
VERTEX
  5
1385
  8
0
 10
185.149020253580602
 20
95.0224718274001248
 30
0.0
  0
VERTEX
  5
1386
  8
0
 10
185.1363589211287888
 20
95.0073726455997161
 30
0.0
  0
VERTEX
  5
1387
  8
0
 10
185.1235444745568941
 20
94.9924671789894575
 30
0.0
  0
VERTEX
  5
1388
  8
0
 10
185.1105752402297071
 20
94.9777615618752833
 30
0.0
  0
VERTEX
  5
1389
  8
0
 10
185.097449544512699
 20
94.9632619285630568
 30
0.0
  0
VERTEX
  5
138A
  8
0
 10
185.0841657137711138
 20
94.9489744133586555
 30
0.0
  0
VERTEX
  5
138B
  8
0
 10
185.0707222595908945
 20
94.9349046543102162
 30
0.0
  0
VERTEX
  5
138C
  8
0
 10
185.0571191148206935
 20
94.9210544815102963
 30
0.0
  0
VERTEX
  5
138D
  8
0
 10
185.0433568704063987
 20
94.907423961825728
 30
0.0
  0
VERTEX
  5
138E
  8
0
 10
185.0294361208781879
 20
94.8940131525213815
 30
0.0
  0
VERTEX
  5
138F
  8
0
 10
185.0153574607660119
 20
94.8808221108620842
 30
0.0
  0
VERTEX
  5
1390
  8
0
 10
185.0011214845997927
 20
94.8678508941126637
 30
0.0
  0
VERTEX
  5
1391
  8
0
 10
184.9867287869093957
 20
94.8550995595380044
 30
0.0
  0
VERTEX
  5
1392
  8
0
 10
184.9721799622249137
 20
94.8425681644029055
 30
0.0
  0
VERTEX
  5
1393
  8
0
 10
184.9574756050762971
 20
94.8302567659722371
 30
0.0
  0
VERTEX
  5
1394
  8
0
 10
184.9426163018794966
 20
94.8181654491367567
 30
0.0
  0
VERTEX
  5
1395
  8
0
 10
184.9276023865407126
 20
94.806295158529025
 30
0.0
  0
VERTEX
  5
1396
  8
0
 10
184.9124338973091142
 20
94.7946478454274057
 30
0.0
  0
VERTEX
  5
1397
  8
0
 10
184.8971108556237084
 20
94.7832255183464554
 30
0.0
  0
VERTEX
  5
1398
  8
0
 10
184.8816332829233886
 20
94.7720301858006593
 30
0.0
  0
VERTEX
  5
1399
  8
0
 10
184.866001200647105
 20
94.7610638563044887
 30
0.0
  0
VERTEX
  5
139A
  8
0
 10
184.8502146302336939
 20
94.7503285383725284
 30
0.0
  0
VERTEX
  5
139B
  8
0
 10
184.834273593121992
 20
94.7398262405192071
 30
0.0
  0
VERTEX
  5
139C
  8
0
 10
184.8181781107510062
 20
94.7295589712590669
 30
0.0
  0
VERTEX
  5
139D
  8
0
 10
184.8019282156429881
 20
94.7195287149422143
 30
0.0
  0
VERTEX
  5
139E
  8
0
 10
184.785524523451187
 20
94.7097361845602563
 30
0.0
  0
VERTEX
  5
139F
  8
0
 10
184.7689685095068057
 20
94.7001802188104449
 30
0.0
  0
VERTEX
  5
13A0
  8
0
 10
184.7522617181593887
 20
94.6908595059143181
 30
0.0
  0
VERTEX
  5
13A1
  8
0
 10
184.7354056937583948
 20
94.6817727340935136
 30
0.0
  0
VERTEX
  5
13A2
  8
0
 10
184.7184019806533968
 20
94.6729185915695552
 30
0.0
  0
VERTEX
  5
13A3
  8
0
 10
184.7012521231939104
 20
94.6642957665640523
 30
0.0
  0
VERTEX
  5
13A4
  8
0
 10
184.6839576657295083
 20
94.6559029472985429
 30
0.0
  0
VERTEX
  5
13A5
  8
0
 10
184.6665201526095927
 20
94.6477388219946363
 30
0.0
  0
VERTEX
  5
13A6
  8
0
 10
184.6489411357144945
 20
94.6398020904866257
 30
0.0
  0
VERTEX
  5
13A7
  8
0
 10
184.6312224343562889
 20
94.6320918650032041
 30
0.0
  0
VERTEX
  5
13A8
  8
0
 10
184.6133662012719014
 20
94.6246077719324603
 30
0.0
  0
VERTEX
  5
13A9
  8
0
 10
184.5953746101293973
 20
94.6173494699389863
 30
0.0
  0
VERTEX
  5
13AA
  8
0
 10
184.5772498345968131
 20
94.6103166176873458
 30
0.0
  0
VERTEX
  5
13AB
  8
0
 10
184.5589940483417877
 20
94.603508873842145
 30
0.0
  0
VERTEX
  5
13AC
  8
0
 10
184.5406094250324998
 20
94.596925897067905
 30
0.0
  0
VERTEX
  5
13AD
  8
0
 10
184.5220981383367871
 20
94.5905673460292604
 30
0.0
  0
VERTEX
  5
13AE
  8
0
 10
184.5034623619224874
 20
94.5844328793907607
 30
0.0
  0
VERTEX
  5
13AF
  8
0
 10
184.4847042697558095
 20
94.5785221550472244
 30
0.0
  0
VERTEX
  5
13B0
  8
0
 10
184.4658262574058085
 20
94.5728342585760657
 30
0.0
  0
VERTEX
  5
13B1
  8
0
 10
184.4468313347531137
 20
94.5673666890218811
 30
0.0
  0
VERTEX
  5
13B2
  8
0
 10
184.4277226172534938
 20
94.5621166727673739
 30
0.0
  0
VERTEX
  5
13B3
  8
0
 10
184.4085032203632011
 20
94.5570814361953467
 30
0.0
  0
VERTEX
  5
13B4
  8
0
 10
184.3891762595382033
 20
94.5522582056884744
 30
0.0
  0
VERTEX
  5
13B5
  8
0
 10
184.3697448502344969
 20
94.5476442076295456
 30
0.0
  0
VERTEX
  5
13B6
  8
0
 10
184.3502121079081917
 20
94.5432366684012777
 30
0.0
  0
VERTEX
  5
13B7
  8
0
 10
184.3305811480151988
 20
94.5390328143864167
 30
0.0
  0
VERTEX
  5
13B8
  8
0
 10
184.3108550860115997
 20
94.5350298719676942
 30
0.0
  0
VERTEX
  5
13B9
  8
0
 10
184.2910371277332899
 20
94.5312259986481394
 30
0.0
  0
VERTEX
  5
13BA
  8
0
 10
184.2711311377358925
 20
94.5276261382577019
 30
0.0
  0
VERTEX
  5
13BB
  8
0
 10
184.2511412722361115
 20
94.5242382394084757
 30
0.0
  0
VERTEX
  5
13BC
  8
0
 10
184.231071688751797
 20
94.5210702641136749
 30
0.0
  0
VERTEX
  5
13BD
  8
0
 10
184.2109265448004862
 20
94.5181301743864566
 30
0.0
  0
VERTEX
  5
13BE
  8
0
 10
184.1907099978998872
 20
94.515425932240035
 30
0.0
  0
VERTEX
  5
13BF
  8
0
 10
184.170426205567594
 20
94.5129654996874962
 30
0.0
  0
VERTEX
  5
13C0
  8
0
 10
184.1500793253212862
 20
94.5107568387421253
 30
0.0
  0
VERTEX
  5
13C1
  8
0
 10
184.1296735146787
 20
94.5088079114170654
 30
0.0
  0
VERTEX
  5
13C2
  8
0
 10
184.1092130396586128
 20
94.5071245581574715
 30
0.0
  0
VERTEX
  5
13C3
  8
0
 10
184.0887033340362962
 20
94.5056897857840141
 30
0.0
  0
VERTEX
  5
13C4
  8
0
 10
184.0681505428040055
 20
94.5044726944058482
 30
0.0
  0
VERTEX
  5
13C5
  8
0
 10
184.0475608210487906
 20
94.5034421867379564
 30
0.0
  0
VERTEX
  5
13C6
  8
0
 10
184.0269403238577013
 20
94.502567165495293
 30
0.0
  0
VERTEX
  5
13C7
  8
0
 10
184.0062952063181001
 20
94.5018165333927982
 30
0.0
  0
VERTEX
  5
13C8
  8
0
 10
183.9856316235170084
 20
94.5011591931454404
 30
0.0
  0
VERTEX
  5
13C9
  8
0
 10
183.9649557305415897
 20
94.5005640474681741
 30
0.0
  0
VERTEX
  5
13CA
  8
0
 10
183.9442736824790074
 20
94.4999999990759392
 30
0.0
  0
SEQEND
  5
13CB
  8
0
  0
POLYLINE
  5
10C9
  8
0
 66
     1
 10
0.0
 20
0.0
 30
0.0
  0
VERTEX
  5
13CC
  8
0
 10
166.0557264901113967
 20
94.4999978475567985
 30
0.0
  0
VERTEX
  5
13CD
  8
0
 10
166.0350651223118916
 20
94.5003443517404946
 30
0.0
  0
VERTEX
  5
13CE
  8
0
 10
166.0144102701981978
 20
94.5007440823272589
 30
0.0
  0
VERTEX
  5
13CF
  8
0
 10
165.9937684494562973
 20
94.501250265720131
 30
0.0
  0
VERTEX
  5
13D0
  8
0
 10
165.9731461757718876
 20
94.5019161283221791
 30
0.0
  0
VERTEX
  5
13D1
  8
0
 10
165.9525499648310074
 20
94.5027948965364715
 30
0.0
  0
VERTEX
  5
13D2
  8
0
 10
165.9319861945689922
 20
94.5039334036441545
 30
0.0
  0
VERTEX
  5
13D3
  8
0
 10
165.9114603042930867
 20
94.5053349203810029
 30
0.0
  0
VERTEX
  5
13D4
  8
0
 10
165.8909773418046996
 20
94.5069845473369554
 30
0.0
  0
VERTEX
  5
13D5
  8
0
 10
165.8705423536040087
 20
94.5088673247275608
 30
0.0
  0
VERTEX
  5
13D6
  8
0
 10
165.8501603861913907
 20
94.5109682927682826
 30
0.0
  0
VERTEX
  5
13D7
  8
0
 10
165.8298364686127115
 20
94.5132728786286975
 30
0.0
  0
VERTEX
  5
13D8
  8
0
 10
165.8095752294258887
 20
94.5157753880558431
 30
0.0
  0
VERTEX
  5
13D9
  8
0
 10
165.7893808972355032
 20
94.5184789935201906
 30
0.0
  0
VERTEX
  5
13DA
  8
0
 10
165.7692576832986902
 20
94.5213872520755416
 30
0.0
  0
VERTEX
  5
13DB
  8
0
 10
165.7492097988724993
 20
94.5245037207756553
 30
0.0
  0
VERTEX
  5
13DC
  8
0
 10
165.7292414551608033
 20
94.5278319563690559
 30
0.0
  0
VERTEX
  5
13DD
  8
0
 10
165.7093567108564116
 20
94.531374642546723
 30
0.0
  0
VERTEX
  5
13DE
  8
0
 10
165.6895591379997938
 20
94.5351316771290868
 30
0.0
  0
VERTEX
  5
13DF
  8
0
 10
165.6698522117737866
 20
94.5391024034674246
 30
0.0
  0
VERTEX
  5
13E0
  8
0
 10
165.6502394073606865
 20
94.5432861649131553
 30
0.0
  0
VERTEX
  5
13E1
  8
0
 10
165.6307241999431881
 20
94.5476823048175845
 30
0.0
  0
VERTEX
  5
13E2
  8
0
 10
165.6113100439887091
 20
94.5522902282637432
 30
0.0
  0
VERTEX
  5
13E3
  8
0
 10
165.5920000889607024
 20
94.5571102492523181
 30
0.0
  0
VERTEX
  5
13E4
  8
0
 10
165.5727972520400897
 20
94.5621433739920434
 30
0.0
  0
VERTEX
  5
13E5
  8
0
 10
165.5537044445754873
 20
94.5673906260710169
 30
0.0
  0
VERTEX
  5
13E6
  8
0
 10
165.5347245779155969
 20
94.5728530290772653
 30
0.0
  0
VERTEX
  5
13E7
  8
0
 10
165.5158605631841056
 20
94.5785316066087631
 30
0.0
  0
VERTEX
  5
13E8
  8
0
 10
165.4971151909304012
 20
94.5844273875329122
 30
0.0
  0
VERTEX
  5
13E9
  8
0
 10
165.4784909326984916
 20
94.5905414146588583
 30
0.0
  0
VERTEX
  5
13EA
  8
0
 10
165.4599902078790024
 20
94.5968747330749977
 30
0.0
  0
VERTEX
  5
13EB
  8
0
 10
165.4416154358627864
 20
94.6034283878697551
 30
0.0
  0
VERTEX
  5
13EC
  8
0
 10
165.4233690360404125
 20
94.610203424131555
 30
0.0
  0
VERTEX
  5
13ED
  8
0
 10
165.4052534181647047
 20
94.6172009656785633
 30
0.0
  0
VERTEX
  5
13EE
  8
0
 10
165.3872709049923913
 20
94.6244228469648334
 30
0.0
  0
VERTEX
  5
13EF
  8
0
 10
165.3694237731338035
 20
94.6318712793973305
 30
0.0
  0
VERTEX
  5
13F0
  8
0
 10
165.3517142987755904
 20
94.6395484778436611
 30
0.0
  0
VERTEX
  5
13F1
  8
0
 10
165.3341447581044861
 20
94.6474566571714462
 30
0.0
  0
VERTEX
  5
13F2
  8
0
 10
165.3167174057907971
 20
94.6555979780069947
 30
0.0
  0
VERTEX
  5
13F3
  8
0
 10
165.2994338877778091
 20
94.6639730664099943
 30
0.0
  0
VERTEX
  5
13F4
  8
0
 10
165.2822951703822127
 20
94.6725808351412468
 30
0.0
  0
VERTEX
  5
13F5
  8
0
 10
165.2653021841711052
 20
94.6814201068376775
 30
0.0
  0
VERTEX
  5
13F6
  8
0
 10
165.2484558597109867
 20
94.6904897041363114
 30
0.0
  0
VERTEX
  5
13F7
  8
0
 10
165.2317571301452119
 20
94.6997884640403385
 30
0.0
  0
VERTEX
  5
13F8
  8
0
 10
165.2152071046388073
 20
94.7093162051582311
 30
0.0
  0
VERTEX
  5
13F9
  8
0
 10
165.1988071782984946
 20
94.7190743406782474
 30
0.0
  0
VERTEX
  5
13FA
  8
0
 10
165.1825587724264892
 20
94.7290644298701636
 30
0.0
  0
VERTEX
  5
13FB
  8
0
 10
165.1664633083248077
 20
94.7392880320038131
 30
0.0
  0
VERTEX
  5
13FC
  8
0
 10
165.1505222068130081
 20
94.7497467051550473
 30
0.0
  0
VERTEX
  5
13FD
  8
0
 10
165.1347366326957058
 20
94.7604413740130838
 30
0.0
  0
VERTEX
  5
13FE
  8
0
 10
165.1191070744889942
 20
94.7713712901161358
 30
0.0
  0
VERTEX
  5
13FF
  8
0
 10
165.1036339103301884
 20
94.7825354319228808
 30
0.0
  0
VERTEX
  5
1400
  8
0
 10
165.0883175183566891
 20
94.7939327778919676
 30
0.0
  0
VERTEX
  5
1401
  8
0
 10
165.0731582767056977
 20
94.8055623064820594
 30
0.0
  0
VERTEX
  5
1402
  8
0
 10
165.0581565393812866
 20
94.817422920150662
 30
0.0
  0
VERTEX
  5
1403
  8
0
 10
165.0433125211820879
 20
94.8295130829665851
 30
0.0
  0
VERTEX
  5
1404
  8
0
 10
165.0286263871012125
 20
94.8418311021499392
 30
0.0
  0
VERTEX
  5
1405
  8
0
 10
165.0140983020685042
 20
94.854375284722579
 30
0.0
  0
VERTEX
  5
1406
  8
0
 10
164.9997284310142049
 20
94.8671439377064161
 30
0.0
  0
VERTEX
  5
1407
  8
0
 10
164.9855168868498936
 20
94.8801352790898562
 30
0.0
  0
VERTEX
  5
1408
  8
0
 10
164.971462586326993
 20
94.8933454795519822
 30
0.0
  0
VERTEX
  5
1409
  8
0
 10
164.957563250186297
 20
94.9067686627173543
 30
0.0
  0
VERTEX
  5
140A
  8
0
 10
164.9438165471800062
 20
94.9203988632281153
 30
0.0
  0
VERTEX
  5
140B
  8
0
 10
164.9302201460598098
 20
94.9342301157265069
 30
0.0
  0
VERTEX
  5
140C
  8
0
 10
164.916771715577795
 20
94.948256454854544
 30
0.0
  0
VERTEX
  5
140D
  8
0
 10
164.9034697763680128
 20
94.9624732730926837
 30
0.0
  0
VERTEX
  5
140E
  8
0
 10
164.8903166064905861
 20
94.9768819519872096
 30
0.0
  0
VERTEX
  5
140F
  8
0
 10
164.8773155196367952
 20
94.991485523804883
 30
0.0
  0
VERTEX
  5
1410
  8
0
 10
164.8644698295302931
 20
95.0062870208643488
 30
0.0
  0
VERTEX
  5
1411
  8
0
 10
164.8517828498945903
 20
95.0212894754841244
 30
0.0
  0
VERTEX
  5
1412
  8
0
 10
164.8392578666037025
 20
95.0364958813782437
 30
0.0
  0
VERTEX
  5
1413
  8
0
 10
164.8268959644030929
 20
95.0519061811279755
 30
0.0
  0
VERTEX
  5
1414
  8
0
 10
164.814694470503099
 20
95.0675151087406647
 30
0.0
  0
VERTEX
  5
1415
  8
0
 10
164.8026503447937898
 20
95.0833168890565048
 30
0.0
  0
VERTEX
  5
1416
  8
0
 10
164.7907605471654904
 20
95.0993057469156469
 30
0.0
  0
VERTEX
  5
1417
  8
0
 10
164.7790220375086108
 20
95.1154759071582419
 30
0.0
  0
VERTEX
  5
1418
  8
0
 10
164.7674317757131917
 20
95.1318215946244834
 30
0.0
  0
VERTEX
  5
1419
  8
0
 10
164.7559867583146911
 20
95.1483370411729084
 30
0.0
  0
VERTEX
  5
141A
  8
0
 10
164.7446857127532098
 20
95.1650168101716218
 30
0.0
  0
VERTEX
  5
141B
  8
0
 10
164.7335298102300101
 20
95.1818559330270944
 30
0.0
  0
VERTEX
  5
141C
  8
0
 10
164.7225204065001947
 20
95.1988494764922564
 30
0.0
  0
VERTEX
  5
141D
  8
0
 10
164.7116588573188949
 20
95.2159925073200952
 30
0.0
  0
VERTEX
  5
141E
  8
0
 10
164.7009465184412136
 20
95.233280092263584
 30
0.0
  0
VERTEX
  5
141F
  8
0
 10
164.6903847456223957
 20
95.2507072980756533
 30
0.0
  0
VERTEX
  5
1420
  8
0
 10
164.6799748946174873
 20
95.2682691915093045
 30
0.0
  0
VERTEX
  5
1421
  8
0
 10
164.6697183211815911
 20
95.2859608393174682
 30
0.0
  0
VERTEX
  5
1422
  8
0
 10
164.6596163810700091
 20
95.3037773082531174
 30
0.0
  0
VERTEX
  5
1423
  8
0
 10
164.6496704300377019
 20
95.321713665069197
 30
0.0
  0
VERTEX
  5
1424
  8
0
 10
164.639881823839886
 20
95.3397649765187225
 30
0.0
  0
VERTEX
  5
1425
  8
0
 10
164.6302519182318065
 20
95.3579263093545961
 30
0.0
  0
VERTEX
  5
1426
  8
0
 10
164.6207820689685093
 20
95.3761927303297767
 30
0.0
  0
VERTEX
  5
1427
  8
0
 10
164.611473631805012
 20
95.3945593061972943
 30
0.0
  0
VERTEX
  5
1428
  8
0
 10
164.6023297283593934
 20
95.4130225865157371
 30
0.0
  0
VERTEX
  5
1429
  8
0
 10
164.5933666616660105
 20
95.4315901893586016
 30
0.0
  0
VERTEX
  5
142A
  8
0
 10
164.5846056962134014
 20
95.4502738190413567
 30
0.0
  0
VERTEX
  5
142B
  8
0
 10
164.5760532779098924
 20
95.4690715475729377
 30
0.0
  0
VERTEX
  5
142C
  8
0
 10
164.567704466096103
 20
95.4879709737243019
 30
0.0
  0
VERTEX
  5
142D
  8
0
 10
164.5595540297011894
 20
95.5069594291492194
 30
0.0
  0
VERTEX
  5
142E
  8
0
 10
164.5515967541143141
 20
95.5260242706506659
 30
0.0
  0
VERTEX
  5
142F
  8
0
 10
164.5438295484987066
 20
95.5451561000129459
 30
0.0
  0
VERTEX
  5
1430
  8
0
 10
164.5362535197664897
 20
95.5643519328913555
 30
0.0
  0
VERTEX
  5
1431
  8
0
 10
164.5288702674801016
 20
95.583609537676864
 30
0.0
  0
VERTEX
  5
1432
  8
0
 10
164.5216813915199054
 20
95.6029266826334663
 30
0.0
  0
VERTEX
  5
1433
  8
0
 10
164.5146906256684929
 20
95.6223002838473377
 30
0.0
  0
VERTEX
  5
1434
  8
0
 10
164.5079089238205086
 20
95.6417243740400522
 30
0.0
  0
VERTEX
  5
1435
  8
0
 10
164.5013487654078119
 20
95.6611923767070351
 30
0.0
  0
VERTEX
  5
1436
  8
0
 10
164.4950226298626035
 20
95.6806977153436407
 30
0.0
  0
VERTEX
  5
1437
  8
0
 10
164.4889429966167995
 20
95.7002338134452941
 30
0.0
  0
VERTEX
  5
1438
  8
0
 10
164.4831223451026005
 20
95.7197940945074066
 30
0.0
  0
VERTEX
  5
1439
  8
0
 10
164.4775731547518944
 20
95.7393719820253608
 30
0.0
  0
VERTEX
  5
143A
  8
0
 10
164.4723078642919063
 20
95.7589608888579562
 30
0.0
  0
VERTEX
  5
143B
  8
0
 10
164.467337439306192
 20
95.7785538429162528
 30
0.0
  0
VERTEX
  5
143C
  8
0
 10
164.4626709926255046
 20
95.7981433879677553
 30
0.0
  0
VERTEX
  5
143D
  8
0
 10
164.4583175192003921
 20
95.8177220369767042
 30
0.0
  0
VERTEX
  5
143E
  8
0
 10
164.4542860139816867
 20
95.8372823029072833
 30
0.0
  0
VERTEX
  5
143F
  8
0
 10
164.4505854719199078
 20
95.8568166987237475
 30
0.0
  0
VERTEX
  5
1440
  8
0
 10
164.4472257845785066
 20
95.8763173050115967
 30
0.0
  0
VERTEX
  5
1441
  8
0
 10
164.4442245548542871
 20
95.8957724836754437
 30
0.0
  0
VERTEX
  5
1442
  8
0
 10
164.4416033172832101
 20
95.9151687006430933
 30
0.0
  0
VERTEX
  5
1443
  8
0
 10
164.4393836377512059
 20
95.934492406724047
 30
0.0
  0
VERTEX
  5
1444
  8
0
 10
164.4375868254406043
 20
95.9537303647699247
 30
0.0
  0
VERTEX
  5
1445
  8
0
 10
164.4362306793360915
 20
95.9728736045287576
 30
0.0
  0
VERTEX
  5
1446
  8
0
 10
164.4353304560750075
 20
95.9919162461540054
 30
0.0
  0
VERTEX
  5
1447
  8
0
 10
164.4349013554974022
 20
96.0108524788405759
 30
0.0
  0
VERTEX
  5
1448
  8
0
 10
164.4349589831604135
 20
96.0296753559838834
 30
0.0
  0
VERTEX
  5
1449
  8
0
 10
164.435522809994211
 20
96.0483671099304388
 30
0.0
  0
VERTEX
  5
144A
  8
0
 10
164.4366144482883101
 20
96.0669039783246461
 30
0.0
  0
VERTEX
  5
144B
  8
0
 10
164.4382555330732885
 20
96.0852621351478859
 30
0.0
  0
VERTEX
  5
144C
  8
0
 10
164.4404676993798091
 20
96.1034177543816099
 30
0.0
  0
VERTEX
  5
144D
  8
0
 10
164.4432725822381087
 20
96.1213470100072556
 30
0.0
  0
VERTEX
  5
144E
  8
0
 10
164.4466918166791061
 20
96.1390260760062034
 30
0.0
  0
VERTEX
  5
144F
  8
0
 10
164.4507470377330947
 20
96.156431126359962
 30
0.0
  0
VERTEX
  5
1450
  8
0
 10
164.4554598804307943
 20
96.1735383350499262
 30
0.0
  0
VERTEX
  5
1451
  8
0
 10
164.4608514019408858
 20
96.1903240001180251
 30
0.0
  0
VERTEX
  5
1452
  8
0
 10
164.4669315538035903
 20
96.2067668038613562
 30
0.0
  0
VERTEX
  5
1453
  8
0
 10
164.4737002752933961
 20
96.2228475780991772
 30
0.0
  0
VERTEX
  5
1454
  8
0
 10
164.4811571472320963
 20
96.2385472316066313
 30
0.0
  0
VERTEX
  5
1455
  8
0
 10
164.4893017504412001
 20
96.253846673158904
 30
0.0
  0
VERTEX
  5
1456
  8
0
 10
164.4981336657425004
 20
96.2687268115310957
 30
0.0
  0
VERTEX
  5
1457
  8
0
 10
164.5076524739577053
 20
96.2831685554983778
 30
0.0
  0
VERTEX
  5
1458
  8
0
 10
164.5178577559082953
 20
96.2971528138359076
 30
0.0
  0
VERTEX
  5
1459
  8
0
 10
164.5287490450226926
 20
96.3106605256489985
 30
0.0
  0
VERTEX
  5
145A
  8
0
 10
164.5403186695409943
 20
96.3236772411364228
 30
0.0
  0
VERTEX
  5
145B
  8
0
 10
164.552544093823002
 20
96.3361980229113755
 30
0.0
  0
VERTEX
  5
145C
  8
0
 10
164.5654009463810894
 20
96.3482191084713975
 30
0.0
  0
VERTEX
  5
145D
  8
0
 10
164.5788648557281135
 20
96.3597367353140442
 30
0.0
  0
VERTEX
  5
145E
  8
0
 10
164.5929114503767039
 20
96.3707471409368708
 30
0.0
  0
VERTEX
  5
145F
  8
0
 10
164.6075163588392911
 20
96.3812465628374326
 30
0.0
  0
VERTEX
  5
1460
  8
0
 10
164.6226552096285047
 20
96.3912312385132708
 30
0.0
  0
VERTEX
  5
1461
  8
0
 10
164.6383036158520952
 20
96.4006974767027884
 30
0.0
  0
VERTEX
  5
1462
  8
0
 10
164.6544358368761891
 20
96.4096478465515503
 30
0.0
  0
VERTEX
  5
1463
  8
0
 10
164.6710237404969916
 20
96.4180959770741879
 30
0.0
  0
VERTEX
  5
1464
  8
0
 10
164.6880389502258879
 20
96.4260566269866786
 30
0.0
  0
VERTEX
  5
1465
  8
0
 10
164.7054530895742914
 20
96.4335445550050565
 30
0.0
  0
VERTEX
  5
1466
  8
0
 10
164.7232377820531894
 20
96.4405745198452564
 30
0.0
  0
VERTEX
  5
1467
  8
0
 10
164.7413646511741092
 20
96.4471612802233267
 30
0.0
  0
VERTEX
  5
1468
  8
0
 10
164.7598053204480948
 20
96.4533195948552446
 30
0.0
  0
VERTEX
  5
1469
  8
0
 10
164.7785314588271035
 20
96.4590641355292036
 30
0.0
  0
VERTEX
  5
146A
  8
0
 10
164.7975177324640015
 20
96.4644038403744446
 30
0.0
  0
VERTEX
  5
146B
  8
0
 10
164.8167436159434089
 20
96.4693384489689691
 30
0.0
  0
VERTEX
  5
146C
  8
0
 10
164.8361890171053972
 20
96.4738668720711132
 30
0.0
  0
VERTEX
  5
146D
  8
0
 10
164.8558338437902933
 20
96.4779880204391844
 30
0.0
  0
VERTEX
  5
146E
  8
0
 10
164.8756580038383959
 20
96.4817008048314904
 30
0.0
  0
VERTEX
  5
146F
  8
0
 10
164.895641405089691
 20
96.4850041360063813
 30
0.0
  0
VERTEX
  5
1470
  8
0
 10
164.9157639553843921
 20
96.4878969247221647
 30
0.0
  0
VERTEX
  5
1471
  8
0
 10
164.9360055725076961
 20
96.4903781495849842
 30
0.0
  0
VERTEX
  5
1472
  8
0
 10
164.9563483005962041
 20
96.4924612959458869
 30
0.0
  0
VERTEX
  5
1473
  8
0
 10
164.9767789368426918
 20
96.494192276236916
 30
0.0
  0
VERTEX
  5
1474
  8
0
 10
164.9972849229388885
 20
96.4956213998966206
 30
0.0
  0
VERTEX
  5
1475
  8
0
 10
165.0178537005764952
 20
96.4967989763635643
 30
0.0
  0
VERTEX
  5
1476
  8
0
 10
165.038472711447298
 20
96.4977753150763107
 30
0.0
  0
VERTEX
  5
1477
  8
0
 10
165.0591293972429128
 20
96.4986007254733664
 30
0.0
  0
VERTEX
  5
1478
  8
0
 10
165.0798111996550119
 20
96.4993255169933377
 30
0.0
  0
VERTEX
  5
1479
  8
0
 10
165.1005055603754954
 20
96.4999999990747455
 30
0.0
  0
SEQEND
  5
147A
  8
0
  0
POLYLINE
  5
10CA
  8
0
 66
     1
 10
0.0
 20
0.0
 30
0.0
  0
VERTEX
  5
147B
  8
0
 10
164.5477275198165898
 20
98.9999999990750297
 30
0.0
  0
VERTEX
  5
147C
  8
0
 10
164.5286620722656892
 20
99.0003546688603393
 30
0.0
  0
VERTEX
  5
147D
  8
0
 10
164.5096068429699869
 20
99.0007814661679646
 30
0.0
  0
VERTEX
  5
147E
  8
0
 10
164.4905720501841984
 20
99.001352518520207
 30
0.0
  0
VERTEX
  5
147F
  8
0
 10
164.4715679121636072
 20
99.0021399534393396
 30
0.0
  0
VERTEX
  5
1480
  8
0
 10
164.4526046454683126
 20
99.0032151040457506
 30
0.0
  0
VERTEX
  5
1481
  8
0
 10
164.433692391204886
 20
99.0046139359548079
 30
0.0
  0
VERTEX
  5
1482
  8
0
 10
164.414841186537501
 20
99.0063236936451432
 30
0.0
  0
VERTEX
  5
1483
  8
0
 10
164.396061061053814
 20
99.0083280702686466
 30
0.0
  0
VERTEX
  5
1484
  8
0
 10
164.3773620443411119
 20
99.0106107589771653
 30
0.0
  0
VERTEX
  5
1485
  8
0
 10
164.3587541442917086
 20
99.0131568371714792
 30
0.0
  0
VERTEX
  5
1486
  8
0
 10
164.3402471493259043
 20
99.0159653851536063
 30
0.0
  0
VERTEX
  5
1487
  8
0
 10
164.3218507204103958
 20
99.0190436151689539
 30
0.0
  0
VERTEX
  5
1488
  8
0
 10
164.303574516941012
 20
99.0223988396740538
 30
0.0
  0
VERTEX
  5
1489
  8
0
 10
164.2854281983136957
 20
99.0260383711254235
 30
0.0
  0
VERTEX
  5
148A
  8
0
 10
164.2674213266159029
 20
99.0299684810873657
 30
0.0
  0
VERTEX
  5
148B
  8
0
 10
164.2495630702636902
 20
99.0341912300806371
 30
0.0
  0
VERTEX
  5
148C
  8
0
 10
164.2318624981328128
 20
99.038707613861547
 30
0.0
  0
VERTEX
  5
148D
  8
0
 10
164.2143286790991965
 20
99.0435186281864333
 30
0.0
  0
VERTEX
  5
148E
  8
0
 10
164.1969706795314039
 20
99.0486252723021465
 30
0.0
  0
VERTEX
  5
148F
  8
0
 10
164.1797972848524125
 20
99.0540289365744115
 30
0.0
  0
VERTEX
  5
1490
  8
0
 10
164.162816746520889
 20
99.0597317547288156
 30
0.0
  0
VERTEX
  5
1491
  8
0
 10
164.1460372562445968
 20
99.0657359436730474
 30
0.0
  0
VERTEX
  5
1492
  8
0
 10
164.1294670057314988
 20
99.0720437203148094
 30
0.0
  0
VERTEX
  5
1493
  8
0
 10
164.1131141633917139
 20
99.0786572784815434
 30
0.0
  0
VERTEX
  5
1494
  8
0
 10
164.0969863522587957
 20
99.0855782717160452
 30
0.0
  0
VERTEX
  5
1495
  8
0
 10
164.0810906446434956
 20
99.0928078079802361
 30
0.0
  0
VERTEX
  5
1496
  8
0
 10
164.065434088489809
 20
99.100346971096414
 30
0.0
  0
VERTEX
  5
1497
  8
0
 10
164.0500237317413905
 20
99.1081968448869333
 30
0.0
  0
VERTEX
  5
1498
  8
0
 10
164.0348665237025898
 20
99.116358439684447
 30
0.0
  0
VERTEX
  5
1499
  8
0
 10
164.0199684392823087
 20
99.1248320398673286
 30
0.0
  0
VERTEX
  5
149A
  8
0
 10
164.0053348979324142
 20
99.133617515980859
 30
0.0
  0
VERTEX
  5
149B
  8
0
 10
163.9909713126419035
 20
99.1427147337553691
 30
0.0
  0
VERTEX
  5
149C
  8
0
 10
163.9768830963996891
 20
99.152123558921204
 30
0.0
  0
VERTEX
  5
149D
  8
0
 10
163.963075499877192
 20
99.1618437790589269
 30
0.0
  0
VERTEX
  5
149E
  8
0
 10
163.9495529061427987
 20
99.1718747640308607
 30
0.0
  0
VERTEX
  5
149F
  8
0
 10
163.9363194095788003
 20
99.1822157447079036
 30
0.0
  0
VERTEX
  5
14A0
  8
0
 10
163.9233791043726001
 20
99.1928659518671054
 30
0.0
  0
VERTEX
  5
14A1
  8
0
 10
163.9107360845646895
 20
99.203824616103006
 30
0.0
  0
VERTEX
  5
14A2
  8
0
 10
163.8983936894541955
 20
99.215090029194215
 30
0.0
  0
VERTEX
  5
14A3
  8
0
 10
163.8863527458863132
 20
99.2266573577023649
 30
0.0
  0
VERTEX
  5
14A4
  8
0
 10
163.874613558559588
 20
99.2385211186949476
 30
0.0
  0
VERTEX
  5
14A5
  8
0
 10
163.8631764321721107
 20
99.2506758292395261
 30
0.0
  0
VERTEX
  5
14A6
  8
0
 10
163.8520416709048959
 20
99.263116007851778
 30
0.0
  0
VERTEX
  5
14A7
  8
0
 10
163.8412094161629966
 20
99.275836628775096
 30
0.0
  0
VERTEX
  5
14A8
  8
0
 10
163.8306794157855961
 20
99.2888337681286259
 30
0.0
  0
VERTEX
  5
14A9
  8
0
 10
163.8204513593070999
 20
99.3021036652688736
 30
0.0
  0
VERTEX
  5
14AA
  8
0
 10
163.8105249362619134
 20
99.3156425595523729
 30
0.0
  0
VERTEX
  5
14AB
  8
0
 10
163.8008998382171058
 20
99.3294466924236872
 30
0.0
  0
VERTEX
  5
14AC
  8
0
 10
163.7915764880976894
 20
99.3435130566900568
 30
0.0
  0
VERTEX
  5
14AD
  8
0
 10
163.7825571209698126
 20
99.3578405068657844
 30
0.0
  0
VERTEX
  5
14AE
  8
0
 10
163.773844247731688
 20
99.3724281808418652
 30
0.0
  0
VERTEX
  5
14AF
  8
0
 10
163.7654403792813014
 20
99.3872752165093232
 30
0.0
  0
VERTEX
  5
14B0
  8
0
 10
163.7573480265168087
 20
99.4023807517591962
 30
0.0
  0
VERTEX
  5
14B1
  8
0
 10
163.7495692493162096
 20
99.4177434206455501
 30
0.0
  0
VERTEX
  5
14B2
  8
0
 10
163.7420990989245979
 20
99.4333540278433787
 30
0.0
  0
VERTEX
  5
14B3
  8
0
 10
163.7349270951625044
 20
99.449197198845269
 30
0.0
  0
VERTEX
  5
14B4
  8
0
 10
163.7280426074702859
 20
99.4652573911533722
 30
0.0
  0
VERTEX
  5
14B5
  8
0
 10
163.7214350052882992
 20
99.4815190622698253
 30
0.0
  0
VERTEX
  5
14B6
  8
0
 10
163.7150936580569009
 20
99.4979666696967371
 30
0.0
  0
VERTEX
  5
14B7
  8
0
 10
163.7090079352163912
 20
99.5145846709362587
 30
0.0
  0
VERTEX
  5
14B8
  8
0
 10
163.7031696836021126
 20
99.5313604406926657
 30
0.0
  0
VERTEX
  5
14B9
  8
0
 10
163.6975824192278139
 20
99.5482950944559235
 30
0.0
  0
VERTEX
  5
14BA
  8
0
 10
163.692253090717287
 20
99.5653937897104413
 30
0.0
  0
VERTEX
  5
14BB
  8
0
 10
163.6871885804758904
 20
99.5826616101768849
 30
0.0
  0
VERTEX
  5
14BC
  8
0
 10
163.6823903117021075
 20
99.6000975558578432
 30
0.0
  0
VERTEX
  5
14BD
  8
0
 10
163.6778502802247885
 20
99.617690120932977
 30
0.0
  0
VERTEX
  5
14BE
  8
0
 10
163.6735595465166
 20
99.6354267572246357
 30
0.0
  0
VERTEX
  5
14BF
  8
0
 10
163.6695091710504926
 20
99.6532949165551827
 30
0.0
  0
VERTEX
  5
14C0
  8
0
 10
163.6656911974924924
 20
99.671283274757684
 30
0.0
  0
VERTEX
  5
14C1
  8
0
 10
163.6621019853197083
 20
99.6893858805619288
 30
0.0
  0
VERTEX
  5
14C2
  8
0
 10
163.6587390778670112
 20
99.7075982565220471
 30
0.0
  0
VERTEX
  5
14C3
  8
0
 10
163.6556000185011044
 20
99.7259159252320302
 30
0.0
  0
VERTEX
  5
14C4
  8
0
 10
163.6526823505890889
 20
99.7443344092859263
 30
0.0
  0
VERTEX
  5
14C5
  8
0
 10
163.6499836175268001
 20
99.7628492311158084
 30
0.0
  0
VERTEX
  5
14C6
  8
0
 10
163.647501508685508
 20
99.7814550955836665
 30
0.0
  0
VERTEX
  5
14C7
  8
0
 10
163.6452341987595105
 20
99.8001439893827467
 30
0.0
  0
VERTEX
  5
14C8
  8
0
 10
163.6431799631756974
 20
99.8189073350318523
 30
0.0
  0
VERTEX
  5
14C9
  8
0
 10
163.6413370773605891
 20
99.8377365550497728
 30
0.0
  0
VERTEX
  5
14CA
  8
0
 10
163.639703816740905
 20
99.8566230719552834
 30
0.0
  0
VERTEX
  5
14CB
  8
0
 10
163.6382784567435067
 20
99.875558308267145
 30
0.0
  0
VERTEX
  5
14CC
  8
0
 10
163.6370592727946871
 20
99.8945336865041753
 30
0.0
  0
VERTEX
  5
14CD
  8
0
 10
163.6360445403215067
 20
99.9135406291851211
 30
0.0
  0
VERTEX
  5
14CE
  8
0
 10
163.635232534750287
 20
99.9325705588288002
 30
0.0
  0
VERTEX
  5
14CF
  8
0
 10
163.634621531508003
 20
99.9516148979539594
 30
0.0
  0
VERTEX
  5
14D0
  8
0
 10
163.6342097993853884
 20
99.9706651616354378
 30
0.0
  0
VERTEX
  5
14D1
  8
0
 10
163.6339951760282077
 20
99.9897189156725972
 30
0.0
  0
VERTEX
  5
14D2
  8
0
 10
163.6339766232360091
 20
100.0087791813499933
 30
0.0
  0
VERTEX
  5
14D3
  8
0
 10
163.6341578983306135
 20
100.0278385348250936
 30
0.0
  0
VERTEX
  5
14D4
  8
0
 10
163.6345435608737944
 20
100.0468876836409038
 30
0.0
  0
VERTEX
  5
14D5
  8
0
 10
163.6351376015140886
 20
100.065917830812495
 30
0.0
  0
VERTEX
  5
14D6
  8
0
 10
163.6359396215846971
 20
100.0849240020538957
 30
0.0
  0
VERTEX
  5
14D7
  8
0
 10
163.6369471804480895
 20
100.1039030014520961
 30
0.0
  0
VERTEX
  5
14D8
  8
0
 10
163.6381578261216134
 20
100.1228516429743962
 30
0.0
  0
VERTEX
  5
14D9
  8
0
 10
163.6395693504165934
 20
100.1417665294235064
 30
0.0
  0
VERTEX
  5
14DA
  8
0
 10
163.641182773746408
 20
100.1606414671077943
 30
0.0
  0
VERTEX
  5
14DB
  8
0
 10
163.6430014035387046
 20
100.1794682814102941
 30
0.0
  0
VERTEX
  5
14DC
  8
0
 10
163.6450285956505866
 20
100.198238755766198
 30
0.0
  0
VERTEX
  5
14DD
  8
0
 10
163.647267705939214
 20
100.2169446736106977
 30
0.0
  0
VERTEX
  5
14DE
  8
0
 10
163.649722090261605
 20
100.2355778183788999
 30
0.0
  0
VERTEX
  5
14DF
  8
0
 10
163.6523951044750049
 20
100.2541299735061955
 30
0.0
  0
VERTEX
  5
14E0
  8
0
 10
163.6552901044362898
 20
100.2725929224276058
 30
0.0
  0
VERTEX
  5
14E1
  8
0
 10
163.6584104460027902
 20
100.2909584485783938
 30
0.0
  0
VERTEX
  5
14E2
  8
0
 10
163.6617594850316095
 20
100.3092183353937941
 30
0.0
  0
VERTEX
  5
14E3
  8
0
 10
163.665340577379709
 20
100.3273643663087995
 30
0.0
  0
VERTEX
  5
14E4
  8
0
 10
163.6691570789041918
 20
100.345388324758801
 30
0.0
  0
VERTEX
  5
14E5
  8
0
 10
163.6732123635468952
 20
100.3632821655490943
 30
0.0
  0
VERTEX
  5
14E6
  8
0
 10
163.6775099239683016
 20
100.3810389684694968
 30
0.0
  0
VERTEX
  5
14E7
  8
0
 10
163.6820533007089011
 20
100.3986522670221007
 30
0.0
  0
VERTEX
  5
14E8
  8
0
 10
163.6868460344416008
 20
100.4161155959646976
 30
0.0
  0
VERTEX
  5
14E9
  8
0
 10
163.6918916658395915
 20
100.4334224900549941
 30
0.0
  0
VERTEX
  5
14EA
  8
0
 10
163.6971937355758939
 20
100.4505664840510946
 30
0.0
  0
VERTEX
  5
14EB
  8
0
 10
163.7027557843233865
 20
100.4675411127107054
 30
0.0
  0
VERTEX
  5
14EC
  8
0
 10
163.7085813527552034
 20
100.4843399107918032
 30
0.0
  0
VERTEX
  5
14ED
  8
0
 10
163.7146739815443937
 20
100.5009564130520943
 30
0.0
  0
VERTEX
  5
14EE
  8
0
 10
163.7210372286949962
 20
100.517384109140707
 30
0.0
  0
VERTEX
  5
14EF
  8
0
 10
163.7276749247812972
 20
100.5336157792691978
 30
0.0
  0
VERTEX
  5
14F0
  8
0
 10
163.7345911171910018
 20
100.5496436393342066
 30
0.0
  0
VERTEX
  5
14F1
  8
0
 10
163.741789859307687
 20
100.5654598896256005
 30
0.0
  0
VERTEX
  5
14F2
  8
0
 10
163.7492752045152997
 20
100.5810567304334029
 30
0.0
  0
VERTEX
  5
14F3
  8
0
 10
163.7570512061975023
 20
100.5964263620473957
 30
0.0
  0
VERTEX
  5
14F4
  8
0
 10
163.7651219177382131
 20
100.6115609847576025
 30
0.0
  0
VERTEX
  5
14F5
  8
0
 10
163.7734913924579985
 20
100.6264527989180948
 30
0.0
  0
VERTEX
  5
14F6
  8
0
 10
163.7821631283518968
 20
100.6410945725808972
 30
0.0
  0
VERTEX
  5
14F7
  8
0
 10
163.7911387157151069
 20
100.6554810239974955
 30
0.0
  0
VERTEX
  5
14F8
  8
0
 10
163.8004193355141922
 20
100.6696072898670025
 30
0.0
  0
VERTEX
  5
14F9
  8
0
 10
163.810006168716086
 20
100.6834685068883033
 30
0.0
  0
VERTEX
  5
14FA
  8
0
 10
163.8199003962878066
 20
100.6970598117602975
 30
0.0
  0
VERTEX
  5
14FB
  8
0
 10
163.8301031991960031
 20
100.7103763411818989
 30
0.0
  0
VERTEX
  5
14FC
  8
0
 10
163.8406157584076936
 20
100.7234132318521063
 30
0.0
  0
VERTEX
  5
14FD
  8
0
 10
163.8514389450812985
 20
100.7361657879837935
 30
0.0
  0
VERTEX
  5
14FE
  8
0
 10
163.8625715367822124
 20
100.7486304458000035
 30
0.0
  0
VERTEX
  5
14FF
  8
0
 10
163.8740114443085076
 20
100.7608041101863989
 30
0.0
  0
VERTEX
  5
1500
  8
0
 10
163.8857565756891859
 20
100.7726836875261966
 30
0.0
  0
VERTEX
  5
1501
  8
0
 10
163.8978048389533058
 20
100.7842660842024998
 30
0.0
  0
VERTEX
  5
1502
  8
0
 10
163.9101541421298123
 20
100.7955482065980988
 30
0.0
  0
VERTEX
  5
1503
  8
0
 10
163.9228023932477072
 20
100.8065269610960968
 30
0.0
  0
VERTEX
  5
1504
  8
0
 10
163.935747500336106
 20
100.8171992540796964
 30
0.0
  0
VERTEX
  5
1505
  8
0
 10
163.9489873714240105
 20
100.8275619919318018
 30
0.0
  0
VERTEX
  5
1506
  8
0
 10
163.9625194408461084
 20
100.8376124609842037
 30
0.0
  0
VERTEX
  5
1507
  8
0
 10
163.976338728226807
 20
100.8473498844006997
 30
0.0
  0
VERTEX
  5
1508
  8
0
 10
163.9904394857175873
 20
100.8567741009323981
 30
0.0
  0
VERTEX
  5
1509
  8
0
 10
164.0048159651520905
 20
100.8658849495857055
 30
0.0
  0
VERTEX
  5
150A
  8
0
 10
164.019462418363787
 20
100.8746822693669003
 30
0.0
  0
VERTEX
  5
150B
  8
0
 10
164.0343730971862897
 20
100.8831658992825027
 30
0.0
  0
VERTEX
  5
150C
  8
0
 10
164.0495422534528984
 20
100.8913356783388053
 30
0.0
  0
VERTEX
  5
150D
  8
0
 10
164.0649641389975102
 20
100.8991914455422005
 30
0.0
  0
VERTEX
  5
150E
  8
0
 10
164.0806330053264048
 20
100.9067330405471949
 30
0.0
  0
VERTEX
  5
150F
  8
0
 10
164.0965426033504002
 20
100.9139612959008048
 30
0.0
  0
VERTEX
  5
1510
  8
0
 10
164.1126851741157111
 20
100.9208800388447997
 30
0.0
  0
VERTEX
  5
1511
  8
0
 10
164.1290526751390075
 20
100.9274936589791025
 30
0.0
  0
VERTEX
  5
1512
  8
0
 10
164.1456370639369879
 20
100.9338065459037068
 30
0.0
  0
VERTEX
  5
1513
  8
0
 10
164.1624302980264929
 20
100.9398230892183932
 30
0.0
  0
VERTEX
  5
1514
  8
0
 10
164.1794243349241924
 20
100.9455476785233969
 30
0.0
  0
VERTEX
  5
1515
  8
0
 10
164.1966111321466997
 20
100.9509847034183991
 30
0.0
  0
VERTEX
  5
1516
  8
0
 10
164.2139826472107984
 20
100.956138553503493
 30
0.0
  0
VERTEX
  5
1517
  8
0
 10
164.2315308297482943
 20
100.9610135536094049
 30
0.0
  0
VERTEX
  5
1518
  8
0
 10
164.2492470956372017
 20
100.9656096441547959
 30
0.0
  0
VERTEX
  5
1519
  8
0
 10
164.2671219965351952
 20
100.969919666594194
 30
0.0
  0
VERTEX
  5
151A
  8
0
 10
164.2851460052712014
 20
100.9739358148619033
 30
0.0
  0
VERTEX
  5
151B
  8
0
 10
164.3033095946746016
 20
100.9776502828924976
 30
0.0
  0
VERTEX
  5
151C
  8
0
 10
164.3216032375744078
 20
100.981055264620295
 30
0.0
  0
VERTEX
  5
151D
  8
0
 10
164.3400174067998023
 20
100.984142953979898
 30
0.0
  0
VERTEX
  5
151E
  8
0
 10
164.358542575179996
 20
100.9869055449057953
 30
0.0
  0
VERTEX
  5
151F
  8
0
 10
164.377169215544086
 20
100.9893352313324044
 30
0.0
  0
VERTEX
  5
1520
  8
0
 10
164.395887774716897
 20
100.9914259308151969
 30
0.0
  0
VERTEX
  5
1521
  8
0
 10
164.4146883110238946
 20
100.9931973113143044
 30
0.0
  0
VERTEX
  5
1522
  8
0
 10
164.4335605840321932
 20
100.9946888430267933
 30
0.0
  0
VERTEX
  5
1523
  8
0
 10
164.4524943456416963
 20
100.9959405043505996
 30
0.0
  0
VERTEX
  5
1524
  8
0
 10
164.4714793477521084
 20
100.9969922736840005
 30
0.0
  0
VERTEX
  5
1525
  8
0
 10
164.4905053422631909
 20
100.9978841294250032
 30
0.0
  0
VERTEX
  5
1526
  8
0
 10
164.5095620810749892
 20
100.9986560499717996
 30
0.0
  0
VERTEX
  5
1527
  8
0
 10
164.5286393160870944
 20
100.9993480137222974
 30
0.0
  0
VERTEX
  5
1528
  8
0
 10
164.5477267991994097
 20
100.9999999990748023
 30
0.0
  0
SEQEND
  5
1529
  8
0
  0
POLYLINE
  5
10CB
  8
0
 66
     1
 10
0.0
 20
0.0
 30
0.0
  0
VERTEX
  5
152A
  8
0
 10
165.1005060218633957
 20
103.4999999990752997
 30
0.0
  0
VERTEX
  5
152B
  8
0
 10
165.079830679102713
 20
103.5003884310336986
 30
0.0
  0
VERTEX
  5
152C
  8
0
 10
165.0591671182610014
 20
103.5008615007982939
 30
0.0
  0
VERTEX
  5
152D
  8
0
 10
165.0385271212570899
 20
103.501503846175396
 30
0.0
  0
VERTEX
  5
152E
  8
0
 10
165.0179224700102054
 20
103.5024001049711018
 30
0.0
  0
VERTEX
  5
152F
  8
0
 10
164.9973649956554027
 20
103.5036335303538948
 30
0.0
  0
VERTEX
  5
1530
  8
0
 10
164.9768680630822075
 20
103.5052442251609932
 30
0.0
  0
VERTEX
  5
1531
  8
0
 10
164.9564468342134944
 20
103.5072217348542978
 30
0.0
  0
VERTEX
  5
1532
  8
0
 10
164.9361165732588859
 20
103.5095527271845981
 30
0.0
  0
VERTEX
  5
1533
  8
0
 10
164.9158925444280896
 20
103.5122238699028969
 30
0.0
  0
VERTEX
  5
1534
  8
0
 10
164.8957904540363018
 20
103.5152252330210985
 30
0.0
  0
VERTEX
  5
1535
  8
0
 10
164.8758284977834876
 20
103.5185660438233981
 30
0.0
  0
VERTEX
  5
1536
  8
0
 10
164.856025741937998
 20
103.5222622291242942
 30
0.0
  0
VERTEX
  5
1537
  8
0
 10
164.8364012536860059
 20
103.5263297228042063
 30
0.0
  0
VERTEX
  5
1538
  8
0
 10
164.8169741391311049
 20
103.5307844076583024
 30
0.0
  0
VERTEX
  5
1539
  8
0
 10
164.7977653038441872
 20
103.5356398043779933
 30
0.0
  0
VERTEX
  5
153A
  8
0
 10
164.7787981717521859
 20
103.5409061278896985
 30
0.0
  0
VERTEX
  5
153B
  8
0
 10
164.7600963545881996
 20
103.5465933465929993
 30
0.0
  0
VERTEX
  5
153C
  8
0
 10
164.7416834640847867
 20
103.5527114288878039
 30
0.0
  0
VERTEX
  5
153D
  8
0
 10
164.7235836093032049
 20
103.5592704877408039
 30
0.0
  0
VERTEX
  5
153E
  8
0
 10
164.7058235007413884
 20
103.5662813923238019
 30
0.0
  0
VERTEX
  5
153F
  8
0
 10
164.6884306966510962
 20
103.5737552582399985
 30
0.0
  0
VERTEX
  5
1540
  8
0
 10
164.671432755747702
 20
103.5817032012273984
 30
0.0
  0
VERTEX
  5
1541
  8
0
 10
164.6548572583319867
 20
103.5901362229846967
 30
0.0
  0
VERTEX
  5
1542
  8
0
 10
164.6387322703020004
 20
103.5990627597310976
 30
0.0
  0
VERTEX
  5
1543
  8
0
 10
164.6230863371897897
 20
103.6084887137054977
 30
0.0
  0
VERTEX
  5
1544
  8
0
 10
164.6079480249204892
 20
103.6184198794078952
 30
0.0
  0
VERTEX
  5
1545
  8
0
 10
164.5933458971572918
 20
103.628862047677103
 30
0.0
  0
VERTEX
  5
1546
  8
0
 10
164.5793070919978902
 20
103.6398187016657033
 30
0.0
  0
VERTEX
  5
1547
  8
0
 10
164.565854884847397
 20
103.6512870716512964
 30
0.0
  0
VERTEX
  5
1548
  8
0
 10
164.5530119032233074
 20
103.6632633391209026
 30
0.0
  0
VERTEX
  5
1549
  8
0
 10
164.5408007746432872
 20
103.6757436855612013
 30
0.0
  0
VERTEX
  5
154A
  8
0
 10
164.5292432799678011
 20
103.6887235473597002
 30
0.0
  0
VERTEX
  5
154B
  8
0
 10
164.5183536993802988
 20
103.702191759944597
 30
0.0
  0
VERTEX
  5
154C
  8
0
 10
164.508142394501192
 20
103.716133710219097
 30
0.0
  0
VERTEX
  5
154D
  8
0
 10
164.4986196928414017
 20
103.7305347550678931
 30
0.0
  0
VERTEX
  5
154E
  8
0
 10
164.4897958536371902
 20
103.7453802170899024
 30
0.0
  0
VERTEX
  5
154F
  8
0
 10
164.4816741978434038
 20
103.7606519346079068
 30
0.0
  0
VERTEX
  5
1550
  8
0
 10
164.4742452299246906
 20
103.7763253097422051
 30
0.0
  0
VERTEX
  5
1551
  8
0
 10
164.4674980697583067
 20
103.7923750492987978
 30
0.0
  0
VERTEX
  5
1552
  8
0
 10
164.4614218372215078
 20
103.8087758600839976
 30
0.0
  0
VERTEX
  5
1553
  8
0
 10
164.4560056540684911
 20
103.8255027368110035
 30
0.0
  0
VERTEX
  5
1554
  8
0
 10
164.4512386700504862
 20
103.842534968627902
 30
0.0
  0
VERTEX
  5
1555
  8
0
 10
164.4471100564259984
 20
103.8598551436509041
 30
0.0
  0
VERTEX
  5
1556
  8
0
 10
164.4436089850038911
 20
103.8774459344596011
 30
0.0
  0
VERTEX
  5
1557
  8
0
 10
164.4407246275933119
 20
103.8952900136337973
 30
0.0
  0
VERTEX
  5
1558
  8
0
 10
164.438445739929989
 20
103.9133699406482947
 30
0.0
  0
VERTEX
  5
1559
  8
0
 10
164.4367537175039899
 20
103.9316662741794062
 30
0.0
  0
VERTEX
  5
155A
  8
0
 10
164.4356236470277963
 20
103.9501578579341015
 30
0.0
  0
VERTEX
  5
155B
  8
0
 10
164.4350304110020886
 20
103.9688234801068063
 30
0.0
  0
VERTEX
  5
155C
  8
0
 10
164.4349488919274904
 20
103.9876419288918044
 30
0.0
  0
VERTEX
  5
155D
  8
0
 10
164.4353539723045969
 20
104.006591992483493
 30
0.0
  0
VERTEX
  5
155E
  8
0
 10
164.4362206499855006
 20
104.0256525733646953
 30
0.0
  0
VERTEX
  5
155F
  8
0
 10
164.437529062663998
 20
104.0448076664855961
 30
0.0
  0
VERTEX
  5
1560
  8
0
 10
164.439266430996696
 20
104.0640482844750068
 30
0.0
  0
VERTEX
  5
1561
  8
0
 10
164.4414204921864098
 20
104.0833659517469982
 30
0.0
  0
VERTEX
  5
1562
  8
0
 10
164.4439789785193966
 20
104.1027521924051058
 30
0.0
  0
VERTEX
  5
1563
  8
0
 10
164.446928435684697
 20
104.1221984555827049
 30
0.0
  0
VERTEX
  5
1564
  8
0
 10
164.4502526872533963
 20
104.141696018427993
 30
0.0
  0
VERTEX
  5
1565
  8
0
 10
164.453935176620206
 20
104.1612361340692985
 30
0.0
  0
VERTEX
  5
1566
  8
0
 10
164.4579593471798091
 20
104.1808100556347938
 30
0.0
  0
VERTEX
  5
1567
  8
0
 10
164.4623088496389016
 20
104.2004090511990029
 30
0.0
  0
VERTEX
  5
1568
  8
0
 10
164.4669704812382065
 20
104.220024615682803
 30
0.0
  0
VERTEX
  5
1569
  8
0
 10
164.4719334844043033
 20
104.239648420291104
 30
0.0
  0
VERTEX
  5
156A
  8
0
 10
164.4771871658043096
 20
104.2592721408600056
 30
0.0
  0
VERTEX
  5
156B
  8
0
 10
164.4827208321052012
 20
104.2788874532254937
 30
0.0
  0
VERTEX
  5
156C
  8
0
 10
164.4885237899738968
 20
104.2984860332239947
 30
0.0
  0
VERTEX
  5
156D
  8
0
 10
164.4945853460774003
 20
104.3180595566913951
 30
0.0
  0
VERTEX
  5
156E
  8
0
 10
164.5008948070828012
 20
104.3375996994638939
 30
0.0
  0
VERTEX
  5
156F
  8
0
 10
164.5074414796571034
 20
104.3570981373777045
 30
0.0
  0
VERTEX
  5
1570
  8
0
 10
164.5142146704671973
 20
104.3765465462687985
 30
0.0
  0
VERTEX
  5
1571
  8
0
 10
164.5212037011775124
 20
104.3959366132838937
 30
0.0
  0
VERTEX
  5
1572
  8
0
 10
164.5284007529884889
 20
104.4152621821238967
 30
0.0
  0
VERTEX
  5
1573
  8
0
 10
164.5358042367377891
 20
104.4345217946479067
 30
0.0
  0
VERTEX
  5
1574
  8
0
 10
164.5434133833518899
 20
104.4537146111949966
 30
0.0
  0
VERTEX
  5
1575
  8
0
 10
164.5512268877122892
 20
104.4728392768823966
 30
0.0
  0
VERTEX
  5
1576
  8
0
 10
164.5592396218065971
 20
104.4918907624357018
 30
0.0
  0
VERTEX
  5
1577
  8
0
 10
164.5674447970399115
 20
104.5108624425048021
 30
0.0
  0
VERTEX
  5
1578
  8
0
 10
164.5758356160534959
 20
104.5297477977696019
 30
0.0
  0
VERTEX
  5
1579
  8
0
 10
164.5844052184054931
 20
104.5485438601117067
 30
0.0
  0
VERTEX
  5
157A
  8
0
 10
164.5931466692890126
 20
104.5672518477373956
 30
0.0
  0
VERTEX
  5
157B
  8
0
 10
164.6020530318174053
 20
104.5858732168289009
 30
0.0
  0
VERTEX
  5
157C
  8
0
 10
164.6111194012885903
 20
104.6044069611059939
 30
0.0
  0
VERTEX
  5
157D
  8
0
 10
164.6203466670930879
 20
104.6228450534040064
 30
0.0
  0
VERTEX
  5
157E
  8
0
 10
164.6297367444713018
 20
104.641178223502493
 30
0.0
  0
VERTEX
  5
157F
  8
0
 10
164.6392915486640049
 20
104.6593972011815055
 30
0.0
  0
VERTEX
  5
1580
  8
0
 10
164.6490129949118
 20
104.6774927162205984
 30
0.0
  0
VERTEX
  5
1581
  8
0
 10
164.6589029984552042
 20
104.6954554983996957
 30
0.0
  0
VERTEX
  5
1582
  8
0
 10
164.6689634745349906
 20
104.7132762774985935
 30
0.0
  0
VERTEX
  5
1583
  8
0
 10
164.6791961851216115
 20
104.7309460229176068
 30
0.0
  0
VERTEX
  5
1584
  8
0
 10
164.6895987770454894
 20
104.7484621376207059
 30
0.0
  0
VERTEX
  5
1585
  8
0
 10
164.700164424849504
 20
104.7658290164954025
 30
0.0
  0
VERTEX
  5
1586
  8
0
 10
164.7108860782215061
 20
104.7830514059644997
 30
0.0
  0
VERTEX
  5
1587
  8
0
 10
164.7217566868496874
 20
104.8001340524508009
 30
0.0
  0
VERTEX
  5
1588
  8
0
 10
164.7327692744719911
 20
104.8170816059995047
 30
0.0
  0
VERTEX
  5
1589
  8
0
 10
164.7439206608673885
 20
104.8338937760254055
 30
0.0
  0
VERTEX
  5
158A
  8
0
 10
164.7552132050678892
 20
104.8505630624844969
 30
0.0
  0
VERTEX
  5
158B
  8
0
 10
164.7666497044814946
 20
104.867081394776406
 30
0.0
  0
VERTEX
  5
158C
  8
0
 10
164.77823295651649
 20
104.8834407023010016
 30
0.0
  0
VERTEX
  5
158D
  8
0
 10
164.7899657585809052
 20
104.899632914457996
 30
0.0
  0
VERTEX
  5
158E
  8
0
 10
164.8018509080829119
 20
104.9156499606470021
 30
0.0
  0
VERTEX
  5
158F
  8
0
 10
164.8138912024305114
 20
104.9314837702679029
 30
0.0
  0
VERTEX
  5
1590
  8
0
 10
164.8260894390319891
 20
104.9471262727203964
 30
0.0
  0
VERTEX
  5
1591
  8
0
 10
164.838448142511993
 20
104.9625699454369965
 30
0.0
  0
VERTEX
  5
1592
  8
0
 10
164.8509674042255995
 20
104.9778121543888005
 30
0.0
  0
VERTEX
  5
1593
  8
0
 10
164.8636460371760109
 20
104.992852833807305
 30
0.0
  0
VERTEX
  5
1594
  8
0
 10
164.8764828430172997
 20
105.0076919407252944
 30
0.0
  0
VERTEX
  5
1595
  8
0
 10
164.8894766234035103
 20
105.0223294321755958
 30
0.0
  0
VERTEX
  5
1596
  8
0
 10
164.9026261799886015
 20
105.0367652651907946
 30
0.0
  0
VERTEX
  5
1597
  8
0
 10
164.9159303144267028
 20
105.0509993968039026
 30
0.0
  0
VERTEX
  5
1598
  8
0
 10
164.9293878289649058
 20
105.0650317830864964
 30
0.0
  0
VERTEX
  5
1599
  8
0
 10
164.9429979548440883
 20
105.078861685096399
 30
0.0
  0
VERTEX
  5
159A
  8
0
 10
164.9567611081226914
 20
105.0924864443644964
 30
0.0
  0
VERTEX
  5
159B
  8
0
 10
164.9706779076803116
 20
105.1059030738310014
 30
0.0
  0
VERTEX
  5
159C
  8
0
 10
164.9847489723960052
 20
105.1191085864358001
 30
0.0
  0
VERTEX
  5
159D
  8
0
 10
164.9989749211495962
 20
105.1320999951188071
 30
0.0
  0
VERTEX
  5
159E
  8
0
 10
165.0133563728203967
 20
105.1448743128203063
 30
0.0
  0
VERTEX
  5
159F
  8
0
 10
165.0278939462878895
 20
105.1574285524800985
 30
0.0
  0
VERTEX
  5
15A0
  8
0
 10
165.0425882604315007
 20
105.1697597270382971
 30
0.0
  0
VERTEX
  5
15A1
  8
0
 10
165.0574399306360931
 20
105.1818648565467953
 30
0.0
  0
VERTEX
  5
15A2
  8
0
 10
165.0724491987685099
 20
105.1937417212341046
 30
0.0
  0
VERTEX
  5
15A3
  8
0
 10
165.0876156063887095
 20
105.2053895265774059
 30
0.0
  0
VERTEX
  5
15A4
  8
0
 10
165.1029386179947096
 20
105.2168076348896051
 30
0.0
  0
VERTEX
  5
15A5
  8
0
 10
165.1184176980844995
 20
105.2279954084834941
 30
0.0
  0
VERTEX
  5
15A6
  8
0
 10
165.134052311155898
 20
105.2389522096716945
 30
0.0
  0
VERTEX
  5
15A7
  8
0
 10
165.1498419217068943
 20
105.2496774007670979
 30
0.0
  0
VERTEX
  5
15A8
  8
0
 10
165.165785994235307
 20
105.2601703440823968
 30
0.0
  0
VERTEX
  5
15A9
  8
0
 10
165.1818839932392109
 20
105.2704304019303976
 30
0.0
  0
VERTEX
  5
15AA
  8
0
 10
165.1981353741502971
 20
105.2804569507906933
 30
0.0
  0
VERTEX
  5
15AB
  8
0
 10
165.2145392541787032
 20
105.2902498956528063
 30
0.0
  0
VERTEX
  5
15AC
  8
0
 10
165.2310943192281911
 20
105.2998098154716047
 30
0.0
  0
VERTEX
  5
15AD
  8
0
 10
165.2477992271736866
 20
105.3091373329997964
 30
0.0
  0
VERTEX
  5
15AE
  8
0
 10
165.2646526358903998
 20
105.3182330709902033
 30
0.0
  0
VERTEX
  5
15AF
  8
0
 10
165.2816532032533985
 20
105.3270976521956044
 30
0.0
  0
VERTEX
  5
15B0
  8
0
 10
165.2987995871376938
 20
105.3357316993687931
 30
0.0
  0
VERTEX
  5
15B1
  8
0
 10
165.3160904454182969
 20
105.3441358352627049
 30
0.0
  0
VERTEX
  5
15B2
  8
0
 10
165.3335244359703893
 20
105.3523106826299056
 30
0.0
  0
VERTEX
  5
15B3
  8
0
 10
165.3511002125551101
 20
105.3602568638786039
 30
0.0
  0
VERTEX
  5
15B4
  8
0
 10
165.3688161154796887
 20
105.3679749751515971
 30
0.0
  0
VERTEX
  5
15B5
  8
0
 10
165.3866699564462124
 20
105.3754655682983952
 30
0.0
  0
VERTEX
  5
15B6
  8
0
 10
165.4046594962931067
 20
105.382729190906602
 30
0.0
  0
VERTEX
  5
15B7
  8
0
 10
165.4227824958587973
 20
105.3897663905634943
 30
0.0
  0
VERTEX
  5
15B8
  8
0
 10
165.4410367159817952
 20
105.3965777148567042
 30
0.0
  0
VERTEX
  5
15B9
  8
0
 10
165.4594199175004974
 20
105.4031637113736934
 30
0.0
  0
VERTEX
  5
15BA
  8
0
 10
165.4779298612535001
 20
105.4095249277018951
 30
0.0
  0
VERTEX
  5
15BB
  8
0
 10
165.4965643080792006
 20
105.4156619114288986
 30
0.0
  0
VERTEX
  5
15BC
  8
0
 10
165.5153210188159107
 20
105.4215752101420946
 30
0.0
  0
VERTEX
  5
15BD
  8
0
 10
165.5341976103763955
 20
105.4272657163817968
 30
0.0
  0
VERTEX
  5
15BE
  8
0
 10
165.5531911242931926
 20
105.4327357017228053
 30
0.0
  0
VERTEX
  5
15BF
  8
0
 10
165.5722984583350126
 20
105.437987782304603
 30
0.0
  0
VERTEX
  5
15C0
  8
0
 10
165.5915165102703952
 20
105.4430245742666017
 30
0.0
  0
VERTEX
  5
15C1
  8
0
 10
165.610842177867994
 20
105.4478486937484973
 30
0.0
  0
VERTEX
  5
15C2
  8
0
 10
165.6302723588964909
 20
105.4524627568895028
 30
0.0
  0
VERTEX
  5
15C3
  8
0
 10
165.6498039511243974
 20
105.4568693798292998
 30
0.0
  0
VERTEX
  5
15C4
  8
0
 10
165.6694338523205943
 20
105.4610711787073001
 30
0.0
  0
VERTEX
  5
15C5
  8
0
 10
165.689158960253593
 20
105.4650707696630008
 30
0.0
  0
VERTEX
  5
15C6
  8
0
 10
165.708976107044009
 20
105.4688701444553942
 30
0.0
  0
VERTEX
  5
15C7
  8
0
 10
165.7288814714819125
 20
105.4724650809875044
 30
0.0
  0
VERTEX
  5
15C8
  8
0
 10
165.7488708577481873
 20
105.4758477942401953
 30
0.0
  0
VERTEX
  5
15C9
  8
0
 10
165.7689400655852126
 20
105.4790104569791964
 30
0.0
  0
VERTEX
  5
15CA
  8
0
 10
165.7890848947351969
 20
105.4819452419700951
 30
0.0
  0
VERTEX
  5
15CB
  8
0
 10
165.8093011449408039
 20
105.4846443219784931
 30
0.0
  0
VERTEX
  5
15CC
  8
0
 10
165.8295846159442135
 20
105.487099869770006
 30
0.0
  0
VERTEX
  5
15CD
  8
0
 10
165.8499311074878051
 20
105.489304058110406
 30
0.0
  0
VERTEX
  5
15CE
  8
0
 10
165.8703364193140999
 20
105.4912490597650958
 30
0.0
  0
VERTEX
  5
15CF
  8
0
 10
165.8907962652031074
 20
105.4929287723930997
 30
0.0
  0
VERTEX
  5
15D0
  8
0
 10
165.911305266024101
 20
105.494359023672402
 30
0.0
  0
VERTEX
  5
15D1
  8
0
 10
165.9318572903927134
 20
105.4955707357740948
 30
0.0
  0
VERTEX
  5
15D2
  8
0
 10
165.9524461920879048
 20
105.4965951285806938
 30
0.0
  0
VERTEX
  5
15D3
  8
0
 10
165.9730658248886925
 20
105.4974634219746008
 30
0.0
  0
VERTEX
  5
15D4
  8
0
 10
165.9937100425738947
 20
105.4982068358385021
 30
0.0
  0
VERTEX
  5
15D5
  8
0
 10
166.0143726989223865
 20
105.4988565900547997
 30
0.0
  0
VERTEX
  5
15D6
  8
0
 10
166.035047647712986
 20
105.4994439045060943
 30
0.0
  0
VERTEX
  5
15D7
  8
0
 10
166.0557287427247957
 20
105.4999999990748023
 30
0.0
  0
SEQEND
  5
15D8
  8
0
  0
POLYLINE
  5
10CC
  8
0
 66
     1
 10
0.0
 20
0.0
 30
0.0
  0
VERTEX
  5
15D9
  8
0
 10
100.0000000001392948
 20
43.0000000000912905
 30
0.0
  0
VERTEX
  5
15DA
  8
0
 10
100.0072364655949997
 20
43.0000369545497989
 30
0.0
  0
VERTEX
  5
15DB
  8
0
 10
100.0145078025742009
 20
43.0000738093872386
 30
0.0
  0
VERTEX
  5
15DC
  8
0
 10
100.0218488826003949
 20
43.0001104649825621
 30
0.0
  0
VERTEX
  5
15DD
  8
0
 10
100.0292945771971063
 20
43.0001468217146723
 30
0.0
  0
VERTEX
  5
15DE
  8
0
 10
100.0368797578879025
 20
43.0001827799625431
 30
0.0
  0
VERTEX
  5
15DF
  8
0
 10
100.0446392961961948
 20
43.0002182401050703
 30
0.0
  0
VERTEX
  5
15E0
  8
0
 10
100.0526079629008933
 20
43.0002530979457092
 30
0.0
  0
VERTEX
  5
15E1
  8
0
 10
100.0608066321959058
 20
43.0002866181500281
 30
0.0
  0
VERTEX
  5
15E2
  8
0
 10
100.0692282187297053
 20
43.000316795551619
 30
0.0
  0
VERTEX
  5
15E3
  8
0
 10
100.0778622850833983
 20
43.0003414727440401
 30
0.0
  0
VERTEX
  5
15E4
  8
0
 10
100.0866983938380059
 20
43.0003584923207995
 30
0.0
  0
VERTEX
  5
15E5
  8
0
 10
100.095726107574194
 20
43.0003656968754626
 30
0.0
  0
VERTEX
  5
15E6
  8
0
 10
100.1049349888732962
 20
43.0003609290015589
 30
0.0
  0
VERTEX
  5
15E7
  8
0
 10
100.1143149968205961
 20
43.0003422747835486
 30
0.0
  0
VERTEX
  5
15E8
  8
0
 10
100.1238613618916986
 20
43.0003110574336276
 30
0.0
  0
VERTEX
  5
15E9
  8
0
 10
100.133573058729695
 20
43.0002708994335521
 30
0.0
  0
VERTEX
  5
15EA
  8
0
 10
100.143449141787201
 20
43.0002254722758366
 30
0.0
  0
VERTEX
  5
15EB
  8
0
 10
100.1534886655171022
 20
43.0001784474530808
 30
0.0
  0
VERTEX
  5
15EC
  8
0
 10
100.1636906843720993
 20
43.0001334964578206
 30
0.0
  0
VERTEX
  5
15ED
  8
0
 10
100.1740542527679025
 20
43.0000942904302974
 30
0.0
  0
VERTEX
  5
15EE
  8
0
 10
100.1845783268237966
 20
43.0000635699490203
 30
0.0
  0
VERTEX
  5
15EF
  8
0
 10
100.1952615510217015
 20
43.0000411253480124
 30
0.0
  0
VERTEX
  5
15F0
  8
0
 10
100.2061025082285965
 20
43.0000261636577505
 30
0.0
  0
VERTEX
  5
15F1
  8
0
 10
100.2170997813114042
 20
43.0000178919087617
 30
0.0
  0
VERTEX
  5
15F2
  8
0
 10
100.2282519531370042
 20
43.000015517131537
 30
0.0
  0
VERTEX
  5
15F3
  8
0
 10
100.2395576065723048
 20
43.0000182463566105
 30
0.0
  0
VERTEX
  5
15F4
  8
0
 10
100.2510153044710961
 20
43.0000252785223793
 30
0.0
  0
VERTEX
  5
15F5
  8
0
 10
100.2626231102016021
 20
43.000035610607668
 30
0.0
  0
VERTEX
  5
15F6
  8
0
 10
100.2743785648589068
 20
43.0000480284174884
 30
0.0
  0
VERTEX
  5
15F7
  8
0
 10
100.2862791849638029
 20
43.0000613078208289
 30
0.0
  0
VERTEX
  5
15F8
  8
0
 10
100.2983224870373959
 20
43.000074224686692
 30
0.0
  0
VERTEX
  5
15F9
  8
0
 10
100.3105059876008056
 20
43.000085554884059
 30
0.0
  0
VERTEX
  5
15FA
  8
0
 10
100.3228272031750947
 20
43.0000940742819182
 30
0.0
  0
VERTEX
  5
15FB
  8
0
 10
100.3352842145249042
 20
43.0000987136350474
 30
0.0
  0
VERTEX
  5
15FC
  8
0
 10
100.3478792971486939
 20
43.0000995551594229
 30
0.0
  0
VERTEX
  5
15FD
  8
0
 10
100.360616616314303
 20
43.0000971998157624
 30
0.0
  0
VERTEX
  5
15FE
  8
0
 10
100.373500346413195
 20
43.0000922510691979
 30
0.0
  0
VERTEX
  5
15FF
  8
0
 10
100.3865346618366061
 20
43.0000853123848827
 30
0.0
  0
VERTEX
  5
1600
  8
0
 10
100.3997237369759006
 20
43.0000769872279207
 30
0.0
  0
VERTEX
  5
1601
  8
0
 10
100.4130717462223998
 20
43.0000678790634367
 30
0.0
  0
VERTEX
  5
1602
  8
0
 10
100.4265784805107984
 20
43.0000584991718284
 30
0.0
  0
VERTEX
  5
1603
  8
0
 10
100.4402253802046943
 20
43.0000489729180799
 30
0.0
  0
VERTEX
  5
1604
  8
0
 10
100.4539890844165058
 20
43.0000393246961679
 30
0.0
  0
VERTEX
  5
1605
  8
0
 10
100.4678462322424934
 20
43.0000295788997278
 30
0.0
  0
VERTEX
  5
1606
  8
0
 10
100.481773462779401
 20
43.0000197599224023
 30
0.0
  0
VERTEX
  5
1607
  8
0
 10
100.4957474151234038
 20
43.0000098921578129
 30
0.0
  0
VERTEX
  5
1608
  8
0
 10
100.5097447283709045
 20
42.9999999999996021
 30
0.0
  0
SEQEND
  5
1609
  8
0
  0
POLYLINE
  5
10CD
  8
0
 66
     1
 10
0.0
 20
0.0
 30
0.0
  0
VERTEX
  5
160A
  8
0
 10
116.9448376402391006
 20
42.6893754269825578
 30
0.0
  0
VERTEX
  5
160B
  8
0
 10
116.9352316060545007
 20
42.6896594077227007
 30
0.0
  0
VERTEX
  5
160C
  8
0
 10
116.9256271879594067
 20
42.6899433623468099
 30
0.0
  0
VERTEX
  5
160D
  8
0
 10
116.9160260020430968
 20
42.6902272647388585
 30
0.0
  0
VERTEX
  5
160E
  8
0
 10
116.9064296643953043
 20
42.6905110887828201
 30
0.0
  0
VERTEX
  5
160F
  8
0
 10
116.8968397911052932
 20
42.6907948083626678
 30
0.0
  0
VERTEX
  5
1610
  8
0
 10
116.8872579982624984
 20
42.6910783973623609
 30
0.0
  0
VERTEX
  5
1611
  8
0
 10
116.8776859019564967
 20
42.6913618296658797
 30
0.0
  0
VERTEX
  5
1612
  8
0
 10
116.8681251182766943
 20
42.6916450791571904
 30
0.0
  0
VERTEX
  5
1613
  8
0
 10
116.8585772633124975
 20
42.6919281197202594
 30
0.0
  0
VERTEX
  5
1614
  8
0
 10
116.849043953153398
 20
42.6922109252390811
 30
0.0
  0
VERTEX
  5
1615
  8
0
 10
116.8395268038889014
 20
42.6924934695975935
 30
0.0
  0
VERTEX
  5
1616
  8
0
 10
116.8300274316084
 20
42.6927757266797769
 30
0.0
  0
VERTEX
  5
1617
  8
0
 10
116.8205474524013994
 20
42.693057670369619
 30
0.0
  0
VERTEX
  5
1618
  8
0
 10
116.8110884823573059
 20
42.6933392745510574
 30
0.0
  0
VERTEX
  5
1619
  8
0
 10
116.8016521375654975
 20
42.693620513108101
 30
0.0
  0
VERTEX
  5
161A
  8
0
 10
116.792240034115693
 20
42.6939013599247019
 30
0.0
  0
VERTEX
  5
161B
  8
0
 10
116.7828537880970998
 20
42.6941817888848192
 30
0.0
  0
VERTEX
  5
161C
  8
0
 10
116.7734950155992948
 20
42.6944617738724332
 30
0.0
  0
VERTEX
  5
161D
  8
0
 10
116.7641653327115989
 20
42.6947412887715316
 30
0.0
  0
VERTEX
  5
161E
  8
0
 10
116.7548663555237027
 20
42.6950203074660593
 30
0.0
  0
VERTEX
  5
161F
  8
0
 10
116.7455997001247994
 20
42.6952988038399823
 30
0.0
  0
VERTEX
  5
1620
  8
0
 10
116.7363669826044941
 20
42.6955767517773026
 30
0.0
  0
VERTEX
  5
1621
  8
0
 10
116.7271698190523068
 20
42.6958541251619721
 30
0.0
  0
VERTEX
  5
1622
  8
0
 10
116.7180098255575018
 20
42.6961308978779499
 30
0.0
  0
VERTEX
  5
1623
  8
0
 10
116.7088886182096985
 20
42.6964070438092307
 30
0.0
  0
VERTEX
  5
1624
  8
0
 10
116.6998078130983032
 20
42.6966825368397735
 30
0.0
  0
VERTEX
  5
1625
  8
0
 10
116.6907690263126938
 20
42.6969573508535305
 30
0.0
  0
VERTEX
  5
1626
  8
0
 10
116.6817764804396944
 20
42.6972313641296992
 30
0.0
  0
VERTEX
  5
1627
  8
0
 10
116.6728501775512967
 20
42.6975038761652073
 30
0.0
  0
VERTEX
  5
1628
  8
0
 10
116.664016026986701
 20
42.6977739697818421
 30
0.0
  0
VERTEX
  5
1629
  8
0
 10
116.6552999484247977
 20
42.6980407274221818
 30
0.0
  0
VERTEX
  5
162A
  8
0
 10
116.6467278615439938
 20
42.69830323152879
 30
0.0
  0
VERTEX
  5
162B
  8
0
 10
116.6383256860230944
 20
42.6985605645442519
 30
0.0
  0
VERTEX
  5
162C
  8
0
 10
116.6301206980839993
 20
42.6988117619029026
 30
0.0
  0
VERTEX
  5
162D
  8
0
 10
116.6221768092850937
 20
42.699054589517182
 30
0.0
  0
VERTEX
  5
162E
  8
0
 10
116.6145978672735026
 20
42.6992854293968023
 30
0.0
  0
VERTEX
  5
162F
  8
0
 10
116.6075050384828984
 20
42.6995002300697593
 30
0.0
  0
VERTEX
  5
1630
  8
0
 10
116.6011314424926013
 20
42.6996922800367713
 30
0.0
  0
VERTEX
  5
1631
  8
0
 10
116.5957810923439979
 20
42.6998530398272464
 30
0.0
  0
VERTEX
  5
1632
  8
0
 10
116.5921488899328011
 20
42.6999620316787372
 30
0.0
  0
VERTEX
  5
1633
  8
0
 10
116.5909018018396068
 20
42.6999994153399598
 30
0.0
  0
SEQEND
  5
1634
  8
0
  0
POLYLINE
  5
10CE
  8
0
 66
     1
 10
0.0
 20
0.0
 30
0.0
  0
VERTEX
  5
1635
  8
0
 10
100.5097447283709045
 20
42.9999999999996021
 30
0.0
  0
VERTEX
  5
1636
  8
0
 10
100.4937431302462016
 20
43.0490546682536603
 30
0.0
  0
VERTEX
  5
1637
  8
0
 10
100.4777722101314055
 20
43.0981164638575578
 30
0.0
  0
VERTEX
  5
1638
  8
0
 10
100.4618626460361952
 20
43.1471925141611266
 30
0.0
  0
VERTEX
  5
1639
  8
0
 10
100.4460451159707048
 20
43.1962899465141916
 30
0.0
  0
VERTEX
  5
163A
  8
0
 10
100.4303502979446989
 20
43.2454158882665922
 30
0.0
  0
VERTEX
  5
163B
  8
0
 10
100.4148088699680983
 20
43.2945774667681533
 30
0.0
  0
VERTEX
  5
163C
  8
0
 10
100.3994515100506959
 20
43.3437818093686928
 30
0.0
  0
VERTEX
  5
163D
  8
0
 10
100.384304417542495
 20
43.3930348618330299
 30
0.0
  0
VERTEX
  5
163E
  8
0
 10
100.3693700864004938
 20
43.4423363158367835
 30
0.0
  0
VERTEX
  5
163F
  8
0
 10
100.3546431969371042
 20
43.4916838016163325
 30
0.0
  0
VERTEX
  5
1640
  8
0
 10
100.3401184246541931
 20
43.5410749481388422
 30
0.0
  0
VERTEX
  5
1641
  8
0
 10
100.3257904450533005
 20
43.590507384371449
 30
0.0
  0
VERTEX
  5
1642
  8
0
 10
100.311653933636407
 20
43.6399787392813323
 30
0.0
  0
VERTEX
  5
1643
  8
0
 10
100.2977035659074971
 20
43.6894866418368935
 30
0.0
  0
VERTEX
  5
1644
  8
0
 10
100.2839355573851066
 20
43.7390294791639604
 30
0.0
  0
VERTEX
  5
1645
  8
0
 10
100.2703520670899024
 20
43.7886085644077099
 30
0.0
  0
VERTEX
  5
1646
  8
0
 10
100.2569566876703959
 20
43.8382259164960573
 30
0.0
  0
VERTEX
  5
1647
  8
0
 10
100.2437530117748992
 20
43.8878835543569465
 30
0.0
  0
VERTEX
  5
1648
  8
0
 10
100.2307446320516959
 20
43.9375834969183217
 30
0.0
  0
VERTEX
  5
1649
  8
0
 10
100.2179351411493968
 20
43.9873277631080768
 30
0.0
  0
VERTEX
  5
164A
  8
0
 10
100.2053281244324978
 20
44.0371183595931583
 30
0.0
  0
VERTEX
  5
164B
  8
0
 10
100.1929262756325016
 20
44.0869557921080784
 30
0.0
  0
VERTEX
  5
164C
  8
0
 10
100.1807305512253947
 20
44.1368376419742816
 30
0.0
  0
VERTEX
  5
164D
  8
0
 10
100.1687417073075039
 20
44.1867611532041522
 30
0.0
  0
VERTEX
  5
164E
  8
0
 10
100.1569604999752983
 20
44.2367235698100671
 30
0.0
  0
VERTEX
  5
164F
  8
0
 10
100.1453876853251046
 20
44.2867221358043892
 30
0.0
  0
VERTEX
  5
1650
  8
0
 10
100.1340240194533067
 20
44.3367540951994883
 30
0.0
  0
VERTEX
  5
1651
  8
0
 10
100.1228706968047959
 20
44.3868168231235387
 30
0.0
  0
VERTEX
  5
1652
  8
0
 10
100.1119363422846931
 20
44.4369099172536721
 30
0.0
  0
VERTEX
  5
1653
  8
0
 10
100.1012357820703045
 20
44.4870348301494118
 30
0.0
  0
VERTEX
  5
1654
  8
0
 10
100.0907840323265958
 20
44.5371930711981392
 30
0.0
  0
VERTEX
  5
1655
  8
0
 10
100.0805961092184049
 20
44.5873861497872284
 30
0.0
  0
VERTEX
  5
1656
  8
0
 10
100.0706870289106973
 20
44.6376155753040536
 30
0.0
  0
VERTEX
  5
1657
  8
0
 10
100.0610718075684957
 20
44.6878828571360032
 30
0.0
  0
VERTEX
  5
1658
  8
0
 10
100.0517588897684931
 20
44.738188712066659
 30
0.0
  0
VERTEX
  5
1659
  8
0
 10
100.0427175151882011
 20
44.7885291283494666
 30
0.0
  0
VERTEX
  5
165A
  8
0
 10
100.0339024458474029
 20
44.8388983480776133
 30
0.0
  0
VERTEX
  5
165B
  8
0
 10
100.0252684206979978
 20
44.8892906105619929
 30
0.0
  0
VERTEX
  5
165C
  8
0
 10
100.0167701786923971
 20
44.9397001551135631
 30
0.0
  0
VERTEX
  5
165D
  8
0
 10
100.0083624587825994
 20
44.9901212210432604
 30
0.0
  0
VERTEX
  5
165E
  8
0
 10
99.9999999999206466
 20
45.0405480476620212
 30
0.0
  0
SEQEND
  5
165F
  8
0
  0
POLYLINE
  5
10CF
  8
0
 66
     1
 10
0.0
 20
0.0
 30
0.0
  0
VERTEX
  5
1660
  8
0
 10
129.9999999997608029
 20
94.4999978475567985
 30
0.0
  0
VERTEX
  5
1661
  8
0
 10
129.9995245537450899
 20
94.5003443517405088
 30
0.0
  0
VERTEX
  5
1662
  8
0
 10
129.9989790304341
 20
94.5007440823272731
 30
0.0
  0
VERTEX
  5
1663
  8
0
 10
129.9982933525324995
 20
94.5012502657201452
 30
0.0
  0
VERTEX
  5
1664
  8
0
 10
129.9973974427448979
 20
94.5019161283221933
 30
0.0
  0
VERTEX
  5
1665
  8
0
 10
129.99622122377599
 20
94.5027948965364857
 30
0.0
  0
VERTEX
  5
1666
  8
0
 10
129.9947035338271917
 20
94.5039334036441687
 30
0.0
  0
VERTEX
  5
1667
  8
0
 10
129.9928439610328894
 20
94.5053349203810171
 30
0.0
  0
VERTEX
  5
1668
  8
0
 10
129.9906674326147993
 20
94.5069845473369838
 30
0.0
  0
VERTEX
  5
1669
  8
0
 10
129.9881989599894041
 20
94.508867324727575
 30
0.0
  0
VERTEX
  5
166A
  8
0
 10
129.985463554573613
 20
94.5109682927682968
 30
0.0
  0
VERTEX
  5
166B
  8
0
 10
129.9824857167616869
 20
94.5132728786287259
 30
0.0
  0
VERTEX
  5
166C
  8
0
 10
129.9792782216568128
 20
94.5157753880558431
 30
0.0
  0
VERTEX
  5
166D
  8
0
 10
129.9758421347254966
 20
94.5184789935202048
 30
0.0
  0
VERTEX
  5
166E
  8
0
 10
129.9721780135429867
 20
94.5213872520755558
 30
0.0
  0
VERTEX
  5
166F
  8
0
 10
129.9682864156845028
 20
94.5245037207756695
 30
0.0
  0
VERTEX
  5
1670
  8
0
 10
129.964167899203602
 20
94.5278319563690701
 30
0.0
  0
VERTEX
  5
1671
  8
0
 10
129.9598243902298123
 20
94.5313746425467514
 30
0.0
  0
VERTEX
  5
1672
  8
0
 10
129.9552621803345005
 20
94.5351316771291152
 30
0.0
  0
VERTEX
  5
1673
  8
0
 10
129.9504884299387015
 20
94.539102403467453
 30
0.0
  0
VERTEX
  5
1674
  8
0
 10
129.9455102994635922
 20
94.5432861649131837
 30
0.0
  0
VERTEX
  5
1675
  8
0
 10
129.9403349493302926
 20
94.5476823048175845
 30
0.0
  0
VERTEX
  5
1676
  8
0
 10
129.9349694904570072
 20
94.5522902282637574
 30
0.0
  0
VERTEX
  5
1677
  8
0
 10
129.9294203048997076
 20
94.5571102492523465
 30
0.0
  0
VERTEX
  5
1678
  8
0
 10
129.9236932196313035
 20
94.5621433739920576
 30
0.0
  0
VERTEX
  5
1679
  8
0
 10
129.9177940476884032
 20
94.5673906260710453
 30
0.0
  0
VERTEX
  5
167A
  8
0
 10
129.9117286021077859
 20
94.5728530290772937
 30
0.0
  0
VERTEX
  5
167B
  8
0
 10
129.9055026963528974
 20
94.5785316066087773
 30
0.0
  0
VERTEX
  5
167C
  8
0
 10
129.8991223727485078
 20
94.5844273875329264
 30
0.0
  0
VERTEX
  5
167D
  8
0
 10
129.8925942791209991
 20
94.5905414146588726
 30
0.0
  0
VERTEX
  5
167E
  8
0
 10
129.8859251622878901
 20
94.5968747330750261
 30
0.0
  0
VERTEX
  5
167F
  8
0
 10
129.8791217690668987
 20
94.6034283878697551
 30
0.0
  0
VERTEX
  5
1680
  8
0
 10
129.8721908462757142
 20
94.610203424131555
 30
0.0
  0
VERTEX
  5
1681
  8
0
 10
129.8651392157954945
 20
94.6172009656785633
 30
0.0
  0
VERTEX
  5
1682
  8
0
 10
129.8579743770519883
 20
94.6244228469648334
 30
0.0
  0
VERTEX
  5
1683
  8
0
 10
129.8507041888703952
 20
94.6318712793973447
 30
0.0
  0
VERTEX
  5
1684
  8
0
 10
129.843336513375391
 20
94.6395484778436753
 30
0.0
  0
VERTEX
  5
1685
  8
0
 10
129.8358792126917081
 20
94.6474566571714462
 30
0.0
  0
VERTEX
  5
1686
  8
0
 10
129.828340130367792
 20
94.6555979780069947
 30
0.0
  0
VERTEX
  5
1687
  8
0
 10
129.8207265843959135
 20
94.6639730664100085
 30
0.0
  0
VERTEX
  5
1688
  8
0
 10
129.813045306001186
 20
94.672580835141261
 30
0.0
  0
VERTEX
  5
1689
  8
0
 10
129.805302995542803
 20
94.6814201068377059
 30
0.0
  0
VERTEX
  5
168A
  8
0
 10
129.7975063533801006
 20
94.6904897041363256
 30
0.0
  0
VERTEX
  5
168B
  8
0
 10
129.7896620907802117
 20
94.6997884640403527
 30
0.0
  0
VERTEX
  5
168C
  8
0
 10
129.7817776642949923
 20
94.7093162051582453
 30
0.0
  0
VERTEX
  5
168D
  8
0
 10
129.7738617411633015
 20
94.7190743406782616
 30
0.0
  0
VERTEX
  5
168E
  8
0
 10
129.7659230995363941
 20
94.729064429870192
 30
0.0
  0
VERTEX
  5
168F
  8
0
 10
129.7579705175658091
 20
94.7392880320038273
 30
0.0
  0
VERTEX
  5
1690
  8
0
 10
129.7500127729566941
 20
94.7497467051550473
 30
0.0
  0
VERTEX
  5
1691
  8
0
 10
129.7420584068337917
 20
94.7604413740130838
 30
0.0
  0
VERTEX
  5
1692
  8
0
 10
129.7341153353710013
 20
94.7713712901161358
 30
0.0
  0
VERTEX
  5
1693
  8
0
 10
129.7261913727423064
 20
94.782535431922895
 30
0.0
  0
VERTEX
  5
1694
  8
0
 10
129.7182943331218041
 20
94.7939327778919676
 30
0.0
  0
VERTEX
  5
1695
  8
0
 10
129.7104320306833074
 20
94.8055623064820736
 30
0.0
  0
VERTEX
  5
1696
  8
0
 10
129.7026122991487114
 20
94.8174229201506762
 30
0.0
  0
VERTEX
  5
1697
  8
0
 10
129.6948430849932947
 20
94.8295130829665993
 30
0.0
  0
VERTEX
  5
1698
  8
0
 10
129.6871323750343095
 20
94.8418311021499534
 30
0.0
  0
VERTEX
  5
1699
  8
0
 10
129.6794881561399109
 20
94.8543752847225932
 30
0.0
  0
VERTEX
  5
169A
  8
0
 10
129.6719184151781974
 20
94.8671439377064303
 30
0.0
  0
VERTEX
  5
169B
  8
0
 10
129.6644310226974994
 20
94.8801352790898846
 30
0.0
  0
VERTEX
  5
169C
  8
0
 10
129.6570311744947048
 20
94.8933454795519964
 30
0.0
  0
VERTEX
  5
169D
  8
0
 10
129.649721391947395
 20
94.9067686627173686
 30
0.0
  0
VERTEX
  5
169E
  8
0
 10
129.6425040801804869
 20
94.9203988632281437
 30
0.0
  0
VERTEX
  5
169F
  8
0
 10
129.6353816443186133
 20
94.9342301157265069
 30
0.0
  0
VERTEX
  5
16A0
  8
0
 10
129.628356489486805
 20
94.9482564548545724
 30
0.0
  0
VERTEX
  5
16A1
  8
0
 10
129.6214328297049008
 20
94.9624732730927121
 30
0.0
  0
VERTEX
  5
16A2
  8
0
 10
129.614622857553087
 20
94.9768819519872238
 30
0.0
  0
VERTEX
  5
16A3
  8
0
 10
129.6079409646810916
 20
94.9914855238049114
 30
0.0
  0
VERTEX
  5
16A4
  8
0
 10
129.6014015428075083
 20
95.0062870208643488
 30
0.0
  0
VERTEX
  5
16A5
  8
0
 10
129.5950189836509878
 20
95.0212894754841528
 30
0.0
  0
VERTEX
  5
16A6
  8
0
 10
129.5888076228887087
 20
95.0364958813782721
 30
0.0
  0
VERTEX
  5
16A7
  8
0
 10
129.5827773669180942
 20
95.0519061811279755
 30
0.0
  0
VERTEX
  5
16A8
  8
0
 10
129.5769305609358071
 20
95.0675151087406647
 30
0.0
  0
VERTEX
  5
16A9
  8
0
 10
129.5712688109886983
 20
95.083316889056519
 30
0.0
  0
VERTEX
  5
16AA
  8
0
 10
129.5657937231235053
 20
95.0993057469156611
 30
0.0
  0
VERTEX
  5
16AB
  8
0
 10
129.5605069033871075
 20
95.1154759071582561
 30
0.0
  0
VERTEX
  5
16AC
  8
0
 10
129.5554099578264129
 20
95.1318215946244976
 30
0.0
  0
VERTEX
  5
16AD
  8
0
 10
129.5505045149755858
 20
95.1483370411729084
 30
0.0
  0
VERTEX
  5
16AE
  8
0
 10
129.5457932655432955
 20
95.1650168101716361
 30
0.0
  0
VERTEX
  5
16AF
  8
0
 10
129.541280399858806
 20
95.1818559330270944
 30
0.0
  0
VERTEX
  5
16B0
  8
0
 10
129.5369702215033954
 20
95.1988494764922706
 30
0.0
  0
VERTEX
  5
16B1
  8
0
 10
129.5328670340583983
 20
95.2159925073201094
 30
0.0
  0
VERTEX
  5
16B2
  8
0
 10
129.5289751411050077
 20
95.233280092263584
 30
0.0
  0
VERTEX
  5
16B3
  8
0
 10
129.5252988462245014
 20
95.2507072980756817
 30
0.0
  0
VERTEX
  5
16B4
  8
0
 10
129.5218424529982997
 20
95.2682691915093187
 30
0.0
  0
VERTEX
  5
16B5
  8
0
 10
129.51861026500751
 20
95.2859608393174824
 30
0.0
  0
VERTEX
  5
16B6
  8
0
 10
129.5156065858336092
 20
95.3037773082531174
 30
0.0
  0
VERTEX
  5
16B7
  8
0
 10
129.5128357190577049
 20
95.3217136650692254
 30
0.0
  0
VERTEX
  5
16B8
  8
0
 10
129.5103019682611887
 20
95.3397649765187367
 30
0.0
  0
VERTEX
  5
16B9
  8
0
 10
129.5080096370253102
 20
95.3579263093546103
 30
0.0
  0
VERTEX
  5
16BA
  8
0
 10
129.5059630289314043
 20
95.3761927303298052
 30
0.0
  0
VERTEX
  5
16BB
  8
0
 10
129.5041664475606922
 20
95.3945593061972943
 30
0.0
  0
VERTEX
  5
16BC
  8
0
 10
129.5026275949504964
 20
95.4130225865157371
 30
0.0
  0
VERTEX
  5
16BD
  8
0
 10
129.5013795411688875
 20
95.4315901893586158
 30
0.0
  0
VERTEX
  5
16BE
  8
0
 10
129.5004646153500119
 20
95.4502738190413709
 30
0.0
  0
VERTEX
  5
16BF
  8
0
 10
129.49989232215421
 20
95.4690715475729519
 30
0.0
  0
VERTEX
  5
16C0
  8
0
 10
129.4996469504968104
 20
95.4879709737243161
 30
0.0
  0
VERTEX
  5
16C1
  8
0
 10
129.4997121461717882
 20
95.5069594291492336
 30
0.0
  0
VERTEX
  5
16C2
  8
0
 10
129.5000715934804134
 20
95.5260242706506801
 30
0.0
  0
VERTEX
  5
16C3
  8
0
 10
129.5007139452814044
 20
95.5451561000129601
 30
0.0
  0
VERTEX
  5
16C4
  8
0
 10
129.5016376750403992
 20
95.564351932891384
 30
0.0
  0
VERTEX
  5
16C5
  8
0
 10
129.5028424087751091
 20
95.5836095376768924
 30
0.0
  0
VERTEX
  5
16C6
  8
0
 10
129.5043277727658904
 20
95.6029266826334947
 30
0.0
  0
VERTEX
  5
16C7
  8
0
 10
129.5060951541213967
 20
95.6223002838473519
 30
0.0
  0
VERTEX
  5
16C8
  8
0
 10
129.5081518977563064
 20
95.6417243740400664
 30
0.0
  0
VERTEX
  5
16C9
  8
0
 10
129.5105066074108038
 20
95.6611923767070351
 30
0.0
  0
VERTEX
  5
16CA
  8
0
 10
129.5131678868247889
 20
95.6806977153436549
 30
0.0
  0
VERTEX
  5
16CB
  8
0
 10
129.5161443397385028
 20
95.7002338134453083
 30
0.0
  0
VERTEX
  5
16CC
  8
0
 10
129.5194445698917889
 20
95.7197940945074208
 30
0.0
  0
VERTEX
  5
16CD
  8
0
 10
129.5230771810246893
 20
95.739371982025375
 30
0.0
  0
VERTEX
  5
16CE
  8
0
 10
129.5270506260752086
 20
95.7589608888579562
 30
0.0
  0
VERTEX
  5
16CF
  8
0
 10
129.5313679003349989
 20
95.7785538429162671
 30
0.0
  0
VERTEX
  5
16D0
  8
0
 10
129.5360251350865042
 20
95.7981433879677837
 30
0.0
  0
VERTEX
  5
16D1
  8
0
 10
129.5410180248946972
 20
95.8177220369767184
 30
0.0
  0
VERTEX
  5
16D2
  8
0
 10
129.5463422643244087
 20
95.8372823029072833
 30
0.0
  0
VERTEX
  5
16D3
  8
0
 10
129.5519935479408105
 20
95.856816698723776
 30
0.0
  0
VERTEX
  5
16D4
  8
0
 10
129.5579681818136919
 20
95.8763173050116109
 30
0.0
  0
VERTEX
  5
16D5
  8
0
 10
129.5642677312731053
 20
95.8957724836754721
 30
0.0
  0
VERTEX
  5
16D6
  8
0
 10
129.5708964430930905
 20
95.9151687006431217
 30
0.0
  0
VERTEX
  5
16D7
  8
0
 10
129.5778585854291123
 20
95.9344924067240612
 30
0.0
  0
VERTEX
  5
16D8
  8
0
 10
129.5851580911838141
 20
95.9537303647699389
 30
0.0
  0
VERTEX
  5
16D9
  8
0
 10
129.5927943089774033
 20
95.9728736045287718
 30
0.0
  0
VERTEX
  5
16DA
  8
0
 10
129.6007632671494036
 20
95.9919162461540196
 30
0.0
  0
VERTEX
  5
16DB
  8
0
 10
129.6090609198627135
 20
96.0108524788405759
 30
0.0
  0
VERTEX
  5
16DC
  8
0
 10
129.6176825651702984
 20
96.0296753559838834
 30
0.0
  0
VERTEX
  5
16DD
  8
0
 10
129.6266172502012068
 20
96.048367109930453
 30
0.0
  0
VERTEX
  5
16DE
  8
0
 10
129.6358505591645951
 20
96.0669039783246603
 30
0.0
  0
VERTEX
  5
16DF
  8
0
 10
129.6453680394934906
 20
96.0852621351479144
 30
0.0
  0
VERTEX
  5
16E0
  8
0
 10
129.6551552386214894
 20
96.1034177543816241
 30
0.0
  0
VERTEX
  5
16E1
  8
0
 10
129.6651977039815904
 20
96.1213470100072556
 30
0.0
  0
VERTEX
  5
16E2
  8
0
 10
129.6754809830073896
 20
96.1390260760062318
 30
0.0
  0
VERTEX
  5
16E3
  8
0
 10
129.685990623131886
 20
96.1564311263599762
 30
0.0
  0
VERTEX
  5
16E4
  8
0
 10
129.696712171788505
 20
96.1735383350499404
 30
0.0
  0
VERTEX
  5
16E5
  8
0
 10
129.7076306729090049
 20
96.1903240001180535
 30
0.0
  0
VERTEX
  5
16E6
  8
0
 10
129.7187214938892907
 20
96.2067668038613846
 30
0.0
  0
VERTEX
  5
16E7
  8
0
 10
129.7299512782562942
 20
96.2228475780992056
 30
0.0
  0
VERTEX
  5
16E8
  8
0
 10
129.7412863572102992
 20
96.2385472316066455
 30
0.0
  0
VERTEX
  5
16E9
  8
0
 10
129.7526930619517032
 20
96.253846673158904
 30
0.0
  0
VERTEX
  5
16EA
  8
0
 10
129.7641377236809035
 20
96.2687268115311099
 30
0.0
  0
VERTEX
  5
16EB
  8
0
 10
129.7755866735984114
 20
96.2831685554984062
 30
0.0
  0
VERTEX
  5
16EC
  8
0
 10
129.7870062429043969
 20
96.2971528138359218
 30
0.0
  0
VERTEX
  5
16ED
  8
0
 10
129.7983627685671024
 20
96.3106605256490269
 30
0.0
  0
VERTEX
  5
16EE
  8
0
 10
129.8096234644293077
 20
96.323677241136437
 30
0.0
  0
VERTEX
  5
16EF
  8
0
 10
129.8207573532743879
 20
96.3361980229113897
 30
0.0
  0
VERTEX
  5
16F0
  8
0
 10
129.8317336813094016
 20
96.3482191084714259
 30
0.0
  0
VERTEX
  5
16F1
  8
0
 10
129.8425216947408956
 20
96.3597367353140584
 30
0.0
  0
VERTEX
  5
16F2
  8
0
 10
129.8530906397758997
 20
96.370747140936885
 30
0.0
  0
VERTEX
  5
16F3
  8
0
 10
129.863409762621302
 20
96.3812465628374326
 30
0.0
  0
VERTEX
  5
16F4
  8
0
 10
129.8734483094837913
 20
96.3912312385132708
 30
0.0
  0
VERTEX
  5
16F5
  8
0
 10
129.8831756162622924
 20
96.4006974767028169
 30
0.0
  0
VERTEX
  5
16F6
  8
0
 10
129.8925689006811126
 20
96.4096478465515645
 30
0.0
  0
VERTEX
  5
16F7
  8
0
 10
129.901619304791609
 20
96.4180959770742163
 30
0.0
  0
VERTEX
  5
16F8
  8
0
 10
129.9103193929348095
 20
96.426056626986707
 30
0.0
  0
VERTEX
  5
16F9
  8
0
 10
129.9186617294512018
 20
96.4335445550050707
 30
0.0
  0
VERTEX
  5
16FA
  8
0
 10
129.9266388786815867
 20
96.4405745198452848
 30
0.0
  0
VERTEX
  5
16FB
  8
0
 10
129.9342434049667077
 20
96.4471612802233409
 30
0.0
  0
VERTEX
  5
16FC
  8
0
 10
129.9414678726471948
 20
96.4533195948552446
 30
0.0
  0
VERTEX
  5
16FD
  8
0
 10
129.9483047985908968
 20
96.4590641355292036
 30
0.0
  0
VERTEX
  5
16FE
  8
0
 10
129.954743568397987
 20
96.464403840374473
 30
0.0
  0
VERTEX
  5
16FF
  8
0
 10
129.9607685441538933
 20
96.4693384489689834
 30
0.0
  0
VERTEX
  5
1700
  8
0
 10
129.966363635308511
 20
96.4738668720711274
 30
0.0
  0
VERTEX
  5
1701
  8
0
 10
129.9715127513119057
 20
96.4779880204391986
 30
0.0
  0
VERTEX
  5
1702
  8
0
 10
129.9761998016138875
 20
96.4817008048315046
 30
0.0
  0
VERTEX
  5
1703
  8
0
 10
129.9804086956646927
 20
96.4850041360063955
 30
0.0
  0
VERTEX
  5
1704
  8
0
 10
129.984123342914188
 20
96.4878969247221789
 30
0.0
  0
VERTEX
  5
1705
  8
0
 10
129.9873277582871083
 20
96.4903781495849984
 30
0.0
  0
VERTEX
  5
1706
  8
0
 10
129.9900285085369092
 20
96.4924612959459012
 30
0.0
  0
VERTEX
  5
1707
  8
0
 10
129.992282570760608
 20
96.4941922762369444
 30
0.0
  0
VERTEX
  5
1708
  8
0
 10
129.994153757533411
 20
96.4956213998966348
 30
0.0
  0
VERTEX
  5
1709
  8
0
 10
129.9957058814304958
 20
96.4967989763635785
 30
0.0
  0
VERTEX
  5
170A
  8
0
 10
129.9970027550268981
 20
96.4977753150763107
 30
0.0
  0
VERTEX
  5
170B
  8
0
 10
129.9981081908977103
 20
96.4986007254733948
 30
0.0
  0
VERTEX
  5
170C
  8
0
 10
129.9990860016183092
 20
96.4993255169933661
 30
0.0
  0
VERTEX
  5
170D
  8
0
 10
129.9999999997637872
 20
96.4999999990747739
 30
0.0
  0
SEQEND
  5
170E
  8
0
  0
POLYLINE
  5
10D0
  8
0
 66
     1
 10
0.0
 20
0.0
 30
0.0
  0
VERTEX
  5
170F
  8
0
 10
129.9999999997639009
 20
98.9999999990750439
 30
0.0
  0
VERTEX
  5
1710
  8
0
 10
129.9995018850715098
 20
99.0003546688603535
 30
0.0
  0
VERTEX
  5
1711
  8
0
 10
129.9989071320248115
 20
99.000781466167993
 30
0.0
  0
VERTEX
  5
1712
  8
0
 10
129.9981191022694986
 20
99.0013525185202212
 30
0.0
  0
VERTEX
  5
1713
  8
0
 10
129.9970411574510933
 20
99.0021399534393538
 30
0.0
  0
VERTEX
  5
1714
  8
0
 10
129.9955777983230121
 20
99.0032151040457649
 30
0.0
  0
VERTEX
  5
1715
  8
0
 10
129.9936842397569023
 20
99.0046139359548363
 30
0.0
  0
VERTEX
  5
1716
  8
0
 10
129.9913855587620048
 20
99.0063236936451432
 30
0.0
  0
VERTEX
  5
1717
  8
0
 10
129.9887119246610041
 20
99.0083280702686608
 30
0.0
  0
VERTEX
  5
1718
  8
0
 10
129.9856935067759878
 20
99.0106107589771796
 30
0.0
  0
VERTEX
  5
1719
  8
0
 10
129.982358650058103
 20
99.0131568371714934
 30
0.0
  0
VERTEX
  5
171A
  8
0
 10
129.9787172443274983
 20
99.0159653851536348
 30
0.0
  0
VERTEX
  5
171B
  8
0
 10
129.9747684619053985
 20
99.0190436151689823
 30
0.0
  0
VERTEX
  5
171C
  8
0
 10
129.9705113430397887
 20
99.022398839674068
 30
0.0
  0
VERTEX
  5
171D
  8
0
 10
129.9659449279789101
 20
99.0260383711254519
 30
0.0
  0
VERTEX
  5
171E
  8
0
 10
129.9610700090026967
 20
99.0299684810873799
 30
0.0
  0
VERTEX
  5
171F
  8
0
 10
129.9558944664289015
 20
99.0341912300806371
 30
0.0
  0
VERTEX
  5
1720
  8
0
 10
129.9504279727891003
 20
99.0387076138615754
 30
0.0
  0
VERTEX
  5
1721
  8
0
 10
129.9446802006148118
 20
99.0435186281864475
 30
0.0
  0
VERTEX
  5
1722
  8
0
 10
129.9386608210209033
 20
99.0486252723021465
 30
0.0
  0
VERTEX
  5
1723
  8
0
 10
129.9323793463942138
 20
99.0540289365744258
 30
0.0
  0
VERTEX
  5
1724
  8
0
 10
129.925844987441991
 20
99.0597317547288299
 30
0.0
  0
VERTEX
  5
1725
  8
0
 10
129.9190669211139095
 20
99.0657359436730758
 30
0.0
  0
VERTEX
  5
1726
  8
0
 10
129.9120543243593886
 20
99.0720437203148236
 30
0.0
  0
VERTEX
  5
1727
  8
0
 10
129.9048164214491976
 20
99.0786572784815434
 30
0.0
  0
VERTEX
  5
1728
  8
0
 10
129.8973635443952901
 20
99.0855782717160452
 30
0.0
  0
VERTEX
  5
1729
  8
0
 10
129.8897071438094031
 20
99.0928078079802646
 30
0.0
  0
VERTEX
  5
172A
  8
0
 10
129.8818587197964121
 20
99.1003469710964424
 30
0.0
  0
VERTEX
  5
172B
  8
0
 10
129.8738297724615052
 20
99.1081968448869333
 30
0.0
  0
VERTEX
  5
172C
  8
0
 10
129.8656318654240067
 20
99.1163584396844755
 30
0.0
  0
VERTEX
  5
172D
  8
0
 10
129.8572771897189
 20
99.1248320398673428
 30
0.0
  0
VERTEX
  5
172E
  8
0
 10
129.8487782940422903
 20
99.1336175159808732
 30
0.0
  0
VERTEX
  5
172F
  8
0
 10
129.8401477312513066
 20
99.1427147337553833
 30
0.0
  0
VERTEX
  5
1730
  8
0
 10
129.8313980542033903
 20
99.1521235589212324
 30
0.0
  0
VERTEX
  5
1731
  8
0
 10
129.822541979675691
 20
99.1618437790589411
 30
0.0
  0
VERTEX
  5
1732
  8
0
 10
129.8135931006129056
 20
99.1718747640308607
 30
0.0
  0
VERTEX
  5
1733
  8
0
 10
129.8045653014951029
 20
99.1822157447079036
 30
0.0
  0
VERTEX
  5
1734
  8
0
 10
129.7954724669999109
 20
99.1928659518671054
 30
0.0
  0
VERTEX
  5
1735
  8
0
 10
129.7863284817408953
 20
99.2038246161030202
 30
0.0
  0
VERTEX
  5
1736
  8
0
 10
129.7771469021517134
 20
99.2150900291942293
 30
0.0
  0
VERTEX
  5
1737
  8
0
 10
129.7679401921899114
 20
99.2266573577023649
 30
0.0
  0
VERTEX
  5
1738
  8
0
 10
129.7587205887705011
 20
99.2385211186949618
 30
0.0
  0
VERTEX
  5
1739
  8
0
 10
129.7495003288086934
 20
99.2506758292395403
 30
0.0
  0
VERTEX
  5
173A
  8
0
 10
129.7402916491078884
 20
99.2631160078517922
 30
0.0
  0
VERTEX
  5
173B
  8
0
 10
129.7311067512949023
 20
99.275836628775096
 30
0.0
  0
VERTEX
  5
173C
  8
0
 10
129.7219577519458085
 20
99.2888337681286259
 30
0.0
  0
VERTEX
  5
173D
  8
0
 10
129.7128567550363982
 20
99.3021036652688878
 30
0.0
  0
VERTEX
  5
173E
  8
0
 10
129.7038158645428894
 20
99.3156425595523729
 30
0.0
  0
VERTEX
  5
173F
  8
0
 10
129.6948471885930871
 20
99.3294466924237014
 30
0.0
  0
VERTEX
  5
1740
  8
0
 10
129.6859643291444968
 20
99.343513056690071
 30
0.0
  0
VERTEX
  5
1741
  8
0
 10
129.677184589529702
 20
99.3578405068657844
 30
0.0
  0
VERTEX
  5
1742
  8
0
 10
129.6685258364800006
 20
99.3724281808418652
 30
0.0
  0
VERTEX
  5
1743
  8
0
 10
129.6600059367264919
 20
99.3872752165093232
 30
0.0
  0
VERTEX
  5
1744
  8
0
 10
129.6516427570005874
 20
99.4023807517592104
 30
0.0
  0
VERTEX
  5
1745
  8
0
 10
129.643453524252493
 20
99.4177434206455501
 30
0.0
  0
VERTEX
  5
1746
  8
0
 10
129.6354455235515104
 20
99.4333540278433929
 30
0.0
  0
VERTEX
  5
1747
  8
0
 10
129.6276181935340048
 20
99.4491971988452832
 30
0.0
  0
VERTEX
  5
1748
  8
0
 10
129.61997075951939
 20
99.4652573911533864
 30
0.0
  0
VERTEX
  5
1749
  8
0
 10
129.6125024468269089
 20
99.4815190622698253
 30
0.0
  0
VERTEX
  5
174A
  8
0
 10
129.6052124807758901
 20
99.4979666696967513
 30
0.0
  0
VERTEX
  5
174B
  8
0
 10
129.5981000866858039
 20
99.5145846709362729
 30
0.0
  0
VERTEX
  5
174C
  8
0
 10
129.591167613278202
 20
99.5313604406926657
 30
0.0
  0
VERTEX
  5
174D
  8
0
 10
129.5844321213184003
 20
99.5482950944559519
 30
0.0
  0
VERTEX
  5
174E
  8
0
 10
129.5779149992717123
 20
99.5653937897104555
 30
0.0
  0
VERTEX
  5
174F
  8
0
 10
129.5716375373964127
 20
99.5826616101768849
 30
0.0
  0
VERTEX
  5
1750
  8
0
 10
129.565612938116999
 20
99.6000975558578716
 30
0.0
  0
VERTEX
  5
1751
  8
0
 10
129.5598404371770016
 20
99.6176901209329912
 30
0.0
  0
VERTEX
  5
1752
  8
0
 10
129.5543178845861974
 20
99.6354267572246357
 30
0.0
  0
VERTEX
  5
1753
  8
0
 10
129.5490431303543062
 20
99.6532949165551969
 30
0.0
  0
VERTEX
  5
1754
  8
0
 10
129.5440151364516055
 20
99.671283274757684
 30
0.0
  0
VERTEX
  5
1755
  8
0
 10
129.5392377458921089
 20
99.6893858805619431
 30
0.0
  0
VERTEX
  5
1756
  8
0
 10
129.53471614059481
 20
99.7075982565220755
 30
0.0
  0
VERTEX
  5
1757
  8
0
 10
129.5304555025153945
 20
99.7259159252320444
 30
0.0
  0
VERTEX
  5
1758
  8
0
 10
129.5264610136092926
 20
99.7443344092859405
 30
0.0
  0
VERTEX
  5
1759
  8
0
 10
129.5227378556863016
 20
99.7628492311158368
 30
0.0
  0
VERTEX
  5
175A
  8
0
 10
129.5192904753907044
 20
99.7814550955836665
 30
0.0
  0
VERTEX
  5
175B
  8
0
 10
129.5161208751669051
 20
99.8001439893827609
 30
0.0
  0
VERTEX
  5
175C
  8
0
 10
129.5132305501491885
 20
99.8189073350318665
 30
0.0
  0
VERTEX
  5
175D
  8
0
 10
129.5106209954718963
 20
99.8377365550497871
 30
0.0
  0
VERTEX
  5
175E
  8
0
 10
129.508293706269086
 20
99.8566230719552976
 30
0.0
  0
VERTEX
  5
175F
  8
0
 10
129.5062501776752129
 20
99.8755583082671592
 30
0.0
  0
VERTEX
  5
1760
  8
0
 10
129.5044919048243912
 20
99.8945336865041895
 30
0.0
  0
VERTEX
  5
1761
  8
0
 10
129.5030203828509059
 20
99.9135406291851353
 30
0.0
  0
VERTEX
  5
1762
  8
0
 10
129.5018371068887859
 20
99.9325705588288145
 30
0.0
  0
VERTEX
  5
1763
  8
0
 10
129.5009435720726003
 20
99.9516148979539736
 30
0.0
  0
VERTEX
  5
1764
  8
0
 10
129.500341216374693
 20
99.970665161635452
 30
0.0
  0
VERTEX
  5
1765
  8
0
 10
129.5000277430985136
 20
99.9897189156726114
 30
0.0
  0
VERTEX
  5
1766
  8
0
 10
129.4999987391045977
 20
100.0087791813499933
 30
0.0
  0
VERTEX
  5
1767
  8
0
 10
129.500259587774508
 20
100.0278385348250936
 30
0.0
  0
VERTEX
  5
1768
  8
0
 10
129.5008173790432124
 20
100.0468876836409038
 30
0.0
  0
VERTEX
  5
1769
  8
0
 10
129.5016781687832008
 20
100.065917830812495
 30
0.0
  0
VERTEX
  5
176A
  8
0
 10
129.5028400348103901
 20
100.0849240020538957
 30
0.0
  0
VERTEX
  5
176B
  8
0
 10
129.5042973434360931
 20
100.1039030014520961
 30
0.0
  0
VERTEX
  5
176C
  8
0
 10
129.5060444403515021
 20
100.1228516429744957
 30
0.0
  0
VERTEX
  5
176D
  8
0
 10
129.5080758335986957
 20
100.1417665294235064
 30
0.0
  0
VERTEX
  5
176E
  8
0
 10
129.5103881812659097
 20
100.1606414671077943
 30
0.0
  0
VERTEX
  5
176F
  8
0
 10
129.512979664448693
 20
100.1794682814102941
 30
0.0
  0
VERTEX
  5
1770
  8
0
 10
129.5158484964933905
 20
100.198238755766198
 30
0.0
  0
VERTEX
  5
1771
  8
0
 10
129.5189928907464889
 20
100.2169446736106977
 30
0.0
  0
VERTEX
  5
1772
  8
0
 10
129.5224110605545036
 20
100.2355778183789994
 30
0.0
  0
VERTEX
  5
1773
  8
0
 10
129.5261012192638077
 20
100.2541299735061955
 30
0.0
  0
VERTEX
  5
1774
  8
0
 10
129.5300615802208881
 20
100.2725929224276058
 30
0.0
  0
VERTEX
  5
1775
  8
0
 10
129.5342903567722033
 20
100.2909584485783938
 30
0.0
  0
VERTEX
  5
1776
  8
0
 10
129.5387857622642116
 20
100.3092183353937941
 30
0.0
  0
VERTEX
  5
1777
  8
0
 10
129.5435460100435137
 20
100.327364366308899
 30
0.0
  0
VERTEX
  5
1778
  8
0
 10
129.5485693134563121
 20
100.3453883247589005
 30
0.0
  0
VERTEX
  5
1779
  8
0
 10
129.5538533726320054
 20
100.3632821655490943
 30
0.0
  0
VERTEX
  5
177A
  8
0
 10
129.5593925186076945
 20
100.3810389684694968
 30
0.0
  0
VERTEX
  5
177B
  8
0
 10
129.5651797236494076
 20
100.3986522670221007
 30
0.0
  0
VERTEX
  5
177C
  8
0
 10
129.5712079562615031
 20
100.4161155959646976
 30
0.0
  0
VERTEX
  5
177D
  8
0
 10
129.577470184948595
 20
100.4334224900550936
 30
0.0
  0
VERTEX
  5
177E
  8
0
 10
129.5839593782152122
 20
100.4505664840510946
 30
0.0
  0
VERTEX
  5
177F
  8
0
 10
129.5906685045659117
 20
100.4675411127107054
 30
0.0
  0
VERTEX
  5
1780
  8
0
 10
129.5975905325049951
 20
100.4843399107918032
 30
0.0
  0
VERTEX
  5
1781
  8
0
 10
129.6047184305371047
 20
100.5009564130520943
 30
0.0
  0
VERTEX
  5
1782
  8
0
 10
129.6120451207331996
 20
100.517384109140707
 30
0.0
  0
VERTEX
  5
1783
  8
0
 10
129.6195627948901858
 20
100.5336157792691978
 30
0.0
  0
VERTEX
  5
1784
  8
0
 10
129.62726306391599
 20
100.5496436393342066
 30
0.0
  0
VERTEX
  5
1785
  8
0
 10
129.6351375226537925
 20
100.5654598896256999
 30
0.0
  0
VERTEX
  5
1786
  8
0
 10
129.6431777659462909
 20
100.5810567304334029
 30
0.0
  0
VERTEX
  5
1787
  8
0
 10
129.6513753886364952
 20
100.5964263620473957
 30
0.0
  0
VERTEX
  5
1788
  8
0
 10
129.6597219855673018
 20
100.6115609847576025
 30
0.0
  0
VERTEX
  5
1789
  8
0
 10
129.6682091514877015
 20
100.6264527989181943
 30
0.0
  0
VERTEX
  5
178A
  8
0
 10
129.6768276522865904
 20
100.6410945725808972
 30
0.0
  0
VERTEX
  5
178B
  8
0
 10
129.6855654064856935
 20
100.6554810239974955
 30
0.0
  0
VERTEX
  5
178C
  8
0
 10
129.6944097216581042
 20
100.6696072898670025
 30
0.0
  0
VERTEX
  5
178D
  8
0
 10
129.7033479053768019
 20
100.6834685068883033
 30
0.0
  0
VERTEX
  5
178E
  8
0
 10
129.7123672652145956
 20
100.6970598117602975
 30
0.0
  0
VERTEX
  5
178F
  8
0
 10
129.7214551087444931
 20
100.7103763411818989
 30
0.0
  0
VERTEX
  5
1790
  8
0
 10
129.7305987435395025
 20
100.7234132318521063
 30
0.0
  0
VERTEX
  5
1791
  8
0
 10
129.7397854049137038
 20
100.7361657879837935
 30
0.0
  0
VERTEX
  5
1792
  8
0
 10
129.7490018398769962
 20
100.7486304458000035
 30
0.0
  0
VERTEX
  5
1793
  8
0
 10
129.7582345932769101
 20
100.7608041101863989
 30
0.0
  0
VERTEX
  5
1794
  8
0
 10
129.7674702093148085
 20
100.7726836875262961
 30
0.0
  0
VERTEX
  5
1795
  8
0
 10
129.7766952321925089
 20
100.7842660842024998
 30
0.0
  0
VERTEX
  5
1796
  8
0
 10
129.7858962061114028
 20
100.7955482065980988
 30
0.0
  0
VERTEX
  5
1797
  8
0
 10
129.7950596752731087
 20
100.8065269610960968
 30
0.0
  0
VERTEX
  5
1798
  8
0
 10
129.8041721838793023
 20
100.8171992540796964
 30
0.0
  0
VERTEX
  5
1799
  8
0
 10
129.8132202761314034
 20
100.8275619919318018
 30
0.0
  0
VERTEX
  5
179A
  8
0
 10
129.8221904488630969
 20
100.8376124609842037
 30
0.0
  0
VERTEX
  5
179B
  8
0
 10
129.831068957444387
 20
100.8473498844006997
 30
0.0
  0
VERTEX
  5
179C
  8
0
 10
129.8398419805006085
 20
100.8567741009323981
 30
0.0
  0
VERTEX
  5
179D
  8
0
 10
129.8484956966248092
 20
100.8658849495857055
 30
0.0
  0
VERTEX
  5
179E
  8
0
 10
129.8570162844104914
 20
100.8746822693669003
 30
0.0
  0
VERTEX
  5
179F
  8
0
 10
129.8653899224509871
 20
100.8831658992825027
 30
0.0
  0
VERTEX
  5
17A0
  8
0
 10
129.8736027893397136
 20
100.8913356783389048
 30
0.0
  0
VERTEX
  5
17A1
  8
0
 10
129.8816410636696901
 20
100.8991914455422005
 30
0.0
  0
VERTEX
  5
17A2
  8
0
 10
129.8894909251303886
 20
100.9067330405471949
 30
0.0
  0
VERTEX
  5
17A3
  8
0
 10
129.897140232109308
 20
100.9139612959008048
 30
0.0
  0
VERTEX
  5
17A4
  8
0
 10
129.9045819061697102
 20
100.9208800388447997
 30
0.0
  0
VERTEX
  5
17A5
  8
0
 10
129.9118098196624089
 20
100.9274936589791025
 30
0.0
  0
VERTEX
  5
17A6
  8
0
 10
129.9188178449381894
 20
100.9338065459037068
 30
0.0
  0
VERTEX
  5
17A7
  8
0
 10
129.9255998543478938
 20
100.9398230892185069
 30
0.0
  0
VERTEX
  5
17A8
  8
0
 10
129.9321497202423927
 20
100.9455476785233969
 30
0.0
  0
VERTEX
  5
17A9
  8
0
 10
129.9384613149724998
 20
100.9509847034183991
 30
0.0
  0
VERTEX
  5
17AA
  8
0
 10
129.9445285108891142
 20
100.956138553503493
 30
0.0
  0
VERTEX
  5
17AB
  8
0
 10
129.9503451037091963
 20
100.9610135536094049
 30
0.0
  0
VERTEX
  5
17AC
  8
0
 10
129.9558997015994919
 20
100.9656096441548954
 30
0.0
  0
VERTEX
  5
17AD
  8
0
 10
129.9611725133705988
 20
100.969919666594194
 30
0.0
  0
VERTEX
  5
17AE
  8
0
 10
129.9661429816999885
 20
100.9739358148619033
 30
0.0
  0
VERTEX
  5
17AF
  8
0
 10
129.9707905492655016
 20
100.9776502828924976
 30
0.0
  0
VERTEX
  5
17B0
  8
0
 10
129.9750946587446947
 20
100.981055264620295
 30
0.0
  0
VERTEX
  5
17B1
  8
0
 10
129.9790347528154086
 20
100.9841429539799975
 30
0.0
  0
VERTEX
  5
17B2
  8
0
 10
129.9825902741550863
 20
100.9869055449057953
 30
0.0
  0
VERTEX
  5
17B3
  8
0
 10
129.9857406654417105
 20
100.9893352313324044
 30
0.0
  0
VERTEX
  5
17B4
  8
0
 10
129.9884679306915984
 20
100.9914259308151969
 30
0.0
  0
VERTEX
  5
17B5
  8
0
 10
129.9907923395900013
 20
100.9931973113143044
 30
0.0
  0
VERTEX
  5
17B6
  8
0
 10
129.9927635883825872
 20
100.9946888430267933
 30
0.0
  0
VERTEX
  5
17B7
  8
0
 10
129.9944321285132105
 20
100.9959405043505996
 30
0.0
  0
VERTEX
  5
17B8
  8
0
 10
129.9958484114252997
 20
100.9969922736840005
 30
0.0
  0
VERTEX
  5
17B9
  8
0
 10
129.9970628885627093
 20
100.9978841294250032
 30
0.0
  0
VERTEX
  5
17BA
  8
0
 10
129.9981260113690951
 20
100.9986560499717996
 30
0.0
  0
VERTEX
  5
17BB
  8
0
 10
129.9990882312881126
 20
100.9993480137222974
 30
0.0
  0
VERTEX
  5
17BC
  8
0
 10
129.999999999763503
 20
100.9999999990748023
 30
0.0
  0
SEQEND
  5
17BD
  8
0
  0
POLYLINE
  5
10D1
  8
0
 66
     1
 10
0.0
 20
0.0
 30
0.0
  0
VERTEX
  5
17BE
  8
0
 10
129.9999999997633893
 20
103.4999999990752997
 30
0.0
  0
VERTEX
  5
17BF
  8
0
 10
129.9994806948733981
 20
103.5003884310336986
 30
0.0
  0
VERTEX
  5
17C0
  8
0
 10
129.9988503902185926
 20
103.5008615007982939
 30
0.0
  0
VERTEX
  5
17C1
  8
0
 10
129.9979980860344995
 20
103.501503846175396
 30
0.0
  0
VERTEX
  5
17C2
  8
0
 10
129.9968127825563045
 20
103.5024001049712012
 30
0.0
  0
VERTEX
  5
17C3
  8
0
 10
129.9951854027295042
 20
103.5036335303538948
 30
0.0
  0
VERTEX
  5
17C4
  8
0
 10
129.9930667881164936
 20
103.5052442251609932
 30
0.0
  0
VERTEX
  5
17C5
  8
0
 10
129.9904779843290044
 20
103.5072217348542978
 30
0.0
  0
VERTEX
  5
17C6
  8
0
 10
129.9874440329724905
 20
103.5095527271845981
 30
0.0
  0
VERTEX
  5
17C7
  8
0
 10
129.9839899756530031
 20
103.5122238699028969
 30
0.0
  0
VERTEX
  5
17C8
  8
0
 10
129.9801369922085996
 20
103.5152252330210985
 30
0.0
  0
VERTEX
  5
17C9
  8
0
 10
129.9758845178415925
 20
103.5185660438233981
 30
0.0
  0
VERTEX
  5
17CA
  8
0
 10
129.9712243833913021
 20
103.5222622291242942
 30
0.0
  0
VERTEX
  5
17CB
  8
0
 10
129.9661484116770112
 20
103.5263297228042063
 30
0.0
  0
VERTEX
  5
17CC
  8
0
 10
129.9606485515054999
 20
103.5307844076583024
 30
0.0
  0
VERTEX
  5
17CD
  8
0
 10
129.9547225771790124
 20
103.5356398043779933
 30
0.0
  0
VERTEX
  5
17CE
  8
0
 10
129.9483764157822065
 20
103.5409061278896985
 30
0.0
  0
VERTEX
  5
17CF
  8
0
 10
129.9416166023914059
 20
103.5465933465929993
 30
0.0
  0
VERTEX
  5
17D0
  8
0
 10
129.9344496720829909
 20
103.5527114288878039
 30
0.0
  0
VERTEX
  5
17D1
  8
0
 10
129.9268827605671106
 20
103.5592704877408039
 30
0.0
  0
VERTEX
  5
17D2
  8
0
 10
129.9189261453626898
 20
103.5662813923238019
 30
0.0
  0
VERTEX
  5
17D3
  8
0
 10
129.9105911278377903
 20
103.5737552582399985
 30
0.0
  0
VERTEX
  5
17D4
  8
0
 10
129.9018890099206089
 20
103.5817032012273984
 30
0.0
  0
VERTEX
  5
17D5
  8
0
 10
129.8928313191379971
 20
103.5901362229847962
 30
0.0
  0
VERTEX
  5
17D6
  8
0
 10
129.8834346581942043
 20
103.599062759731197
 30
0.0
  0
VERTEX
  5
17D7
  8
0
 10
129.8737206426552007
 20
103.6084887137054977
 30
0.0
  0
VERTEX
  5
17D8
  8
0
 10
129.8637111012226057
 20
103.6184198794079947
 30
0.0
  0
VERTEX
  5
17D9
  8
0
 10
129.8534278659315078
 20
103.6288620476772024
 30
0.0
  0
VERTEX
  5
17DA
  8
0
 10
129.8428948701476884
 20
103.6398187016657033
 30
0.0
  0
VERTEX
  5
17DB
  8
0
 10
129.832141740972304
 20
103.6512870716512964
 30
0.0
  0
VERTEX
  5
17DC
  8
0
 10
129.8211990605136918
 20
103.6632633391209026
 30
0.0
  0
VERTEX
  5
17DD
  8
0
 10
129.810097410880104
 20
103.6757436855613008
 30
0.0
  0
VERTEX
  5
17DE
  8
0
 10
129.7988676985870029
 20
103.6887235473597002
 30
0.0
  0
VERTEX
  5
17DF
  8
0
 10
129.7875437041282964
 20
103.702191759944597
 30
0.0
  0
VERTEX
  5
17E0
  8
0
 10
129.7761607094444116
 20
103.716133710219097
 30
0.0
  0
VERTEX
  5
17E1
  8
0
 10
129.7647540095452996
 20
103.7305347550678931
 30
0.0
  0
VERTEX
  5
17E2
  8
0
 10
129.7533588696884124
 20
103.7453802170899024
 30
0.0
  0
VERTEX
  5
17E3
  8
0
 10
129.7420075315538099
 20
103.7606519346080063
 30
0.0
  0
VERTEX
  5
17E4
  8
0
 10
129.7307266516284869
 20
103.7763253097422051
 30
0.0
  0
VERTEX
  5
17E5
  8
0
 10
129.7195422830212124
 20
103.7923750492988972
 30
0.0
  0
VERTEX
  5
17E6
  8
0
 10
129.7084804788408974
 20
103.8087758600839976
 30
0.0
  0
VERTEX
  5
17E7
  8
0
 10
129.6975672420568912
 20
103.825502736811103
 30
0.0
  0
VERTEX
  5
17E8
  8
0
 10
129.6868278277580089
 20
103.8425349686280015
 30
0.0
  0
VERTEX
  5
17E9
  8
0
 10
129.6762869165143002
 20
103.8598551436509041
 30
0.0
  0
VERTEX
  5
17EA
  8
0
 10
129.6659691741859035
 20
103.8774459344596011
 30
0.0
  0
VERTEX
  5
17EB
  8
0
 10
129.6558992666334973
 20
103.8952900136337973
 30
0.0
  0
VERTEX
  5
17EC
  8
0
 10
129.6461012872422032
 20
103.9133699406482947
 30
0.0
  0
VERTEX
  5
17ED
  8
0
 10
129.6365892024383868
 20
103.9316662741794062
 30
0.0
  0
VERTEX
  5
17EE
  8
0
 10
129.6273682984044058
 20
103.9501578579341015
 30
0.0
  0
VERTEX
  5
17EF
  8
0
 10
129.6184435803471047
 20
103.9688234801068063
 30
0.0
  0
VERTEX
  5
17F0
  8
0
 10
129.6098200534736975
 20
103.9876419288918044
 30
0.0
  0
VERTEX
  5
17F1
  8
0
 10
129.6015027229911993
 20
104.0065919924836066
 30
0.0
  0
VERTEX
  5
17F2
  8
0
 10
129.5934966117085878
 20
104.0256525733646953
 30
0.0
  0
VERTEX
  5
17F3
  8
0
 10
129.5858075267516085
 20
104.0448076664855961
 30
0.0
  0
VERTEX
  5
17F4
  8
0
 10
129.5784423560737935
 20
104.0640482844750068
 30
0.0
  0
VERTEX
  5
17F5
  8
0
 10
129.5714080664511982
 20
104.0833659517469982
 30
0.0
  0
VERTEX
  5
17F6
  8
0
 10
129.5647116150491911
 20
104.1027521924051058
 30
0.0
  0
VERTEX
  5
17F7
  8
0
 10
129.5583576393640044
 20
104.1221984555827049
 30
0.0
  0
VERTEX
  5
17F8
  8
0
 10
129.5523454554478917
 20
104.141696018427993
 30
0.0
  0
VERTEX
  5
17F9
  8
0
 10
129.5466736361497055
 20
104.1612361340692985
 30
0.0
  0
VERTEX
  5
17FA
  8
0
 10
129.5413407543180142
 20
104.1808100556348933
 30
0.0
  0
VERTEX
  5
17FB
  8
0
 10
129.5363453265399016
 20
104.2004090511990029
 30
0.0
  0
VERTEX
  5
17FC
  8
0
 10
129.5316850154734993
 20
104.220024615682803
 30
0.0
  0
VERTEX
  5
17FD
  8
0
 10
129.5273568201851901
 20
104.239648420291104
 30
0.0
  0
VERTEX
  5
17FE
  8
0
 10
129.5233577223073098
 20
104.2592721408600056
 30
0.0
  0
VERTEX
  5
17FF
  8
0
 10
129.5196847034721941
 20
104.2788874532255932
 30
0.0
  0
VERTEX
  5
1800
  8
0
 10
129.5163347453122071
 20
104.2984860332239947
 30
0.0
  0
VERTEX
  5
1801
  8
0
 10
129.5133048294595142
 20
104.3180595566913951
 30
0.0
  0
VERTEX
  5
1802
  8
0
 10
129.510591937546792
 20
104.3375996994638939
 30
0.0
  0
VERTEX
  5
1803
  8
0
 10
129.5081930512060922
 20
104.3570981373777045
 30
0.0
  0
VERTEX
  5
1804
  8
0
 10
129.5061051520698925
 20
104.3765465462687985
 30
0.0
  0
VERTEX
  5
1805
  8
0
 10
129.5043252259582118
 20
104.3959366132838937
 30
0.0
  0
VERTEX
  5
1806
  8
0
 10
129.5028510571630989
 20
104.4152621821238967
 30
0.0
  0
VERTEX
  5
1807
  8
0
 10
129.5016821694858891
 20
104.4345217946479067
 30
0.0
  0
VERTEX
  5
1808
  8
0
 10
129.5008183157225119
 20
104.453714611195096
 30
0.0
  0
VERTEX
  5
1809
  8
0
 10
129.5002587707226951
 20
104.4728392768823966
 30
0.0
  0
VERTEX
  5
180A
  8
0
 10
129.4999994007845885
 20
104.4918907624357018
 30
0.0
  0
VERTEX
  5
180B
  8
0
 10
129.5000345916045035
 20
104.5108624425048021
 30
0.0
  0
VERTEX
  5
180C
  8
0
 10
129.5003586237477009
 20
104.5297477977696019
 30
0.0
  0
VERTEX
  5
180D
  8
0
 10
129.5009626504661924
 20
104.5485438601117067
 30
0.0
  0
VERTEX
  5
180E
  8
0
 10
129.5018341383878919
 20
104.5672518477373956
 30
0.0
  0
VERTEX
  5
180F
  8
0
 10
129.5029603465760033
 20
104.5858732168289009
 30
0.0
  0
VERTEX
  5
1810
  8
0
 10
129.5043325593948111
 20
104.6044069611059939
 30
0.0
  0
VERTEX
  5
1811
  8
0
 10
129.5059535380023021
 20
104.6228450534040064
 30
0.0
  0
VERTEX
  5
1812
  8
0
 10
129.5078280755357127
 20
104.641178223502493
 30
0.0
  0
VERTEX
  5
1813
  8
0
 10
129.5099609651319952
 20
104.6593972011815055
 30
0.0
  0
VERTEX
  5
1814
  8
0
 10
129.5123569999283006
 20
104.6774927162205984
 30
0.0
  0
VERTEX
  5
1815
  8
0
 10
129.515020973061695
 20
104.6954554983996957
 30
0.0
  0
VERTEX
  5
1816
  8
0
 10
129.5179576776693011
 20
104.7132762774985935
 30
0.0
  0
VERTEX
  5
1817
  8
0
 10
129.5211714833203871
 20
104.7309460229176068
 30
0.0
  0
VERTEX
  5
1818
  8
0
 10
129.5246553872349011
 20
104.7484621376207059
 30
0.0
  0
VERTEX
  5
1819
  8
0
 10
129.5283900272924029
 20
104.7658290164954025
 30
0.0
  0
VERTEX
  5
181A
  8
0
 10
129.5323554199777902
 20
104.7830514059644997
 30
0.0
  0
VERTEX
  5
181B
  8
0
 10
129.5365315817757903
 20
104.8001340524508009
 30
0.0
  0
VERTEX
  5
181C
  8
0
 10
129.5408986877463917
 20
104.8170816059995047
 30
0.0
  0
VERTEX
  5
181D
  8
0
 10
129.5454450420124033
 20
104.8338937760254055
 30
0.0
  0
VERTEX
  5
181E
  8
0
 10
129.550170810776109
 20
104.8505630624844969
 30
0.0
  0
VERTEX
  5
181F
  8
0
 10
129.5550770990037108
 20
104.867081394776406
 30
0.0
  0
VERTEX
  5
1820
  8
0
 10
129.5601650116618089
 20
104.8834407023010016
 30
0.0
  0
VERTEX
  5
1821
  8
0
 10
129.5654356537166905
 20
104.899632914457996
 30
0.0
  0
VERTEX
  5
1822
  8
0
 10
129.5708901301346998
 20
104.9156499606470021
 30
0.0
  0
VERTEX
  5
1823
  8
0
 10
129.5765295458824085
 20
104.9314837702679029
 30
0.0
  0
VERTEX
  5
1824
  8
0
 10
129.5823550059259901
 20
104.9471262727203964
 30
0.0
  0
VERTEX
  5
1825
  8
0
 10
129.5883668124043879
 20
104.9625699454369965
 30
0.0
  0
VERTEX
  5
1826
  8
0
 10
129.5945581061087069
 20
104.9778121543888005
 30
0.0
  0
VERTEX
  5
1827
  8
0
 10
129.6009182655180894
 20
104.992852833807305
 30
0.0
  0
VERTEX
  5
1828
  8
0
 10
129.6074366357096892
 20
105.0076919407252944
 30
0.0
  0
VERTEX
  5
1829
  8
0
 10
129.6141025617606033
 20
105.0223294321755958
 30
0.0
  0
VERTEX
  5
182A
  8
0
 10
129.6209053887479001
 20
105.0367652651908941
 30
0.0
  0
VERTEX
  5
182B
  8
0
 10
129.6278344617485914
 20
105.0509993968039026
 30
0.0
  0
VERTEX
  5
182C
  8
0
 10
129.6348791273281051
 20
105.0650317830865959
 30
0.0
  0
VERTEX
  5
182D
  8
0
 10
129.6420298083642137
 20
105.078861685096399
 30
0.0
  0
VERTEX
  5
182E
  8
0
 10
129.6492799003511891
 20
105.0924864443644964
 30
0.0
  0
VERTEX
  5
182F
  8
0
 10
129.6566233076461003
 20
105.1059030738310014
 30
0.0
  0
VERTEX
  5
1830
  8
0
 10
129.6640539346057892
 20
105.1191085864358001
 30
0.0
  0
VERTEX
  5
1831
  8
0
 10
129.6715656855872965
 20
105.1320999951188071
 30
0.0
  0
VERTEX
  5
1832
  8
0
 10
129.6791524649474923
 20
105.1448743128203063
 30
0.0
  0
VERTEX
  5
1833
  8
0
 10
129.68680817704319
 20
105.1574285524800985
 30
0.0
  0
VERTEX
  5
1834
  8
0
 10
129.6945267262316008
 20
105.1697597270382971
 30
0.0
  0
VERTEX
  5
1835
  8
0
 10
129.7023020107600075
 20
105.1818648565468948
 30
0.0
  0
VERTEX
  5
1836
  8
0
 10
129.7101272758646928
 20
105.1937417212341046
 30
0.0
  0
VERTEX
  5
1837
  8
0
 10
129.7179945424558127
 20
105.2053895265775054
 30
0.0
  0
VERTEX
  5
1838
  8
0
 10
129.7258956967177141
 20
105.2168076348897046
 30
0.0
  0
VERTEX
  5
1839
  8
0
 10
129.733822624834886
 20
105.2279954084834941
 30
0.0
  0
VERTEX
  5
183A
  8
0
 10
129.7417672129915047
 20
105.2389522096716945
 30
0.0
  0
VERTEX
  5
183B
  8
0
 10
129.7497213473720876
 20
105.2496774007670979
 30
0.0
  0
VERTEX
  5
183C
  8
0
 10
129.75767691416101
 20
105.2601703440823968
 30
0.0
  0
VERTEX
  5
183D
  8
0
 10
129.7656257995425051
 20
105.2704304019303976
 30
0.0
  0
VERTEX
  5
183E
  8
0
 10
129.7735598973708875
 20
105.2804569507906933
 30
0.0
  0
VERTEX
  5
183F
  8
0
 10
129.7814713876281019
 20
105.2902498956528063
 30
0.0
  0
VERTEX
  5
1840
  8
0
 10
129.7893528151716112
 20
105.2998098154716047
 30
0.0
  0
VERTEX
  5
1841
  8
0
 10
129.7971967485707125
 20
105.3091373329997964
 30
0.0
  0
VERTEX
  5
1842
  8
0
 10
129.8049957563943053
 20
105.3182330709902033
 30
0.0
  0
VERTEX
  5
1843
  8
0
 10
129.8127424072116867
 20
105.3270976521956044
 30
0.0
  0
VERTEX
  5
1844
  8
0
 10
129.820429269591898
 20
105.3357316993687931
 30
0.0
  0
VERTEX
  5
1845
  8
0
 10
129.8280489121040944
 20
105.3441358352627049
 30
0.0
  0
VERTEX
  5
1846
  8
0
 10
129.8355939033176014
 20
105.3523106826299056
 30
0.0
  0
VERTEX
  5
1847
  8
0
 10
129.8430568102617997
 20
105.3602568638786039
 30
0.0
  0
VERTEX
  5
1848
  8
0
 10
129.8504300826737108
 20
105.3679749751515971
 30
0.0
  0
VERTEX
  5
1849
  8
0
 10
129.8577059724891001
 20
105.3754655682984946
 30
0.0
  0
VERTEX
  5
184A
  8
0
 10
129.8648767126105099
 20
105.382729190906602
 30
0.0
  0
VERTEX
  5
184B
  8
0
 10
129.87193453594071
 20
105.3897663905634943
 30
0.0
  0
VERTEX
  5
184C
  8
0
 10
129.8788716753822996
 20
105.3965777148567042
 30
0.0
  0
VERTEX
  5
184D
  8
0
 10
129.8856803638381052
 20
105.4031637113736934
 30
0.0
  0
VERTEX
  5
184E
  8
0
 10
129.8923528342108114
 20
105.4095249277019946
 30
0.0
  0
VERTEX
  5
184F
  8
0
 10
129.8988813194031025
 20
105.4156619114288986
 30
0.0
  0
VERTEX
  5
1850
  8
0
 10
129.9052580523176914
 20
105.4215752101420946
 30
0.0
  0
VERTEX
  5
1851
  8
0
 10
129.9114760320071014
 20
105.4272657163817968
 30
0.0
  0
VERTEX
  5
1852
  8
0
 10
129.9175313203988082
 20
105.4327357017228053
 30
0.0
  0
VERTEX
  5
1853
  8
0
 10
129.923420744707812
 20
105.437987782304603
 30
0.0
  0
VERTEX
  5
1854
  8
0
 10
129.9291411321495957
 20
105.4430245742666017
 30
0.0
  0
VERTEX
  5
1855
  8
0
 10
129.9346893099391878
 20
105.4478486937484973
 30
0.0
  0
VERTEX
  5
1856
  8
0
 10
129.940062105291787
 20
105.4524627568895028
 30
0.0
  0
VERTEX
  5
1857
  8
0
 10
129.9452563454225924
 20
105.4568693798292998
 30
0.0
  0
VERTEX
  5
1858
  8
0
 10
129.9502688575468881
 20
105.4610711787073001
 30
0.0
  0
VERTEX
  5
1859
  8
0
 10
129.9550964688799013
 20
105.4650707696631002
 30
0.0
  0
VERTEX
  5
185A
  8
0
 10
129.9597351751118026
 20
105.4688701444553942
 30
0.0
  0
VERTEX
  5
185B
  8
0
 10
129.9641726965693067
 20
105.4724650809875044
 30
0.0
  0
VERTEX
  5
185C
  8
0
 10
129.9683920086222884
 20
105.4758477942401953
 30
0.0
  0
VERTEX
  5
185D
  8
0
 10
129.9723760304200937
 20
105.4790104569791964
 30
0.0
  0
VERTEX
  5
185E
  8
0
 10
129.9761076811122109
 20
105.4819452419700951
 30
0.0
  0
VERTEX
  5
185F
  8
0
 10
129.9795698798477019
 20
105.4846443219784931
 30
0.0
  0
VERTEX
  5
1860
  8
0
 10
129.9827455457761118
 20
105.487099869770006
 30
0.0
  0
VERTEX
  5
1861
  8
0
 10
129.9856175980467015
 20
105.489304058110406
 30
0.0
  0
VERTEX
  5
1862
  8
0
 10
129.9881689558089874
 20
105.4912490597650958
 30
0.0
  0
VERTEX
  5
1863
  8
0
 10
129.990385050487788
 20
105.4929287723930997
 30
0.0
  0
VERTEX
  5
1864
  8
0
 10
129.9922832541882087
 20
105.494359023672402
 30
0.0
  0
VERTEX
  5
1865
  8
0
 10
129.9939029238722128
 20
105.4955707357740948
 30
0.0
  0
VERTEX
  5
1866
  8
0
 10
129.995283850113708
 20
105.4965951285806938
 30
0.0
  0
VERTEX
  5
1867
  8
0
 10
129.9964658234862895
 20
105.4974634219747003
 30
0.0
  0
VERTEX
  5
1868
  8
0
 10
129.9974886345638083
 20
105.4982068358385021
 30
0.0
  0
VERTEX
  5
1869
  8
0
 10
129.9983920739200016
 20
105.4988565900547997
 30
0.0
  0
VERTEX
  5
186A
  8
0
 10
129.999215932128692
 20
105.4994439045060943
 30
0.0
  0
VERTEX
  5
186B
  8
0
 10
129.9999999997635882
 20
105.4999999990748023
 30
0.0
  0
SEQEND
  5
186C
  8
0
  0
ENDSEC
  0
EOF
