  0
SECTION
  2
HEADER
  9
$ACADVER
  1
AC1009
  9
$INSBASE
 10
0.0
 20
0.0
 30
0.0
  9
$EXTMIN
 10
0.0
 20
-1.4802182810368341
 30
0.0
  9
$EXTMAX
 10
192.5
 20
162.5000000008629115
 30
0.0
  9
$LIMMIN
 10
0.0
 20
0.0
  9
$LIMMAX
 10
385.0
 20
270.0
  9
$ORTHOMODE
 70
     1
  9
$REGENMODE
 70
     1
  9
$FILLMODE
 70
     1
  9
$QTEXTMODE
 70
     0
  9
$MIRRTEXT
 70
     0
  9
$DRAGMODE
 70
     2
  9
$LTSCALE
 40
10.0
  9
$OSMODE
 70
    37
  9
$ATTMODE
 70
     1
  9
$TEXTSIZE
 40
4.000000000000048
  9
$TRACEWID
 40
0.05
  9
$TEXTSTYLE
  7
STANDARD
  9
$CLAYER
  8
0
  9
$CELTYPE
  6
BYLAYER
  9
$CECOLOR
 62
   256
  9
$DIMSCALE
 40
1.0
  9
$DIMASZ
 40
3.0
  9
$DIMEXO
 40
2.0
  9
$DIMDLI
 40
0.38
  9
$DIMRND
 40
0.0
  9
$DIMDLE
 40
0.0
  9
$DIMEXE
 40
2.0
  9
$DIMTP
 40
0.0
  9
$DIMTM
 40
0.0
  9
$DIMTXT
 40
3.0
  9
$DIMCEN
 40
0.0
  9
$DIMTSZ
 40
0.0
  9
$DIMTOL
 70
     0
  9
$DIMLIM
 70
     0
  9
$DIMTIH
 70
     0
  9
$DIMTOH
 70
     0
  9
$DIMSE1
 70
     0
  9
$DIMSE2
 70
     0
  9
$DIMTAD
 70
     1
  9
$DIMZIN
 70
     0
  9
$DIMBLK
  1

  9
$DIMASO
 70
     1
  9
$DIMSHO
 70
     0
  9
$DIMPOST
  1

  9
$DIMAPOST
  1

  9
$DIMALT
 70
     0
  9
$DIMALTD
 70
     2
  9
$DIMALTF
 40
25.3999999999999986
  9
$DIMLFAC
 40
1.0
  9
$DIMTOFL
 70
     1
  9
$DIMTVP
 40
1.6000000000000001
  9
$DIMTIX
 70
     1
  9
$DIMSOXD
 70
     0
  9
$DIMSAH
 70
     0
  9
$DIMBLK1
  1

  9
$DIMBLK2
  1

  9
$DIMSTYLE
  2
STANDARD
  9
$DIMCLRD
 70
     0
  9
$DIMCLRE
 70
     0
  9
$DIMCLRT
 70
     0
  9
$DIMTFAC
 40
1.0
  9
$DIMGAP
 40
1.0
  9
$LUNITS
 70
     2
  9
$LUPREC
 70
     4
  9
$SKETCHINC
 40
0.1
  9
$FILLETRAD
 40
0.0
  9
$AUNITS
 70
     0
  9
$AUPREC
 70
     4
  9
$MENU
  1
E:\r13\win\SUPPORT\ACAD
  9
$ELEVATION
 40
0.0
  9
$PELEVATION
 40
0.0
  9
$THICKNESS
 40
0.0
  9
$LIMCHECK
 70
     0
  9
$BLIPMODE
 70
     0
  9
$CHAMFERA
 40
0.0
  9
$CHAMFERB
 40
0.0
  9
$SKPOLY
 70
     0
  9
$TDCREATE
 40
2450280.5982060190290213
  9
$TDUPDATE
 40
2460580.5718981479294598
  9
$TDINDWG
 40
0.321450625
  9
$TDUSRTIMER
 40
0.321450625
  9
$USRTIMER
 70
     1
  9
$ANGBASE
 50
0.0
  9
$ANGDIR
 70
     0
  9
$PDMODE
 70
     0
  9
$PDSIZE
 40
0.0
  9
$PLINEWID
 40
0.0
  9
$COORDS
 70
     1
  9
$SPLFRAME
 70
     0
  9
$SPLINETYPE
 70
     6
  9
$SPLINESEGS
 70
     8
  9
$ATTDIA
 70
     1
  9
$ATTREQ
 70
     1
  9
$HANDLING
 70
     1
  9
$HANDSEED
  5
2257
  9
$SURFTAB1
 70
     6
  9
$SURFTAB2
 70
     6
  9
$SURFTYPE
 70
     6
  9
$SURFU
 70
     6
  9
$SURFV
 70
     6
  9
$UCSNAME
  2

  9
$UCSORG
 10
0.0
 20
0.0
 30
0.0
  9
$UCSXDIR
 10
1.0
 20
0.0
 30
0.0
  9
$UCSYDIR
 10
0.0
 20
1.0
 30
0.0
  9
$PUCSNAME
  2

  9
$PUCSORG
 10
0.0
 20
0.0
 30
0.0
  9
$PUCSXDIR
 10
1.0
 20
0.0
 30
0.0
  9
$PUCSYDIR
 10
0.0
 20
1.0
 30
0.0
  9
$USERI1
 70
     3
  9
$USERI2
 70
     1
  9
$USERI3
 70
     1
  9
$USERI4
 70
     0
  9
$USERI5
 70
     0
  9
$USERR1
 40
1.0
  9
$USERR2
 40
3.0
  9
$USERR3
 40
3.0
  9
$USERR4
 40
3.0
  9
$USERR5
 40
10.0
  9
$WORLDVIEW
 70
     1
  9
$SHADEDGE
 70
     3
  9
$SHADEDIF
 70
    70
  9
$TILEMODE
 70
     1
  9
$MAXACTVP
 70
    16
  9
$PLIMCHECK
 70
     0
  9
$PEXTMIN
 10
1.0000000000000000E+20
 20
1.0000000000000000E+20
 30
1.0000000000000000E+20
  9
$PEXTMAX
 10
-1.0000000000000000E+20
 20
-1.0000000000000000E+20
 30
-1.0000000000000000E+20
  9
$PLIMMIN
 10
0.0
 20
0.0
  9
$PLIMMAX
 10
12.0
 20
9.0
  9
$UNITMODE
 70
     0
  9
$VISRETAIN
 70
     0
  9
$PLINEGEN
 70
     0
  9
$PSLTSCALE
 70
     0
  0
ENDSEC
  0
SECTION
  2
TABLES
  0
TABLE
  2
VPORT
 70
     1
  0
VPORT
  2
*ACTIVE
 70
     0
 10
0.0
 20
0.0
 11
1.0
 21
1.0
 12
199.62438423645321
 22
85.0
 13
0.0
 23
0.0
 14
5.0
 24
5.0
 15
10.0
 25
10.0
 16
0.0
 26
0.0
 36
1.0
 17
0.0
 27
0.0
 37
0.0
 40
170.0
 41
2.3485221674876842
 42
50.0
 43
0.0
 44
0.0
 50
0.0
 51
0.0
 71
     0
 72
   500
 73
     1
 74
     0
 75
     0
 76
     0
 77
     0
 78
     2
  0
ENDTAB
  0
TABLE
  2
LTYPE
 70
     3
  0
LTYPE
  2
CONTINUOUS
 70
     0
  3
Solid Line
 72
    65
 73
     0
 40
0.0
  0
LTYPE
  2
CENTER
 70
     0
  3
____ _ ____ _ ____ _ ____ _ ____ _ ____ _ ____
 72
    65
 73
     4
 40
2.0
 49
1.25
 49
-0.25
 49
0.25
 49
-0.25
  0
LTYPE
  2
HIDDEN
 70
     0
  3
Hidden __ __ __ __ __ __ __ __ __ __ __ __ __ __
 72
    65
 73
     2
 40
1.905
 49
1.27
 49
-0.635
  0
ENDTAB
  0
TABLE
  2
LAYER
 70
     4
  0
LAYER
  2
0
 70
     0
 62
     7
  6
CONTINUOUS
  0
LAYER
  2
1
 70
     0
 62
     1
  6
CENTER
  0
LAYER
  2
3
 70
     0
 62
     3
  6
CONTINUOUS
  0
LAYER
  2
2
 70
     0
 62
     2
  6
HIDDEN
  0
ENDTAB
  0
TABLE
  2
STYLE
 70
     2
  0
STYLE
  2
STANDARD
 70
     0
 40
0.0
 41
1.0
 50
0.0
 71
     0
 42
4.000000000000048
  3
SIMPLEX
  4
BIGFONT
  0
STYLE
  2
STANDARD1
 70
     0
 40
0.0
 41
1.0
 50
0.0
 71
     0
 42
3.0
  3
txt
  4

  0
ENDTAB
  0
TABLE
  2
VIEW
 70
     0
  0
ENDTAB
  0
TABLE
  2
UCS
 70
     0
  0
ENDTAB
  0
TABLE
  2
APPID
 70
     6
  0
APPID
  2
ACAD
 70
     0
  0
APPID
  2
ACAD_MLEADERVER
 70
     0
  0
APPID
  2
ACAD_NAV_VCDISPLAY
 70
     0
  0
APPID
  2
ACAD_EXEMPT_FROM_CAD_STANDARDS
 70
     0
  0
APPID
  2
ACAD_TC
 70
     0
  0
APPID
  2
ACAD_DSTYLE_DIMRADIAL_EXTENSION
 70
     0
  0
ENDTAB
  0
TABLE
  2
DIMSTYLE
 70
     1
  0
DIMSTYLE
  2
STANDARD
 70
     0
  3

  4

  5

  6

  7

 40
1.0
 41
0.18
 42
0.0625
 43
0.38
 44
0.18
 45
0.0
 46
0.0
 47
0.0
 48
0.0
140
0.18
141
0.09
142
0.0
143
25.3999999999999986
144
1.0
145
0.0
146
1.0
147
0.09
 71
     0
 72
     0
 73
     1
 74
     1
 75
     0
 76
     0
 77
     0
 78
     0
170
     0
171
     2
172
     0
173
     0
174
     0
175
     0
176
     0
177
     0
178
     0
  0
ENDTAB
  0
ENDSEC
  0
SECTION
  2
BLOCKS
  0
BLOCK
  8
0
  2
$MODEL_SPACE
 70
     0
 10
0.0
 20
0.0
 30
0.0
  3
$MODEL_SPACE
  1

  0
ENDBLK
  5
175
  8
0
  0
BLOCK
 67
     1
  8
0
  2
$PAPER_SPACE
 70
     0
 10
0.0
 20
0.0
 30
0.0
  3
$PAPER_SPACE
  1

  0
ENDBLK
  5
173
 67
     1
  8
0
  0
ENDSEC
  0
SECTION
  2
ENTITIES
  0
TEXT
  5
2BE
  8
0
 62
     3
 10
0.0
 20
0.0
 30
0.0
 40
5.0
  1
NDX12W-S-SUS
  7
STANDARD1
  0
LINE
  5
1384
  8
0
 10
123.929999999903103
 20
87.4999999990748734
 30
0.0
 11
124.2299999999031996
 21
87.4999999990748734
 31
0.0
  0
LINE
  5
1385
  8
0
 10
124.2299999999031002
 20
112.4999999990748023
 30
0.0
 11
123.929999999903103
 21
112.4999999990748023
 31
0.0
  0
LINE
  5
1386
  8
0
 10
123.929999999903103
 20
112.4999999990748023
 30
0.0
 11
116.9448376402337999
 21
107.3123606125294032
 31
0.0
  0
LINE
  5
1387
  8
0
 10
116.9448376402337999
 20
92.6876393856202156
 30
0.0
 11
123.929999999903103
 21
87.4999999990748734
 31
0.0
  0
ARC
  5
1388
  8
0
 10
123.9896620622412939
 20
89.4855069055676609
 30
0.0
 40
2.0000000000025868
 50
276.9018543471830753
 51
330.4782807047777737
  0
ARC
  5
1389
  8
0
 10
123.9896620622412939
 20
110.5144930925820006
 30
0.0
 40
2.0000000000025451
 50
29.5217192952222192
 51
83.0981456528202358
  0
LINE
  5
138A
  8
0
 10
125.7299999999031996
 20
88.4999999990748591
 30
0.0
 11
128.999999999904702
 21
88.4999999990748591
 31
0.0
  0
LINE
  5
138B
  8
0
 10
128.9999999999045883
 20
111.4999999990748023
 30
0.0
 11
125.7299999999031002
 21
111.4999999990748023
 31
0.0
  0
ARC
  5
138C
  8
0
 10
128.999999999904702
 20
89.4999999990732817
 30
0.0
 40
0.9999999999984783
 50
270.0
 51
359.9998269565155056
  0
ARC
  5
138D
  8
0
 10
128.9999999999045883
 20
110.4999999990762944
 30
0.0
 40
0.9999999999984652
 50
359.9999999999153033
 51
90.0
  0
LINE
  5
138E
  8
0
 10
116.9448376402337999
 20
107.3123606124539009
 30
0.0
 11
108.4996954134127947
 21
107.0174497474260988
 31
0.0
  0
LINE
  5
138F
  8
0
 10
108.4996954134127947
 20
92.9825502507234063
 30
0.0
 11
116.9448376402337999
 21
92.6876393856956611
 31
0.0
  0
LINE
  5
1390
  8
0
 10
108.4996954134127947
 20
107.0174497474260988
 30
0.0
 11
107.9999999999030962
 21
106.4999999990747028
 31
0.0
  0
LINE
  5
1391
  8
0
 10
107.9999999999031957
 20
93.4999999990747597
 30
0.0
 11
108.4996954134127947
 21
92.9825502507234063
 31
0.0
  0
LINE
  5
1392
  8
0
 10
82.2734999999032368
 20
93.9999999990746886
 30
0.0
 11
85.999999999903153
 21
93.9999999990746886
 31
0.0
  0
LINE
  5
1393
  8
0
 10
91.9999999999033946
 20
93.9999999990746886
 30
0.0
 11
99.9999999999031672
 21
93.9999999990747739
 31
0.0
  0
LINE
  5
1394
  8
0
 10
99.9999999999031104
 20
105.9999999990747028
 30
0.0
 11
91.9999999999031104
 21
105.9999999990747028
 31
0.0
  0
LINE
  5
1395
  8
0
 10
85.9999999999031104
 20
105.9999999990747028
 30
0.0
 11
82.27349999990318
 21
105.9999999990747028
 31
0.0
  0
LINE
  5
1396
  8
0
 10
82.27349999990318
 20
105.9999999990747028
 30
0.0
 11
79.9999999999031672
 21
104.9264999990746929
 31
0.0
  0
LINE
  5
1397
  8
0
 10
79.9999999999031672
 20
95.0734999990746559
 30
0.0
 11
82.2734999999032368
 21
93.9999999990746886
 31
0.0
  0
ARC
  5
1398
  8
0
 10
79.799999999902667
 20
96.8999999990741685
 30
0.0
 40
0.2000000000005002
 50
0.0000000001302755
 51
89.9999999998534435
  0
ARC
  5
1399
  8
0
 10
79.7999999999026102
 20
103.099999999075095
 30
0.0
 40
0.2000000000005571
 50
270.0000000001465992
 51
359.9999999998535145
  0
LINE
  5
139A
  8
0
 10
75.7999999999031786
 20
96.999999999074646
 30
0.0
 11
79.4999999999031672
 21
96.9999999990747028
 31
0.0
  0
LINE
  5
139B
  8
0
 10
79.4999999999031672
 20
102.9999999990747028
 30
0.0
 11
75.7999999999031218
 21
102.9999999990746034
 31
0.0
  0
LINE
  5
139C
  8
0
 10
75.7999999999031218
 20
102.9999999990746034
 30
0.0
 11
74.4189253947033365
 21
102.2026362039917018
 31
0.0
  0
LINE
  5
139D
  8
0
 10
74.4189253947033365
 20
97.7973637941576044
 30
0.0
 11
75.7999999999031786
 21
96.999999999074646
 31
0.0
  0
LINE
  5
139E
  8
0
 10
79.4999999999031672
 20
96.9999999990747028
 30
0.0
 11
79.6732050806602103
 21
97.0999999990746545
 31
0.0
  0
LINE
  5
139F
  8
0
 10
79.6732050806601535
 20
102.8999999990746943
 30
0.0
 11
79.4999999999031672
 21
102.9999999990747028
 31
0.0
  0
LINE
  5
13A0
  8
0
 10
79.6732050806602103
 20
97.0999999990746545
 30
0.0
 11
79.7999999999031786
 21
97.0999999990746545
 31
0.0
  0
LINE
  5
13A1
  8
0
 10
79.7999999999031218
 20
102.8999999990746943
 30
0.0
 11
79.6732050806601535
 21
102.8999999990746943
 31
0.0
  0
LINE
  5
13A2
  8
0
 10
107.5832952111417029
 20
91.9063736957663338
 30
0.0
 11
107.9999999999031957
 21
92.799999999074771
 31
0.0
  0
LINE
  5
13A3
  8
0
 10
100.5147447284226985
 20
108.0915640217989022
 30
0.0
 11
99.9999999999031104
 21
107.1999999990747057
 31
0.0
  0
LINE
  5
13A4
  8
0
 10
107.9999999999030962
 20
107.1999999990748051
 30
0.0
 11
107.5832952111467051
 21
108.0936263023723001
 31
0.0
  0
LINE
  5
13A5
  8
0
 10
99.9999999999031672
 20
92.7999999990747142
 30
0.0
 11
100.5147447284146978
 21
91.9084359763644869
 31
0.0
  0
ARC
  5
13A6
  8
0
 10
79.9999999999323137
 20
99.999999999074717
 30
0.0
 40
6.0000000000291909
 50
158.4627507537298925
 51
201.5372492462743992
  0
LINE
  5
13A7
  8
0
 10
123.929999999903103
 20
87.4999999990748734
 30
0.0
 11
123.929999999903103
 21
112.4999999990748023
 31
0.0
  0
LINE
  5
13A9
  8
0
 10
116.9448376402337999
 20
92.6876393856202156
 30
0.0
 11
116.9448376402337999
 21
107.3123606125294032
 31
0.0
  0
LINE
  5
13AA
  8
0
 10
125.7299999999031996
 20
88.4999999990748591
 30
0.0
 11
125.7299999999031002
 21
111.4999999990748023
 31
0.0
  0
LINE
  5
13AB
  8
0
 10
129.9999999999031104
 20
105.5000002903198038
 30
0.0
 11
129.9999999999031104
 21
110.4999999990748023
 31
0.0
  0
LINE
  5
13AD
  8
0
 10
129.9999999999031104
 20
100.9999998446936047
 30
0.0
 11
129.9999999999031104
 21
103.4999999990751007
 31
0.0
  0
LINE
  5
13AF
  8
0
 10
129.9999999999031104
 20
96.4999998428865524
 30
0.0
 11
129.9999999999031104
 21
98.9999999990748165
 31
0.0
  0
LINE
  5
13B1
  8
0
 10
129.9999999999031957
 20
89.4999969788947851
 30
0.0
 11
129.9999999999031104
 21
94.4999975697533046
 31
0.0
  0
LINE
  5
13B2
  8
0
 10
107.9999999999031957
 20
94.7804370892687871
 30
0.0
 11
107.9999999999031957
 21
98.3147700444394701
 31
0.0
  0
LINE
  5
13B6
  8
0
 10
100.0000000000624993
 20
101.6852299560679995
 30
0.0
 11
99.9999999999375007
 21
98.3147700439320147
 31
0.0
  0
LINE
  5
13B8
  8
0
 10
100.5097447284143044
 20
104.0414518833886035
 30
0.0
 11
107.5882952111516033
 21
104.0414518834178068
 31
0.0
  0
LINE
  5
13BA
  8
0
 10
107.9999999999031957
 20
101.6852298631537934
 30
0.0
 11
107.9999999999031957
 21
98.3147700444394701
 31
0.0
  0
LINE
  5
13BB
  8
0
 10
100.5097447284125991
 20
95.9585481147285009
 30
0.0
 11
107.588295211137293
 21
95.9585481148086501
 31
0.0
  0
LINE
  5
13BD
  8
0
 10
99.9999999999031672
 20
101.6852299559387944
 30
0.0
 11
99.9999999999031672
 21
105.2195628479080938
 31
0.0
  0
LINE
  5
13BE
  8
0
 10
107.9999999999031957
 20
101.6852298681149023
 30
0.0
 11
107.9999999999031957
 21
105.2195628482482022
 31
0.0
  0
LINE
  5
13C1
  8
0
 10
99.9999999999032241
 20
94.7804371514806547
 30
0.0
 11
99.9999999999032241
 21
98.3147700439598111
 31
0.0
  0
LINE
  5
13C2
  8
0
 10
108.4996954134127947
 20
92.9825502507234063
 30
0.0
 11
108.4996954134127947
 21
107.0174497474260988
 31
0.0
  0
LINE
  5
13C4
  8
0
 10
100.0000000000624993
 20
94.7804371510804771
 30
0.0
 11
99.9999999999375575
 21
93.0952071950121081
 31
0.0
  0
LINE
  5
13C5
  8
0
 10
107.9999999999031957
 20
94.7804371046314458
 30
0.0
 11
107.9999999999031957
 21
93.0952071952660845
 31
0.0
  0
LINE
  5
13C7
  8
0
 10
100.5097447284147023
 20
91.9170962304068553
 30
0.0
 11
107.5882952111416984
 21
91.9170962304075374
 31
0.0
  0
LINE
  5
13C8
  8
0
 10
100.0000000000624993
 20
106.9047928040626942
 30
0.0
 11
99.9999999999375007
 21
105.2195628479942968
 31
0.0
  0
LINE
  5
13CA
  8
0
 10
100.509744728422703
 20
108.0829037677438009
 30
0.0
 11
107.5882952111468001
 21
108.0829037677088991
 31
0.0
  0
LINE
  5
13CC
  8
0
 10
107.9999999999031957
 20
106.9047927576136061
 30
0.0
 11
107.9999999999031957
 21
105.2195628482482022
 31
0.0
  0
LINE
  5
13CD
  8
0
 10
82.2734999999032368
 20
93.9999999990746886
 30
0.0
 11
82.27349999990318
 21
105.9999999990747028
 31
0.0
  0
LINE
  5
13CE
  8
0
 10
79.9999999999031672
 20
95.0734999990746559
 30
0.0
 11
79.9999999999031672
 21
104.9264999990746929
 31
0.0
  0
LINE
  5
13CF
  8
0
 10
75.7999999999031786
 20
96.999999999074646
 30
0.0
 11
75.7999999999031218
 21
102.9999999990746034
 31
0.0
  0
LINE
  5
13D0
  8
0
 10
79.4999999999031672
 20
96.9999999990747028
 30
0.0
 11
79.4999999999031672
 21
102.9999999990747028
 31
0.0
  0
LINE
  5
13D1
  8
0
 10
74.4189253947033365
 20
97.7973637941560838
 30
0.0
 11
74.4189253947033365
 21
102.2026362039932934
 31
0.0
  0
LINE
  5
13D2
  8
0
 10
79.6732050806602103
 20
97.0999999990746545
 30
0.0
 11
79.6732050806601535
 21
102.8999999990746943
 31
0.0
  0
LINE
  5
13D3
  8
0
 10
107.9999999999031957
 20
92.799999999074771
 30
0.0
 11
107.9999999999031957
 21
93.0952071952660845
 31
0.0
  0
LINE
  5
13D4
  8
0
 10
99.9999999999031104
 20
106.9047928035331978
 30
0.0
 11
99.9999999999031104
 21
107.1999999990747057
 31
0.0
  0
LINE
  5
13D5
  8
0
 10
107.9999999999031957
 20
106.9047927779363931
 30
0.0
 11
107.9999999999030962
 21
107.1999999990748051
 31
0.0
  0
LINE
  5
13D6
  8
0
 10
99.9999999999031672
 20
92.799999999074771
 30
0.0
 11
99.9999999999031672
 21
93.095207195126136
 31
0.0
  0
LINE
  5
13D7
  8
0
 10
128.999999999904702
 20
88.4999999990748591
 30
0.0
 11
128.9999999999045883
 21
111.4999999990748023
 31
0.0
  0
LINE
  5
13D8
  8
0
 10
79.7999999999031786
 20
97.0999999990746545
 30
0.0
 11
79.7999999999031218
 21
102.8999999990746943
 31
0.0
  0
LINE
  5
13D9
  8
0
 10
123.9300000000000068
 20
62.4999999991371524
 30
0.0
 11
116.9448376403306042
 21
57.3123606125917888
 31
0.0
  0
LINE
  5
13DA
  8
0
 10
116.9448376403784948
 20
42.6893754260956584
 30
0.0
 11
123.9299999999998931
 21
37.4999999991371524
 31
0.0
  0
LINE
  5
13DB
  8
0
 10
123.9299999999998931
 20
37.4999999991371524
 30
0.0
 11
124.2299999999999045
 21
37.4999999991371524
 31
0.0
  0
LINE
  5
13DC
  8
0
 10
124.2300000000001035
 20
62.4999999991371524
 30
0.0
 11
123.9300000000000068
 21
62.4999999991371524
 31
0.0
  0
ARC
  5
13DD
  8
0
 10
123.9896620623380983
 20
39.4855069056299897
 30
0.0
 40
2.0000000000025868
 50
276.9018543471830753
 51
330.4782807047777737
  0
ARC
  5
13DE
  8
0
 10
123.9896620623381978
 20
60.5144930926443578
 30
0.0
 40
2.0000000000025451
 50
29.5217192952222192
 51
83.0981456528169531
  0
LINE
  5
13DF
  8
0
 10
125.7299999999999045
 20
38.4999999991371524
 30
0.0
 11
129.0
 21
38.4999999991371524
 31
0.0
  0
ARC
  5
13E0
  8
0
 10
129.0
 20
39.4999999991371382
 30
0.0
 40
1.0
 50
270.0
 51
0.0
  0
LINE
  5
13E1
  8
0
 10
129.0
 20
61.4999999991371382
 30
0.0
 11
125.730000000000004
 21
61.4999999991371382
 31
0.0
  0
ARC
  5
13E2
  8
0
 10
129.0
 20
60.4999999991371524
 30
0.0
 40
1.0
 50
0.0
 51
90.0
  0
LINE
  5
13E3
  8
0
 10
116.9448376403306042
 20
57.3123606125163008
 30
0.0
 11
108.4996954135096985
 21
57.0174497474886621
 31
0.0
  0
LINE
  5
13E4
  8
0
 10
108.499695413509599
 20
42.9825502507859127
 30
0.0
 11
116.5909017909271057
 21
42.6999990979699291
 31
0.0
  0
LINE
  5
13E5
  8
0
 10
108.4996954135096985
 20
57.0174497474886621
 30
0.0
 11
108.0
 21
56.499999999137259
 31
0.0
  0
LINE
  5
13E6
  8
0
 10
108.0
 20
43.4999999991373087
 30
0.0
 11
108.499695413509599
 21
42.9825502507859127
 31
0.0
  0
LINE
  5
13E7
  8
0
 10
82.2734999999999559
 20
43.9999999991374295
 30
0.0
 11
85.9999999999998863
 21
43.9999999991373727
 31
0.0
  0
LINE
  5
13E8
  8
0
 10
92.0
 20
43.9999999991373727
 30
0.0
 11
99.9999999999999432
 21
43.9999999991373727
 31
0.0
  0
LINE
  5
13E9
  8
0
 10
100.0
 20
55.9999999991373087
 30
0.0
 11
92.0
 21
55.9999999991373727
 31
0.0
  0
LINE
  5
13EA
  8
0
 10
86.0
 20
55.9999999991374295
 30
0.0
 11
82.2735000000000554
 21
55.9999999991374793
 31
0.0
  0
LINE
  5
13EB
  8
0
 10
82.2735000000000554
 20
55.9999999991374793
 30
0.0
 11
80.0000000000000568
 21
54.9264999991374623
 31
0.0
  0
LINE
  5
13EC
  8
0
 10
79.9999999999999432
 20
45.0734999991374465
 30
0.0
 11
82.2734999999999559
 21
43.9999999991374295
 31
0.0
  0
ARC
  5
13ED
  8
0
 10
79.7999999999994429
 20
46.8999999991368881
 30
0.0
 40
0.2000000000005571
 50
0.0000000001628444
 51
89.9999999998534435
  0
ARC
  5
13EE
  8
0
 10
79.7999999999994998
 20
53.0999999991380207
 30
0.0
 40
0.2000000000005571
 50
270.0000000001465992
 51
359.9999999998372004
  0
LINE
  5
13EF
  8
0
 10
75.8000000000000114
 20
52.9999999991374793
 30
0.0
 11
74.4189253948001692
 21
52.202636204054528
 31
0.0
  0
LINE
  5
13F0
  8
0
 10
74.4189253948001692
 20
47.7973637942204377
 30
0.0
 11
75.7999999999999545
 21
46.9999999991374935
 31
0.0
  0
LINE
  5
13F1
  8
0
 10
75.7999999999999545
 20
46.9999999991374935
 30
0.0
 11
79.5
 21
46.9999999991374935
 31
0.0
  0
LINE
  5
13F2
  8
0
 10
79.5
 20
52.9999999991374793
 30
0.0
 11
75.8000000000000114
 21
52.9999999991374793
 31
0.0
  0
LINE
  5
13F3
  8
0
 10
79.5
 20
46.9999999991374935
 30
0.0
 11
79.6732050807569863
 21
47.0999999991374523
 31
0.0
  0
LINE
  5
13F4
  8
0
 10
79.6732050807570431
 20
52.8999999991374565
 30
0.0
 11
79.5
 21
52.9999999991374793
 31
0.0
  0
LINE
  5
13F5
  8
0
 10
79.6732050807569863
 20
47.0999999991374523
 30
0.0
 11
79.7999999999999545
 21
47.0999999991374523
 31
0.0
  0
LINE
  5
13F6
  8
0
 10
79.8000000000000114
 20
52.8999999991374565
 30
0.0
 11
79.6732050807570431
 21
52.8999999991374565
 31
0.0
  0
ARC
  5
13F7
  8
0
 10
80.0000000000291607
 20
49.9999999991323705
 30
0.0
 40
6.0000000000291713
 50
158.4627507537254871
 51
201.5372492462743992
  0
LINE
  5
13F8
  8
0
 10
116.5909018018156047
 20
42.6999999991372974
 30
0.0
 11
108.1200000000000045
 21
42.6999999991373613
 31
0.0
  0
LINE
  5
13F9
  8
0
 10
108.1200000000000045
 20
40.299999999137377
 30
0.0
 11
120.1520056147070932
 21
40.2999999991372704
 31
0.0
  0
LINE
  5
13FA
  8
0
 10
103.1199999999999051
 20
40.4999999991372519
 30
0.0
 11
108.1200000000000045
 21
40.4999999991372519
 31
0.0
  0
LINE
  5
13FB
  8
0
 10
108.1200000000000045
 20
42.499999999137323
 30
0.0
 11
103.1200000000000045
 21
42.499999999137323
 31
0.0
  0
LINE
  5
13FC
  8
0
 10
103.1199999999999051
 20
41.2499999991372022
 30
0.0
 11
98.1199999999999477
 21
41.2499999991372519
 31
0.0
  0
LINE
  5
13FD
  8
0
 10
98.1199999999999477
 20
40.749999999137259
 30
0.0
 11
103.1199999999999051
 21
40.7499999991372022
 31
0.0
  0
LINE
  5
13FE
  8
0
 10
103.1199999999999051
 20
42.2499999991372022
 30
0.0
 11
98.1200000000000045
 21
42.249999999137259
 31
0.0
  0
LINE
  5
13FF
  8
0
 10
98.1199999999999477
 20
41.7499999991372519
 30
0.0
 11
103.1199999999999051
 21
41.7499999991372022
 31
0.0
  0
LINE
  5
1400
  8
0
 10
123.9299999999998931
 20
37.4999999991371524
 30
0.0
 11
123.9300000000000068
 21
62.4999999991371524
 31
0.0
  0
LINE
  5
1401
  8
0
 10
116.9448376403306042
 20
42.6893754261303329
 30
0.0
 11
116.9448376403306042
 21
57.3123606125917888
 31
0.0
  0
LINE
  5
1402
  8
0
 10
125.730000000000004
 20
49.9999999991371524
 30
0.0
 11
125.730000000000004
 21
61.4999999991371382
 31
0.0
  0
LINE
  5
1403
  8
0
 10
125.7299999999999045
 20
38.4999999991371524
 30
0.0
 11
125.730000000000004
 21
49.9999999991371524
 31
0.0
  0
LINE
  5
1404
  8
0
 10
130.0
 20
39.4999999991371382
 30
0.0
 11
130.0
 21
60.4999999991371524
 31
0.0
  0
LINE
  5
1405
  8
0
 10
108.0
 20
47.9594518666542271
 30
0.0
 11
108.0
 21
52.0405480472046804
 31
0.0
  0
LINE
  5
1409
  8
0
 10
100.0000000001594032
 20
54.959451953112449
 30
0.0
 11
100.0000000000344045
 21
52.0405480467648829
 31
0.0
  0
LINE
  5
140B
  8
0
 10
100.5097447285095029
 20
56.999999999137259
 30
0.0
 11
107.5882952112340973
 21
56.999999999137259
 31
0.0
  0
LINE
  5
140D
  8
0
 10
108.0
 20
54.9594518726602033
 30
0.0
 11
108.0
 21
52.0405480472046804
 31
0.0
  0
LINE
  5
140E
  8
0
 10
100.5097447285115067
 20
49.9999999991146282
 30
0.0
 11
107.5882952112386022
 21
49.9999999991157225
 31
0.0
  0
LINE
  5
1410
  8
0
 10
100.0000000001594032
 20
47.9594519531123922
 30
0.0
 11
100.000000000034305
 21
45.0405480467648189
 31
0.0
  0
LINE
  5
1412
  8
0
 10
108.0
 20
47.9594518726601322
 30
0.0
 11
108.0
 21
45.0405480472046804
 31
0.0
  0
LINE
  5
1414
  8
0
 10
100.5097447285109951
 20
42.9999999991140101
 30
0.0
 11
107.588295211248294
 21
42.9999999991642525
 31
0.0
  0
LINE
  5
1415
  8
0
 10
100.0
 20
47.9594519532688182
 30
0.0
 11
100.0
 21
52.0405480467311676
 31
0.0
  0
LINE
  5
1417
  8
0
 10
108.499695413509599
 20
49.9999999991372519
 30
0.0
 11
108.4996954135096985
 21
57.0174497474886621
 31
0.0
  0
LINE
  5
1418
  8
0
 10
108.499695413509599
 20
42.9825502507859127
 30
0.0
 11
108.499695413509599
 21
49.9999999991372519
 31
0.0
  0
LINE
  5
141A
  8
0
 10
100.0
 20
54.9594519527322234
 30
0.0
 11
100.0
 21
56.99999999902181
 31
0.0
  0
LINE
  5
141C
  8
0
 10
108.0
 20
42.9999999785304396
 30
0.0
 11
108.0
 21
45.0405480472046165
 31
0.0
  0
LINE
  5
141D
  8
0
 10
82.2735000000000554
 20
49.9999999991374793
 30
0.0
 11
82.2735000000000554
 21
55.9999999991374793
 31
0.0
  0
LINE
  5
141E
  8
0
 10
82.2734999999999559
 20
43.9999999991374295
 30
0.0
 11
82.2735000000000554
 21
49.9999999991374793
 31
0.0
  0
LINE
  5
141F
  8
0
 10
79.9999999999999432
 20
45.0734999991374465
 30
0.0
 11
80.0000000000000568
 21
54.9264999991374623
 31
0.0
  0
LINE
  5
1421
  8
0
 10
108.0
 20
54.9594518872573019
 30
0.0
 11
108.0
 21
56.999999999137259
 31
0.0
  0
LINE
  5
1423
  8
0
 10
99.9999999999999432
 20
42.9999999996739177
 30
0.0
 11
99.9999999999999432
 21
45.0405480468467871
 31
0.0
  0
LINE
  5
1424
  8
0
 10
75.7999999999999545
 20
46.9999999991374935
 30
0.0
 11
75.8000000000000114
 21
52.9999999991374793
 31
0.0
  0
LINE
  5
1425
  8
0
 10
74.4189253948001692
 20
49.9999999991375432
 30
0.0
 11
74.4189253948001692
 21
52.2026362040509468
 31
0.0
  0
LINE
  5
1426
  8
0
 10
74.4189253948001692
 20
47.797363794213787
 30
0.0
 11
74.4189253948001692
 21
49.9999999991375432
 31
0.0
  0
LINE
  5
1427
  8
0
 10
79.5
 20
46.9999999991374935
 30
0.0
 11
79.5
 21
52.9999999991374793
 31
0.0
  0
LINE
  5
1428
  8
0
 10
108.1200000000000045
 20
42.6999999991372405
 30
0.0
 11
108.1200000000000045
 21
40.2999999991372704
 31
0.0
  0
LINE
  5
1429
  8
0
 10
108.1200000000000045
 20
41.499999999137259
 30
0.0
 11
103.1199999999999051
 21
41.499999999137259
 31
0.0
  0
LINE
  5
142A
  8
0
 10
103.1199999999999051
 20
42.499999999137323
 30
0.0
 11
103.1199999999999051
 21
40.4999999991372519
 31
0.0
  0
LINE
  5
142B
  8
0
 10
98.1200000000000045
 20
42.249999999137259
 30
0.0
 11
98.1199999999999477
 21
40.749999999137259
 31
0.0
  0
LINE
  5
142C
  8
0
 10
129.0000000000015916
 20
49.9999999991371524
 30
0.0
 11
129.0000000000015916
 21
61.4999999991371382
 31
0.0
  0
LINE
  5
142D
  8
0
 10
129.0000000000015064
 20
38.4999999991371524
 30
0.0
 11
129.0000000000015916
 21
49.9999999991371524
 31
0.0
  0
LINE
  5
142F
  8
0
 10
166.0557264901098051
 20
94.4999978475556048
 30
0.0
 11
183.9442736824790927
 21
94.4999999990757829
 31
0.0
  0
LINE
  5
1431
  8
0
 10
184.8994949366141896
 20
96.4999999990750439
 30
0.0
 11
165.1005055603754954
 21
96.4999999990745323
 31
0.0
  0
CIRCLE
  5
1432
  8
0
 10
175.0000000000001137
 20
99.9999999990748734
 30
0.0
 40
11.5
  0
ARC
  5
1433
  8
0
 10
175.0000000000001137
 20
99.9999999990748734
 30
0.0
 40
10.5000000000000107
 50
31.5881355052003308
 51
148.411862629124613
  0
ARC
  5
1435
  8
0
 10
175.0000000000001137
 20
99.9999999990748734
 30
0.0
 40
10.4999990963412007
 50
160.5287776221248066
 51
174.5349765745939976
  0
ARC
  5
1437
  8
0
 10
175.0000000000001137
 20
99.9999999990748734
 30
0.0
 40
10.5
 50
185.4650237999078968
 51
199.4712215384710987
  0
ARC
  5
1438
  8
0
 10
175.0000000000001137
 20
99.9999999990748734
 30
0.0
 40
10.5000030201801202
 50
211.5881409330305019
 51
328.4118695610687269
  0
ARC
  5
1439
  8
0
 10
175.0000000000001137
 20
99.9999999990748734
 30
0.0
 40
10.5000000000022595
 50
340.5287793655137989
 51
354.5349762000952865
  0
ARC
  5
143B
  8
0
 10
175.0000000000001137
 20
99.9999999990748734
 30
0.0
 40
10.5000000000001492
 50
5.4650237999047357
 51
19.4712206344869507
  0
LINE
  5
143D
  8
0
 10
164.5477275198167035
 20
98.9999999990748165
 30
0.0
 11
185.4522724801836091
 21
98.9999999990748165
 31
0.0
  0
LINE
  5
143E
  8
0
 10
185.4522724801836944
 20
100.9999999990749018
 30
0.0
 11
164.5477267991994097
 21
100.9999999990746034
 31
0.0
  0
LINE
  5
143F
  8
0
 10
165.1005060218633957
 20
103.4999999990751007
 30
0.0
 11
184.8994949366129106
 21
103.4999999990747028
 31
0.0
  0
LINE
  5
1440
  8
0
 10
183.9442719099997134
 20
105.4999999990753992
 30
0.0
 11
166.0557287427247957
 21
105.4999999990747028
 31
0.0
  0
CIRCLE
  5
1441
  8
0
 10
175.0000000000001137
 20
99.9999999990748165
 30
0.0
 40
12.4999999999999396
  0
LINE
  5
1442
  8
0
 10
86.8485057759352514
 20
110.9696551136785985
 30
0.0
 11
85.9999999999030535
 21
109.4999999990748023
 31
0.0
  0
LINE
  5
1443
  8
0
 10
91.1514942238705146
 20
89.0303448844707077
 30
0.0
 11
91.9999999999034372
 21
90.4999999990755555
 31
0.0
  0
LINE
  5
1444
  8
0
 10
91.9999999999030535
 20
109.4999999990749018
 30
0.0
 11
91.1514942238705146
 21
110.9696551136787974
 31
0.0
  0
LINE
  5
1445
  8
0
 10
85.9999999999034515
 20
90.4999999990743049
 30
0.0
 11
86.8485057759350241
 21
89.0303448844718446
 31
0.0
  0
LINE
  5
1446
  8
0
 10
86.8485057660027735
 20
105.4848275219683984
 30
0.0
 11
91.1514942238714809
 21
105.4848275563765014
 31
0.0
  0
LINE
  5
1447
  8
0
 10
86.8485057759349246
 20
94.5151724417734158
 30
0.0
 11
91.1514942292382386
 21
94.5151724464229801
 31
0.0
  0
LINE
  5
1448
  8
0
 10
86.8485057759359336
 20
110.969655113678499
 30
0.0
 11
91.1514942238703867
 21
110.9696551136787974
 31
0.0
  0
LINE
  5
1449
  8
0
 10
86.8485057759355357
 20
89.0303448844718446
 30
0.0
 11
91.1514942238699462
 21
89.0303448844707077
 31
0.0
  0
LINE
  5
144A
  8
0
 10
85.9999999999034515
 20
90.4999999990743049
 30
0.0
 11
85.9999999999030535
 21
109.4999999990748023
 31
0.0
  0
LINE
  5
144B
  8
0
 10
91.9999999999034372
 20
90.4999999990755555
 30
0.0
 11
91.9999999999030535
 21
109.4999999990749018
 31
0.0
  0
LINE
  5
144C
  8
3
 10
80.5538148558736395
 20
94.8120000000054546
 30
0.0
 11
85.9999999999033946
 21
94.8120000000055256
 31
0.0
  0
LINE
  5
144D
  8
3
 10
91.9999999999033946
 20
94.8120000000054546
 30
0.0
 11
97.0000000000000853
 21
94.8120000000054119
 31
0.0
  0
LINE
  5
144E
  8
3
 10
80.5538148597924248
 20
105.1879999999946023
 30
0.0
 11
85.9999999999031104
 21
105.1879999999946023
 31
0.0
  0
LINE
  5
144F
  8
3
 10
91.9999999999031104
 20
105.1879999999946023
 30
0.0
 11
97.0000000000000853
 21
105.1879999999946023
 31
0.0
  0
LINE
  5
1450
  8
1
 10
68.999999999999801
 20
100.0
 30
0.0
 11
135.0000000000003126
 21
100.0
 31
0.0
  0
LINE
  5
1451
  8
3
 10
97.0000000000000142
 20
105.1879999999946023
 30
0.0
 11
98.4064252557431303
 21
105.999999999992994
 31
0.0
  0
LINE
  5
1452
  8
3
 10
97.0000000000000142
 20
94.8120000000053551
 30
0.0
 11
98.4064252557431303
 21
94.0000000000069349
 31
0.0
  0
LINE
  5
1453
  8
0
 10
97.0000000000000853
 20
105.9999999999974989
 30
0.0
 11
97.0000000000000853
 21
94.0000000000025011
 31
0.0
  0
ARC
  5
1454
  8
0
 10
90.856063221908272
 20
91.7727586631231134
 30
0.0
 40
4.8560632220047983
 50
145.6157525319696049
 51
205.6157525320180071
  0
ARC
  5
1455
  8
0
 10
87.143936757712396
 20
91.772758669368784
 30
0.0
 40
4.8560632421910483
 50
334.3842473943789741
 51
34.3842472822244432
  0
ARC
  5
1456
  8
0
 10
104.1514942139400972
 20
99.9999999975378842
 30
0.0
 40
18.1514942140368909
 50
162.4120463249161901
 51
197.5879537788426035
  0
ARC
  5
1457
  8
0
 10
73.8485057362415489
 20
99.9999999929342493
 30
0.0
 40
18.1514942636617107
 50
342.4120463014510847
 51
17.5879537546113802
  0
ARC
  5
1458
  8
0
 10
90.8560633009654168
 20
108.2272413105657023
 30
0.0
 40
4.8560633010623251
 50
154.3842471793743982
 51
214.3842469719257906
  0
ARC
  5
1459
  8
0
 10
87.1439367778989862
 20
108.2272413350271023
 30
0.0
 40
4.8560632220041082
 50
325.6157525319608226
 51
25.6157525319456312
  0
LINE
  5
145A
  8
0
 10
86.0
 20
59.499999997549331
 30
0.0
 11
92.0
 21
59.5000000087784713
 31
0.0
  0
LINE
  5
145B
  8
0
 10
86.8485057760324253
 20
49.9999999991375432
 30
0.0
 11
91.1514942239668358
 21
49.9999999991395327
 31
0.0
  0
LINE
  5
145C
  8
0
 10
86.0
 20
40.4999999991373727
 30
0.0
 11
92.0
 21
40.4999999991373727
 31
0.0
  0
LINE
  5
145D
  8
0
 10
86.0
 20
40.4999999991373727
 30
0.0
 11
86.0
 21
59.499999997549331
 31
0.0
  0
LINE
  5
145E
  8
0
 10
92.0
 20
40.4999999991373727
 30
0.0
 11
92.0
 21
59.5000000087784713
 31
0.0
  0
LINE
  5
145F
  8
3
 10
80.5538148557342311
 20
44.8120000000054972
 30
0.0
 11
85.9999999999034799
 21
44.812000000005547
 31
0.0
  0
LINE
  5
1460
  8
3
 10
91.9999999999034799
 20
44.8120000000054972
 30
0.0
 11
96.999999999860691
 21
44.8120000000054333
 31
0.0
  0
LINE
  5
1461
  8
3
 10
80.5538148596530164
 20
55.1879999999946733
 30
0.0
 11
85.9999999999031957
 21
55.1879999999946733
 31
0.0
  0
LINE
  5
1462
  8
3
 10
91.9999999999031957
 20
55.1879999999946733
 30
0.0
 11
96.999999999860691
 21
55.1879999999946733
 31
0.0
  0
LINE
  5
1463
  8
3
 10
96.9999999998606057
 20
55.1879999999946733
 30
0.0
 11
98.4064252556037218
 21
55.9999999999930935
 31
0.0
  0
LINE
  5
1464
  8
3
 10
96.9999999998606057
 20
44.8120000000053835
 30
0.0
 11
98.4064252556037218
 21
44.0000000000069633
 31
0.0
  0
LINE
  5
1465
  8
0
 10
96.999999999860691
 20
55.9999999999975202
 30
0.0
 11
96.999999999860691
 21
44.0000000000025295
 31
0.0
  0
ARC
  5
1466
  8
0
 10
99.7196839698680861
 20
45.2499999864931794
 30
0.0
 40
13.7196839698681003
 50
159.7438420625780111
 51
200.2561578210116124
  0
ARC
  5
1467
  8
0
 10
99.7196838897033331
 20
54.7499999991869402
 30
0.0
 40
13.7196838897033793
 50
159.7438419993789012
 51
200.2561579972233972
  0
ARC
  5
1468
  8
0
 10
78.2803160851773896
 20
54.750000003579629
 30
0.0
 40
13.7196839148225695
 50
339.7438420181039191
 51
20.2561579535647986
  0
ARC
  5
1469
  8
0
 10
78.2803161100222837
 20
45.2499999991368611
 30
0.0
 40
13.7196838899777003
 50
339.7438419995825143
 51
20.256158000431121
  0
LINE
  5
146A
  8
1
 10
68.9999999999997726
 20
50.0000000000000284
 30
0.0
 11
135.0000000000003126
 21
50.0000000000000284
 31
0.0
  0
CIRCLE
  5
146B
  8
0
 10
25.0000000000001101
 20
99.9999999990748876
 30
0.0
 40
3.0
  0
CIRCLE
  5
146C
  8
0
 10
25.0000000000000604
 20
99.9999999990748876
 30
0.0
 40
4.926499999999975
  0
CIRCLE
  5
146D
  8
0
 10
25.0000000000000604
 20
99.9999999990748876
 30
0.0
 40
6.0
  0
ARC
  5
146E
  8
0
 10
16.4999999999998792
 20
99.9999999990750155
 30
0.0
 40
1.200000000000023
 50
148.1472717180238874
 51
211.9899827749003975
  0
CIRCLE
  5
146F
  8
0
 10
24.9999999999997691
 20
99.9999999990750581
 30
0.0
 40
12.5
  0
CIRCLE
  5
1470
  8
3
 10
25.0
 20
99.9999999990748876
 30
0.0
 40
5.1879999999945454
  0
LINE
  5
1471
  8
1
 10
7.5000000000002274
 20
99.9999999990748876
 30
0.0
 11
42.5
 21
99.9999999990748876
 31
0.0
  0
LINE
  5
1472
  8
1
 10
25.0
 20
117.4999999990747028
 30
0.0
 11
25.0
 21
82.4999999990748307
 31
0.0
  0
POLYLINE
  5
1473
  8
0
 66
     1
 10
0.0
 20
0.0
 30
0.0
 70
     1
  0
VERTEX
  5
15A3
  8
0
 10
15.5000000000001101
 20
105.4848275563763025
 30
0.0
  0
VERTEX
  5
15A4
  8
0
 10
15.5000000000001101
 20
94.5151724417734869
 30
0.0
  0
VERTEX
  5
15A5
  8
0
 10
25.0000000000001101
 20
89.0303448844720151
 30
0.0
  0
VERTEX
  5
15A6
  8
0
 10
34.5000000000001208
 20
94.5151724417734869
 30
0.0
  0
VERTEX
  5
15A7
  8
0
 10
34.5000000000001208
 20
105.4848275563763025
 30
0.0
  0
VERTEX
  5
15A8
  8
0
 10
25.0000000000001101
 20
110.9696551136778027
 30
0.0
  0
SEQEND
  5
15A9
  8
0
  0
CIRCLE
  5
1474
  8
0
 10
25.0
 20
99.9999999990747739
 30
0.0
 40
9.5000000000033431
  0
LINE
  5
1475
  8
1
 10
157.500000000000199
 20
99.9999999990748165
 30
0.0
 11
192.5
 21
99.9999999990748165
 31
0.0
  0
LINE
  5
1476
  8
1
 10
175.0
 20
117.4999999990746034
 30
0.0
 11
175.0
 21
82.4999999990747597
 31
0.0
  0
LINE
  5
1477
  8
0
 10
123.9299999999032025
 20
137.5000000008629115
 30
0.0
 11
116.9448376402337999
 21
142.6876393874082112
 31
0.0
  0
LINE
  5
1478
  8
0
 10
116.9448376402817047
 20
157.3106245739043061
 30
0.0
 11
123.929999999903103
 21
162.5000000008629115
 31
0.0
  0
LINE
  5
1479
  8
0
 10
123.929999999903103
 20
162.5000000008629115
 30
0.0
 11
124.2299999999031002
 21
162.5000000008629115
 31
0.0
  0
LINE
  5
147A
  8
0
 10
124.2299999999032991
 20
137.5000000008629115
 30
0.0
 11
123.9299999999032025
 21
137.5000000008629115
 31
0.0
  0
ARC
  5
147B
  8
0
 10
123.9896620622411945
 20
160.5144930943700103
 30
0.0
 40
2.0000000000025868
 50
29.5217192952222192
 51
83.0981456528169531
  0
ARC
  5
147C
  8
0
 10
123.9896620622413934
 20
139.485506907355699
 30
0.0
 40
2.0000000000025451
 50
276.9018543471830753
 51
330.4782807047777737
  0
LINE
  5
147D
  8
0
 10
125.7299999999031002
 20
161.5000000008629115
 30
0.0
 11
128.9999999999031104
 21
161.5000000008629115
 31
0.0
  0
ARC
  5
147E
  8
0
 10
128.9999999999031104
 20
160.5000000008629115
 30
0.0
 40
1.0
 50
0.0
 51
90.0
  0
LINE
  5
147F
  8
0
 10
128.9999999999031104
 20
138.5000000008629115
 30
0.0
 11
125.7299999999031996
 21
138.5000000008629115
 31
0.0
  0
ARC
  5
1480
  8
0
 10
128.9999999999031104
 20
139.5000000008629115
 30
0.0
 40
1.0
 50
270.0
 51
0.0
  0
LINE
  5
1481
  8
0
 10
116.9448376402337999
 20
142.6876393874836992
 30
0.0
 11
108.4996954134127947
 21
142.9825502525114018
 31
0.0
  0
LINE
  5
1482
  8
0
 10
108.4996954134126952
 20
157.0174497492141086
 30
0.0
 11
116.5909017908303014
 21
157.3000009020300922
 31
0.0
  0
LINE
  5
1483
  8
0
 10
108.4996954134127947
 20
142.9825502525114018
 30
0.0
 11
107.9999999999031957
 21
143.5000000008627978
 31
0.0
  0
LINE
  5
1484
  8
0
 10
107.9999999999030962
 20
156.5000000008627126
 30
0.0
 11
108.4996954134126952
 21
157.0174497492141086
 31
0.0
  0
LINE
  5
1485
  8
0
 10
82.2734999999031231
 20
156.0000000008625989
 30
0.0
 11
85.9999999999030535
 21
156.0000000008625989
 31
0.0
  0
LINE
  5
1486
  8
0
 10
91.999999999903153
 20
156.0000000008625989
 30
0.0
 11
99.9999999999031104
 21
156.0000000008625989
 31
0.0
  0
LINE
  5
1487
  8
0
 10
99.9999999999031672
 20
144.0000000008627126
 30
0.0
 11
91.999999999903153
 21
144.0000000008625989
 31
0.0
  0
LINE
  5
1488
  8
0
 10
85.999999999903153
 20
144.0000000008625989
 30
0.0
 11
82.2734999999032368
 21
144.0000000008625136
 31
0.0
  0
LINE
  5
1489
  8
0
 10
82.2734999999032368
 20
144.0000000008625136
 30
0.0
 11
79.9999999999032241
 21
145.0735000008625093
 31
0.0
  0
LINE
  5
148A
  8
0
 10
79.9999999999031104
 20
154.9265000008626032
 30
0.0
 11
82.2734999999031231
 21
156.0000000008625989
 31
0.0
  0
ARC
  5
148B
  8
0
 10
79.7999999999026102
 20
153.1000000008631048
 30
0.0
 40
0.2000000000005571
 50
270.0000000001465992
 51
359.9999999998372004
  0
ARC
  5
148C
  8
0
 10
79.799999999902667
 20
146.9000000008620077
 30
0.0
 40
0.2000000000005571
 50
0.0000000001628444
 51
89.9999999998534435
  0
LINE
  5
148D
  8
0
 10
75.7999999999031786
 20
147.0000000008625136
 30
0.0
 11
74.4189253947033365
 21
147.7973637959455004
 31
0.0
  0
LINE
  5
148E
  8
0
 10
74.4189253947033365
 20
152.2026362057796121
 30
0.0
 11
75.7999999999031218
 21
153.0000000008625136
 31
0.0
  0
LINE
  5
148F
  8
0
 10
75.7999999999031218
 20
153.0000000008625136
 30
0.0
 11
79.4999999999031672
 21
153.0000000008625136
 31
0.0
  0
LINE
  5
1490
  8
0
 10
79.4999999999031672
 20
147.0000000008625136
 30
0.0
 11
75.7999999999031786
 21
147.0000000008625136
 31
0.0
  0
LINE
  5
1491
  8
0
 10
79.4999999999031672
 20
153.0000000008625136
 30
0.0
 11
79.6732050806601535
 21
152.9000000008626046
 31
0.0
  0
LINE
  5
1492
  8
0
 10
79.6732050806602103
 20
147.1000000008625079
 30
0.0
 11
79.4999999999031672
 21
147.0000000008625136
 31
0.0
  0
LINE
  5
1493
  8
0
 10
79.6732050806601535
 20
152.9000000008626046
 30
0.0
 11
79.7999999999031218
 21
152.9000000008626046
 31
0.0
  0
LINE
  5
1494
  8
0
 10
79.7999999999031786
 20
147.1000000008625079
 30
0.0
 11
79.6732050806602103
 21
147.1000000008625079
 31
0.0
  0
ARC
  5
1495
  8
0
 10
79.9999999999323137
 20
150.0000000008676011
 30
0.0
 40
6.0000000000291713
 50
158.4627507537254871
 51
201.5372492462743992
  0
LINE
  5
1496
  8
0
 10
116.5909018017188004
 20
157.3000000008626955
 30
0.0
 11
108.1199999999032002
 21
157.3000000008626102
 31
0.0
  0
LINE
  5
1497
  8
0
 10
108.1199999999032002
 20
159.7000000008625875
 30
0.0
 11
120.152005614610303
 21
159.7000000008627012
 31
0.0
  0
LINE
  5
1498
  8
0
 10
103.1199999999031007
 20
159.5000000008627126
 30
0.0
 11
108.1199999999032002
 21
159.5000000008627126
 31
0.0
  0
LINE
  5
1499
  8
0
 10
108.1199999999032002
 20
157.5000000008627126
 30
0.0
 11
103.1199999999032002
 21
157.5000000008627126
 31
0.0
  0
LINE
  5
149A
  8
0
 10
103.1199999999031007
 20
158.7500000008627978
 30
0.0
 11
98.1199999999031149
 21
158.7500000008627126
 31
0.0
  0
LINE
  5
149B
  8
0
 10
98.1199999999031149
 20
159.2500000008627978
 30
0.0
 11
103.1199999999031007
 21
159.2500000008627978
 31
0.0
  0
LINE
  5
149C
  8
0
 10
103.1199999999031007
 20
157.7500000008627978
 30
0.0
 11
98.119999999903186
 21
157.7500000008627126
 31
0.0
  0
LINE
  5
149D
  8
0
 10
98.1199999999031149
 20
158.2500000008627978
 30
0.0
 11
103.1199999999031007
 21
158.2500000008627978
 31
0.0
  0
LINE
  5
149E
  8
0
 10
123.929999999903103
 20
162.5000000008629115
 30
0.0
 11
123.9299999999032025
 21
137.5000000008629115
 31
0.0
  0
LINE
  5
149F
  8
0
 10
116.9448376402337999
 20
157.3106245738696884
 30
0.0
 11
116.9448376402337999
 21
142.6876393874082112
 31
0.0
  0
LINE
  5
14A0
  8
0
 10
125.7299999999031996
 20
150.0000000008629115
 30
0.0
 11
125.7299999999031996
 21
138.5000000008629115
 31
0.0
  0
LINE
  5
14A1
  8
0
 10
125.7299999999031002
 20
161.5000000008629115
 30
0.0
 11
125.7299999999031996
 21
150.0000000008629115
 31
0.0
  0
LINE
  5
14A2
  8
0
 10
129.9999999999031104
 20
160.5000000008629115
 30
0.0
 11
129.9999999999031104
 21
139.5000000008629115
 31
0.0
  0
LINE
  5
14A3
  8
0
 10
107.9999999999031957
 20
152.0405481333457942
 30
0.0
 11
107.9999999999031957
 21
147.9594519527952912
 31
0.0
  0
LINE
  5
14A7
  8
0
 10
100.0000000000624993
 20
145.0405480468876078
 30
0.0
 11
99.9999999999375575
 21
147.9594519532350887
 31
0.0
  0
LINE
  5
14A9
  8
0
 10
100.5097447284125991
 20
143.0000000008627126
 30
0.0
 11
107.588295211137293
 21
143.0000000008627126
 31
0.0
  0
LINE
  5
14AB
  8
0
 10
107.9999999999031957
 20
145.0405481273398038
 30
0.0
 11
107.9999999999031957
 21
147.9594519527952912
 31
0.0
  0
LINE
  5
14AC
  8
0
 10
100.5097447284147023
 20
150.0000000008853931
 30
0.0
 11
107.5882952111416984
 21
150.0000000008843131
 31
0.0
  0
LINE
  5
14AE
  8
0
 10
100.0000000000624993
 20
152.0405480468876078
 30
0.0
 11
99.9999999999375007
 21
154.9594519532352024
 31
0.0
  0
LINE
  5
14B0
  8
0
 10
107.9999999999031957
 20
152.0405481273398891
 30
0.0
 11
107.9999999999031957
 21
154.9594519527952912
 31
0.0
  0
LINE
  5
14B2
  8
0
 10
100.5097447284142049
 20
157.0000000008859899
 30
0.0
 11
107.5882952111515038
 21
157.0000000008357972
 31
0.0
  0
LINE
  5
14B3
  8
0
 10
99.9999999999031672
 20
152.0405480467312032
 30
0.0
 11
99.9999999999031672
 21
147.9594519532687968
 31
0.0
  0
LINE
  5
14B5
  8
0
 10
108.4996954134127947
 20
150.0000000008627126
 30
0.0
 11
108.4996954134127947
 21
142.9825502525114018
 31
0.0
  0
LINE
  5
14B6
  8
0
 10
108.4996954134126952
 20
157.0174497492141086
 30
0.0
 11
108.4996954134127947
 21
150.0000000008627126
 31
0.0
  0
LINE
  5
14B8
  8
0
 10
99.9999999999032241
 20
145.040548047267805
 30
0.0
 11
99.9999999999032241
 21
143.00000000097819
 31
0.0
  0
LINE
  5
14BA
  8
0
 10
107.9999999999031957
 20
157.0000000214695888
 30
0.0
 11
107.9999999999031957
 21
154.9594519527954048
 31
0.0
  0
LINE
  5
14BB
  8
0
 10
82.2734999999032368
 20
150.0000000008625136
 30
0.0
 11
82.2734999999032368
 21
144.0000000008625136
 31
0.0
  0
LINE
  5
14BC
  8
0
 10
82.2734999999031231
 20
156.0000000008625989
 30
0.0
 11
82.2734999999032368
 21
150.0000000008625136
 31
0.0
  0
LINE
  5
14BD
  8
0
 10
79.9999999999031104
 20
154.9265000008626032
 30
0.0
 11
79.9999999999032241
 21
145.0735000008625093
 31
0.0
  0
LINE
  5
14BF
  8
0
 10
107.9999999999031957
 20
145.0405481127426981
 30
0.0
 11
107.9999999999031957
 21
143.0000000008627126
 31
0.0
  0
LINE
  5
14C1
  8
0
 10
99.9999999999031104
 20
157.0000000003261107
 30
0.0
 11
99.9999999999031104
 21
154.9594519531532057
 31
0.0
  0
LINE
  5
14C2
  8
0
 10
75.7999999999031218
 20
153.0000000008625136
 30
0.0
 11
75.7999999999031786
 21
147.0000000008625136
 31
0.0
  0
LINE
  5
14C3
  8
0
 10
74.4189253947033365
 20
150.0000000008625136
 30
0.0
 11
74.4189253947033365
 21
147.7973637959489963
 31
0.0
  0
LINE
  5
14C4
  8
0
 10
74.4189253947033365
 20
152.2026362057862059
 30
0.0
 11
74.4189253947033365
 21
150.0000000008625136
 31
0.0
  0
LINE
  5
14C5
  8
0
 10
79.4999999999031672
 20
153.0000000008625136
 30
0.0
 11
79.4999999999031672
 21
147.0000000008625136
 31
0.0
  0
LINE
  5
14C6
  8
0
 10
108.1199999999032002
 20
157.3000000008628092
 30
0.0
 11
108.1199999999032002
 21
159.7000000008627012
 31
0.0
  0
LINE
  5
14C7
  8
0
 10
108.1199999999032002
 20
158.5000000008627126
 30
0.0
 11
103.1199999999031007
 21
158.5000000008627126
 31
0.0
  0
LINE
  5
14C8
  8
0
 10
103.1199999999031007
 20
157.5000000008627126
 30
0.0
 11
103.1199999999031007
 21
159.5000000008627126
 31
0.0
  0
LINE
  5
14C9
  8
0
 10
98.119999999903186
 20
157.7500000008627126
 30
0.0
 11
98.1199999999031149
 21
159.2500000008627978
 31
0.0
  0
LINE
  5
14CA
  8
0
 10
128.999999999904702
 20
150.0000000008629115
 30
0.0
 11
128.9999999999047873
 21
138.5000000008629115
 31
0.0
  0
LINE
  5
14CB
  8
0
 10
128.9999999999045883
 20
161.5000000008629115
 30
0.0
 11
128.999999999904702
 21
150.0000000008629115
 31
0.0
  0
LINE
  5
14CC
  8
0
 10
85.999999999903153
 20
140.5000000024506903
 30
0.0
 11
91.999999999903153
 21
140.4999999912215003
 31
0.0
  0
LINE
  5
14CD
  8
0
 10
86.8485057759355925
 20
150.0000000008625136
 30
0.0
 11
91.151494223870003
 21
150.0000000008604957
 31
0.0
  0
LINE
  5
14CE
  8
0
 10
85.999999999903153
 20
159.5000000008625989
 30
0.0
 11
91.999999999903153
 21
159.5000000008625989
 31
0.0
  0
LINE
  5
14CF
  8
0
 10
85.999999999903153
 20
159.5000000008625989
 30
0.0
 11
85.999999999903153
 21
140.5000000024506903
 31
0.0
  0
LINE
  5
14D0
  8
0
 10
91.999999999903153
 20
159.5000000008625989
 30
0.0
 11
91.999999999903153
 21
140.4999999912215003
 31
0.0
  0
LINE
  5
14D1
  8
3
 10
80.5538148556373983
 20
155.1879999999945028
 30
0.0
 11
85.9999999998066471
 21
155.1879999999945028
 31
0.0
  0
LINE
  5
14D2
  8
3
 10
91.9999999998066471
 20
155.1879999999945028
 30
0.0
 11
96.999999999763844
 21
155.1879999999945881
 31
0.0
  0
LINE
  5
14D3
  8
3
 10
80.5538148595561836
 20
144.8120000000052983
 30
0.0
 11
85.9999999998063771
 21
144.8120000000052983
 31
0.0
  0
LINE
  5
14D4
  8
3
 10
91.9999999998063629
 20
144.8120000000052983
 30
0.0
 11
96.999999999763844
 21
144.8120000000052983
 31
0.0
  0
LINE
  5
14D5
  8
3
 10
96.9999999997637872
 20
144.8120000000052983
 30
0.0
 11
98.406425255506889
 21
144.0000000000069065
 31
0.0
  0
LINE
  5
14D6
  8
3
 10
96.9999999997637872
 20
155.1879999999945881
 30
0.0
 11
98.406425255506889
 21
155.9999999999930935
 31
0.0
  0
LINE
  5
14D7
  8
0
 10
96.999999999763844
 20
144.0000000000025011
 30
0.0
 11
96.999999999763844
 21
155.9999999999974989
 31
0.0
  0
ARC
  5
14D8
  8
0
 10
99.7196839697712534
 20
154.7500000135067921
 30
0.0
 40
13.7196839698681003
 50
159.7438421789881886
 51
200.2561579374219036
  0
ARC
  5
14D9
  8
0
 10
99.7196838896065003
 20
145.2500000008130883
 30
0.0
 40
13.7196838897033793
 50
159.7438420027766028
 51
200.2561580006253052
  0
ARC
  5
14DA
  8
0
 10
78.2803160850805568
 20
145.2499999964203994
 30
0.0
 40
13.7196839148225695
 50
339.7438420464351907
 51
20.2561579818995092
  0
ARC
  5
14DB
  8
0
 10
78.280316109925451
 20
154.7500000008631105
 30
0.0
 40
13.7196838899777003
 50
339.7438419995688719
 51
20.2561580004166508
  0
LINE
  5
14DC
  8
1
 10
68.9999999999029399
 20
150.0
 30
0.0
 11
134.9999999999033946
 21
150.0
 31
0.0
  0
CIRCLE
  5
14DD
  8
0
 10
25.0000000000001101
 20
99.9999999990748876
 30
0.0
 40
2.2026362049163022
  0
LINE
  5
14DE
  8
2
 10
18.0000000000010196
 20
95.9585481147486945
 30
0.0
 11
25.0000000000010303
 21
91.9170962304205545
 31
0.0
  0
LINE
  5
14DF
  8
2
 10
25.0000000000010303
 20
91.9170962304205545
 30
0.0
 11
32.0000000000001208
 21
95.9585481147486945
 31
0.0
  0
LINE
  5
14E0
  8
2
 10
32.0000000000001208
 20
95.9585481147486945
 30
0.0
 11
32.0000000000001208
 21
104.0414518834039939
 31
0.0
  0
LINE
  5
14E1
  8
2
 10
32.0000000000001208
 20
104.0414518834039939
 30
0.0
 11
25.0000000000001101
 21
108.0829037677303006
 31
0.0
  0
LINE
  5
14E2
  8
2
 10
25.0000000000001101
 20
108.0829037677303006
 30
0.0
 11
17.9999999999992006
 21
104.0414518834022033
 31
0.0
  0
LINE
  5
14E3
  8
2
 10
17.9999999999992006
 20
104.0414518834022033
 30
0.0
 11
18.0000000000010196
 21
95.9585481147486945
 31
0.0
  0
POLYLINE
  5
1503
  8
0
 66
     1
 10
0.0
 20
0.0
 30
0.0
  0
VERTEX
  5
15AA
  8
0
 10
100.0000000001818989
 20
157.0000000007956089
 30
0.0
  0
VERTEX
  5
15AB
  8
0
 10
100.0072364656376038
 20
156.9999630463370863
 30
0.0
  0
VERTEX
  5
15AC
  8
0
 10
100.0145078026168051
 20
156.9999261914996964
 30
0.0
  0
VERTEX
  5
15AD
  8
0
 10
100.021848882642999
 20
156.9998895359042876
 30
0.0
  0
VERTEX
  5
15AE
  8
0
 10
100.0292945772396962
 20
156.9998531791721916
 30
0.0
  0
VERTEX
  5
15AF
  8
0
 10
100.036879757930393
 20
156.999817220924399
 30
0.0
  0
VERTEX
  5
15B0
  8
0
 10
100.0446392962387989
 20
156.9997817607817865
 30
0.0
  0
VERTEX
  5
15B1
  8
0
 10
100.052607962943398
 20
156.9997469029412116
 30
0.0
  0
VERTEX
  5
15B2
  8
0
 10
100.0608066322383962
 20
156.9997133827368998
 30
0.0
  0
VERTEX
  5
15B3
  8
0
 10
100.0692282187721958
 20
156.9996832053352875
 30
0.0
  0
VERTEX
  5
15B4
  8
0
 10
100.077862285125903
 20
156.999658528142902
 30
0.0
  0
VERTEX
  5
15B5
  8
0
 10
100.0866983938803969
 20
156.9996415085660999
 30
0.0
  0
VERTEX
  5
15B6
  8
0
 10
100.0957261076166986
 20
156.9996343040114084
 30
0.0
  0
VERTEX
  5
15B7
  8
0
 10
100.1049349889158009
 20
156.9996390718852979
 30
0.0
  0
VERTEX
  5
15B8
  8
0
 10
100.1143149968631008
 20
156.9996577261034076
 30
0.0
  0
VERTEX
  5
15B9
  8
0
 10
100.1238613619343027
 20
156.9996889434532932
 30
0.0
  0
VERTEX
  5
15BA
  8
0
 10
100.1335730587721997
 20
156.9997291014533118
 30
0.0
  0
VERTEX
  5
15BB
  8
0
 10
100.1434491418297057
 20
156.9997745286111126
 30
0.0
  0
VERTEX
  5
15BC
  8
0
 10
100.1534886655596068
 20
156.9998215534338044
 30
0.0
  0
VERTEX
  5
15BD
  8
0
 10
100.163690684414604
 20
156.9998665044290931
 30
0.0
  0
VERTEX
  5
15BE
  8
0
 10
100.174054252810393
 20
156.999905710456602
 30
0.0
  0
VERTEX
  5
15BF
  8
0
 10
100.1845783268663013
 20
156.9999364309379075
 30
0.0
  0
VERTEX
  5
15C0
  8
0
 10
100.1952615510643056
 20
156.9999588755389084
 30
0.0
  0
VERTEX
  5
15C1
  8
0
 10
100.2061025082711012
 20
156.9999738372291915
 30
0.0
  0
VERTEX
  5
15C2
  8
0
 10
100.2170997813538946
 20
156.9999821089782017
 30
0.0
  0
VERTEX
  5
15C3
  8
0
 10
100.2282519531794946
 20
156.9999844837554122
 30
0.0
  0
VERTEX
  5
15C4
  8
0
 10
100.2395576066148948
 20
156.999981754530296
 30
0.0
  0
VERTEX
  5
15C5
  8
0
 10
100.2510153045137002
 20
156.9999747223644988
 30
0.0
  0
VERTEX
  5
15C6
  8
0
 10
100.2626231102443057
 20
156.9999643902791888
 30
0.0
  0
VERTEX
  5
15C7
  8
0
 10
100.2743785649014967
 20
156.9999519724694039
 30
0.0
  0
VERTEX
  5
15C8
  8
0
 10
100.286279185006407
 20
156.9999386930660137
 30
0.0
  0
VERTEX
  5
15C9
  8
0
 10
100.2983224870800996
 20
156.9999257762002003
 30
0.0
  0
VERTEX
  5
15CA
  8
0
 10
100.310505987643495
 20
156.9999144460028049
 30
0.0
  0
VERTEX
  5
15CB
  8
0
 10
100.3228272032177983
 20
156.9999059266050097
 30
0.0
  0
VERTEX
  5
15CC
  8
0
 10
100.3352842145675936
 20
156.9999012872519017
 30
0.0
  0
VERTEX
  5
15CD
  8
0
 10
100.3478792971912981
 20
156.9999004457274907
 30
0.0
  0
VERTEX
  5
15CE
  8
0
 10
100.3606166163570066
 20
156.9999028010711868
 30
0.0
  0
VERTEX
  5
15CF
  8
0
 10
100.3735003464557991
 20
156.9999077498177087
 30
0.0
  0
VERTEX
  5
15D0
  8
0
 10
100.3865346618792955
 20
156.9999146885020878
 30
0.0
  0
VERTEX
  5
15D1
  8
0
 10
100.3997237370185047
 20
156.9999230136589858
 30
0.0
  0
VERTEX
  5
15D2
  8
0
 10
100.413071746265004
 20
156.9999321218234911
 30
0.0
  0
VERTEX
  5
15D3
  8
0
 10
100.4265784805534025
 20
156.9999415017151136
 30
0.0
  0
VERTEX
  5
15D4
  8
0
 10
100.4402253802472984
 20
156.9999510279689048
 30
0.0
  0
VERTEX
  5
15D5
  8
0
 10
100.4539890844589962
 20
156.9999606761907955
 30
0.0
  0
VERTEX
  5
15D6
  8
0
 10
100.4678462322850976
 20
156.9999704219872001
 30
0.0
  0
VERTEX
  5
15D7
  8
0
 10
100.4817734628220052
 20
156.9999802409645895
 30
0.0
  0
VERTEX
  5
15D8
  8
0
 10
100.4957474151658943
 20
156.9999901087292073
 30
0.0
  0
VERTEX
  5
15D9
  8
0
 10
100.5097447284133949
 20
157.000000000887411
 30
0.0
  0
SEQEND
  5
15DA
  8
0
  0
POLYLINE
  5
1504
  8
0
 66
     1
 10
0.0
 20
0.0
 30
0.0
  0
VERTEX
  5
15DB
  8
0
 10
107.9999999999031957
 20
143.0000000008627126
 30
0.0
  0
VERTEX
  5
15DC
  8
0
 10
107.9941349145828013
 20
142.9999984578929002
 30
0.0
  0
VERTEX
  5
15DD
  8
0
 10
107.9882450478043978
 20
142.999998078064209
 30
0.0
  0
VERTEX
  5
15DE
  8
0
 10
107.9823056181101038
 20
143.0000000245177034
 30
0.0
  0
VERTEX
  5
15DF
  8
0
 10
107.9762918440418957
 20
143.0000054603945046
 30
0.0
  0
VERTEX
  5
15E0
  8
0
 10
107.9701789441420061
 20
143.0000155488357052
 30
0.0
  0
VERTEX
  5
15E1
  8
0
 10
107.9639421369521983
 20
143.0000314529825118
 30
0.0
  0
VERTEX
  5
15E2
  8
0
 10
107.9575566410148042
 20
143.0000543359759035
 30
0.0
  0
VERTEX
  5
15E3
  8
0
 10
107.9509983018034944
 20
143.0000853209585898
 30
0.0
  0
VERTEX
  5
15E4
  8
0
 10
107.9442585141876947
 20
143.000124539015502
 30
0.0
  0
VERTEX
  5
15E5
  8
0
 10
107.9373448773651063
 20
143.0001710873889067
 30
0.0
  0
VERTEX
  5
15E6
  8
0
 10
107.9302657485219044
 20
143.0002240149611055
 30
0.0
  0
VERTEX
  5
15E7
  8
0
 10
107.9230294848444061
 20
143.0002823706145136
 30
0.0
  0
VERTEX
  5
15E8
  8
0
 10
107.9156444435189997
 20
143.0003452032314044
 30
0.0
  0
VERTEX
  5
15E9
  8
0
 10
107.9081189817318034
 20
143.0004115616941078
 30
0.0
  0
VERTEX
  5
15EA
  8
0
 10
107.9004613350944055
 20
143.0004804787249952
 30
0.0
  0
VERTEX
  5
15EB
  8
0
 10
107.8926754193750952
 20
143.0005504128430971
 30
0.0
  0
VERTEX
  5
15EC
  8
0
 10
107.8847597631025934
 20
143.0006191064834127
 30
0.0
  0
VERTEX
  5
15ED
  8
0
 10
107.876712556483298
 20
143.0006842571106063
 30
0.0
  0
VERTEX
  5
15EE
  8
0
 10
107.868531989723806
 20
143.0007435621890011
 30
0.0
  0
VERTEX
  5
15EF
  8
0
 10
107.8602162530304014
 20
143.0007947191832898
 30
0.0
  0
VERTEX
  5
15F0
  8
0
 10
107.8517635366096954
 20
143.0008354255577956
 30
0.0
  0
VERTEX
  5
15F1
  8
0
 10
107.8431721130701959
 20
143.0008634509314049
 30
0.0
  0
VERTEX
  5
15F2
  8
0
 10
107.8344420567792952
 20
143.0008781426058135
 30
0.0
  0
VERTEX
  5
15F3
  8
0
 10
107.8255751934034947
 20
143.0008803813821032
 30
0.0
  0
VERTEX
  5
15F4
  8
0
 10
107.8165734209173934
 20
143.0008711113765116
 30
0.0
  0
VERTEX
  5
15F5
  8
0
 10
107.8074386372955047
 20
143.0008512767053048
 30
0.0
  0
VERTEX
  5
15F6
  8
0
 10
107.7981727405122001
 20
143.0008218214848057
 30
0.0
  0
VERTEX
  5
15F7
  8
0
 10
107.7887776285422063
 20
143.000783689831195
 30
0.0
  0
VERTEX
  5
15F8
  8
0
 10
107.7792552430779978
 20
143.0007378570130072
 30
0.0
  0
VERTEX
  5
15F9
  8
0
 10
107.769608112473307
 20
143.0006857163340044
 30
0.0
  0
VERTEX
  5
15FA
  8
0
 10
107.7598391844878023
 20
143.0006289599527918
 30
0.0
  0
VERTEX
  5
15FB
  8
0
 10
107.7499514159627978
 20
143.0005692864997116
 30
0.0
  0
VERTEX
  5
15FC
  8
0
 10
107.7399477637397069
 20
143.0005083946045943
 30
0.0
  0
VERTEX
  5
15FD
  8
0
 10
107.7298311846598011
 20
143.0004479828976116
 30
0.0
  0
VERTEX
  5
15FE
  8
0
 10
107.7196046355642949
 20
143.0003897500087078
 30
0.0
  0
VERTEX
  5
15FF
  8
0
 10
107.7092706766083978
 20
143.0003353059981919
 30
0.0
  0
VERTEX
  5
1600
  8
0
 10
107.6988274283347948
 20
143.0002852696759987
 30
0.0
  0
VERTEX
  5
1601
  8
0
 10
107.6882702265715039
 20
143.0002396380972129
 30
0.0
  0
VERTEX
  5
1602
  8
0
 10
107.6775943641810045
 20
143.000198398724109
 30
0.0
  0
VERTEX
  5
1603
  8
0
 10
107.6667951340258043
 20
143.0001615390185918
 30
0.0
  0
VERTEX
  5
1604
  8
0
 10
107.6558678289685957
 20
143.0001290464429928
 30
0.0
  0
VERTEX
  5
1605
  8
0
 10
107.6448114048571938
 20
143.0001008111125032
 30
0.0
  0
VERTEX
  5
1606
  8
0
 10
107.6336427930528004
 20
143.0000762454289998
 30
0.0
  0
VERTEX
  5
1607
  8
0
 10
107.6223844299576058
 20
143.0000546154932124
 30
0.0
  0
VERTEX
  5
1608
  8
0
 10
107.6110587533945022
 20
143.0000351873682121
 30
0.0
  0
VERTEX
  5
1609
  8
0
 10
107.5996882011859981
 20
143.0000172271170982
 30
0.0
  0
VERTEX
  5
160A
  8
0
 10
107.5882952111548008
 20
143.0000000008029133
 30
0.0
  0
SEQEND
  5
160B
  8
0
  0
POLYLINE
  5
1505
  8
0
 66
     1
 10
0.0
 20
0.0
 30
0.0
  0
VERTEX
  5
160C
  8
0
 10
107.5882952111602009
 20
157.0000000008523955
 30
0.0
  0
VERTEX
  5
160D
  8
0
 10
107.6034495769879982
 20
156.9999734654415988
 30
0.0
  0
VERTEX
  5
160E
  8
0
 10
107.6185686974413045
 20
156.999947892270086
 30
0.0
  0
VERTEX
  5
160F
  8
0
 10
107.6336173271457
 20
156.9999242435773112
 30
0.0
  0
VERTEX
  5
1610
  8
0
 10
107.6485602207265941
 20
156.999903481602388
 30
0.0
  0
VERTEX
  5
1611
  8
0
 10
107.6633621328095956
 20
156.9998865685849125
 30
0.0
  0
VERTEX
  5
1612
  8
0
 10
107.677987818020199
 20
156.9998744667639983
 30
0.0
  0
VERTEX
  5
1613
  8
0
 10
107.6924020309838994
 20
156.9998681383790995
 30
0.0
  0
VERTEX
  5
1614
  8
0
 10
107.7065734132312969
 20
156.9998683202105951
 30
0.0
  0
VERTEX
  5
1615
  8
0
 10
107.7204968021862044
 20
156.9998742295533134
 30
0.0
  0
VERTEX
  5
1616
  8
0
 10
107.7341778543516995
 20
156.9998844561442013
 30
0.0
  0
VERTEX
  5
1617
  8
0
 10
107.747622260351605
 20
156.9998975877410032
 30
0.0
  0
VERTEX
  5
1618
  8
0
 10
107.7608357108090047
 20
156.9999122121018047
 30
0.0
  0
VERTEX
  5
1619
  8
0
 10
107.7738238963474942
 20
156.999926916984208
 30
0.0
  0
VERTEX
  5
161A
  8
0
 10
107.7865925075905977
 20
156.9999402901460996
 30
0.0
  0
VERTEX
  5
161B
  8
0
 10
107.7991464446897965
 20
156.9999510708329922
 30
0.0
  0
VERTEX
  5
161C
  8
0
 10
107.8114858749188016
 20
156.99995890530829
 30
0.0
  0
VERTEX
  5
161D
  8
0
 10
107.8236092118785052
 20
156.9999637759129882
 30
0.0
  0
VERTEX
  5
161E
  8
0
 10
107.8355148663089977
 20
156.9999656655359956
 30
0.0
  0
VERTEX
  5
161F
  8
0
 10
107.8472012489503982
 20
156.9999645570663063
 30
0.0
  0
VERTEX
  5
1620
  8
0
 10
107.8586667705428965
 20
156.9999604333931131
 30
0.0
  0
VERTEX
  5
1621
  8
0
 10
107.8699098418266971
 20
156.9999532774052966
 30
0.0
  0
VERTEX
  5
1622
  8
0
 10
107.8809263899391055
 20
156.9999432891615072
 30
0.0
  0
VERTEX
  5
1623
  8
0
 10
107.8917023206037982
 20
156.999931545005893
 30
0.0
  0
VERTEX
  5
1624
  8
0
 10
107.9022210122498961
 20
156.999919342272392
 30
0.0
  0
VERTEX
  5
1625
  8
0
 10
107.9124658433065065
 20
156.9999079782953118
 30
0.0
  0
VERTEX
  5
1626
  8
0
 10
107.9224201922025941
 20
156.9998987504085903
 30
0.0
  0
VERTEX
  5
1627
  8
0
 10
107.9320674373673938
 20
156.9998929559463932
 30
0.0
  0
VERTEX
  5
1628
  8
0
 10
107.9413909609618969
 20
156.9998918921193081
 30
0.0
  0
VERTEX
  5
1629
  8
0
 10
107.9503873278873982
 20
156.9998964199990894
 30
0.0
  0
VERTEX
  5
162A
  8
0
 10
107.959095858352299
 20
156.9999059861372928
 30
0.0
  0
VERTEX
  5
162B
  8
0
 10
107.9675645250999025
 20
156.9999197508240059
 30
0.0
  0
VERTEX
  5
162C
  8
0
 10
107.9758413008735971
 20
156.9999368743496007
 30
0.0
  0
VERTEX
  5
162D
  8
0
 10
107.983974158417098
 20
156.9999565170045059
 30
0.0
  0
VERTEX
  5
162E
  8
0
 10
107.9920110704735947
 20
156.9999778390786958
 30
0.0
  0
VERTEX
  5
162F
  8
0
 10
108.0000000097868025
 20
157.0000000008627126
 30
0.0
  0
SEQEND
  5
1630
  8
0
  0
POLYLINE
  5
1506
  8
0
 66
     1
 10
0.0
 20
0.0
 30
0.0
  0
VERTEX
  5
1631
  8
0
 10
100.5097447284116043
 20
143.0000000008595862
 30
0.0
  0
VERTEX
  5
1632
  8
0
 10
100.4937431302656989
 20
143.0000145362313901
 30
0.0
  0
VERTEX
  5
1633
  8
0
 10
100.4777722101305955
 20
143.0000289036613879
 30
0.0
  0
VERTEX
  5
1634
  8
0
 10
100.4618626460167974
 20
143.0000429352078868
 30
0.0
  0
VERTEX
  5
1635
  8
0
 10
100.4460451159353056
 20
143.0000564629291091
 30
0.0
  0
VERTEX
  5
1636
  8
0
 10
100.4303502978965952
 20
143.0000693188833907
 30
0.0
  0
VERTEX
  5
1637
  8
0
 10
100.4148088699115959
 20
143.0000813351290105
 30
0.0
  0
VERTEX
  5
1638
  8
0
 10
100.3994515099909961
 20
143.0000923437241056
 30
0.0
  0
VERTEX
  5
1639
  8
0
 10
100.3843044174823973
 20
143.000102092622086
 30
0.0
  0
VERTEX
  5
163A
  8
0
 10
100.3693700863390035
 20
143.0001098846130105
 30
0.0
  0
VERTEX
  5
163B
  8
0
 10
100.3546431968735959
 20
143.0001148757542921
 30
0.0
  0
VERTEX
  5
163C
  8
0
 10
100.3401184245885958
 20
143.000116222013304
 30
0.0
  0
VERTEX
  5
163D
  8
0
 10
100.3257904449858984
 20
143.0001130793571065
 30
0.0
  0
VERTEX
  5
163E
  8
0
 10
100.3116539335676975
 20
143.0001046037531012
 30
0.0
  0
VERTEX
  5
163F
  8
0
 10
100.2977035658389013
 20
143.0000899511697128
 30
0.0
  0
VERTEX
  5
1640
  8
0
 10
100.2839355573191966
 20
143.0000690667089032
 30
0.0
  0
VERTEX
  5
1641
  8
0
 10
100.2703520670313964
 20
143.0000449410383965
 30
0.0
  0
VERTEX
  5
1642
  8
0
 10
100.2569566876243954
 20
143.0000212994434889
 30
0.0
  0
VERTEX
  5
1643
  8
0
 10
100.2437530117473017
 20
143.0000018672095052
 30
0.0
  0
VERTEX
  5
1644
  8
0
 10
100.2307446320490953
 20
142.9999903696219121
 30
0.0
  0
VERTEX
  5
1645
  8
0
 10
100.2179351411788986
 20
142.9999905319658922
 30
0.0
  0
VERTEX
  5
1646
  8
0
 10
100.2053281245018042
 20
143.0000060578348098
 30
0.0
  0
VERTEX
  5
1647
  8
0
 10
100.1929262757487038
 20
143.0000379953557115
 30
0.0
  0
VERTEX
  5
1648
  8
0
 10
100.1807305513919033
 20
143.0000822187552103
 30
0.0
  0
VERTEX
  5
1649
  8
0
 10
100.1687417075245037
 20
143.0001340054890022
 30
0.0
  0
VERTEX
  5
164A
  8
0
 10
100.1569605002391938
 20
143.0001886330130958
 30
0.0
  0
VERTEX
  5
164B
  8
0
 10
100.1453876856291032
 20
143.0002413787834996
 30
0.0
  0
VERTEX
  5
164C
  8
0
 10
100.1340240197869065
 20
143.0002875202559949
 30
0.0
  0
VERTEX
  5
164D
  8
0
 10
100.1228706971538998
 20
143.0003225131100919
 30
0.0
  0
VERTEX
  5
164E
  8
0
 10
100.1119363426342943
 20
143.000344834102691
 30
0.0
  0
VERTEX
  5
164F
  8
0
 10
100.1012357824071017
 20
143.0003554813050073
 30
0.0
  0
VERTEX
  5
1650
  8
0
 10
100.090784032640002
 20
143.0003555300334028
 30
0.0
  0
VERTEX
  5
1651
  8
0
 10
100.0805961095003056
 20
143.0003460556042967
 30
0.0
  0
VERTEX
  5
1652
  8
0
 10
100.0706870291550956
 20
143.0003281333341931
 30
0.0
  0
VERTEX
  5
1653
  8
0
 10
100.0610718077719952
 20
143.0003028385393975
 30
0.0
  0
VERTEX
  5
1654
  8
0
 10
100.0517588899332964
 20
143.0002712270114955
 30
0.0
  0
VERTEX
  5
1655
  8
0
 10
100.0427175153214989
 20
143.0002342380597895
 30
0.0
  0
VERTEX
  5
1656
  8
0
 10
100.0339024459551069
 20
143.0001927679786036
 30
0.0
  0
VERTEX
  5
1657
  8
0
 10
100.0252684207851956
 20
143.0001477129937939
 30
0.0
  0
VERTEX
  5
1658
  8
0
 10
100.0167701787627976
 20
143.0000999693313872
 30
0.0
  0
VERTEX
  5
1659
  8
0
 10
100.0083624588384055
 20
143.0000504332172113
 30
0.0
  0
VERTEX
  5
165A
  8
0
 10
99.9999999999632792
 20
143.000000000877094
 30
0.0
  0
SEQEND
  5
165B
  8
0
  0
POLYLINE
  5
1507
  8
0
 66
     1
 10
0.0
 20
0.0
 30
0.0
  0
VERTEX
  5
165C
  8
0
 10
116.9448376402816052
 20
157.3106245739043061
 30
0.0
  0
VERTEX
  5
165D
  8
0
 10
116.9352316060971049
 20
157.3103405931641987
 30
0.0
  0
VERTEX
  5
165E
  8
0
 10
116.9256271880018971
 20
157.3100566385400896
 30
0.0
  0
VERTEX
  5
165F
  8
0
 10
116.916026002085701
 20
157.3097727361480054
 30
0.0
  0
VERTEX
  5
1660
  8
0
 10
116.9064296644378942
 20
157.3094889121040865
 30
0.0
  0
VERTEX
  5
1661
  8
0
 10
116.8968397911477979
 20
157.309205192524189
 30
0.0
  0
VERTEX
  5
1662
  8
0
 10
116.8872579983051025
 20
157.3089216035245101
 30
0.0
  0
VERTEX
  5
1663
  8
0
 10
116.8776859019991008
 20
157.3086381712209914
 30
0.0
  0
VERTEX
  5
1664
  8
0
 10
116.8681251183191989
 20
157.3083549217296877
 30
0.0
  0
VERTEX
  5
1665
  8
0
 10
116.8585772633550022
 20
157.3080718811667111
 30
0.0
  0
VERTEX
  5
1666
  8
0
 10
116.8490439531960021
 20
157.3077890756478041
 30
0.0
  0
VERTEX
  5
1667
  8
0
 10
116.8395268039315056
 20
157.3075065312893059
 30
0.0
  0
VERTEX
  5
1668
  8
0
 10
116.8300274316510041
 20
157.3072242742071012
 30
0.0
  0
VERTEX
  5
1669
  8
0
 10
116.820547452443904
 20
157.3069423305173018
 30
0.0
  0
VERTEX
  5
166A
  8
0
 10
116.8110884823997964
 20
157.306660726335906
 30
0.0
  0
VERTEX
  5
166B
  8
0
 10
116.8016521376081016
 20
157.3063794877787984
 30
0.0
  0
VERTEX
  5
166C
  8
0
 10
116.7922400341581977
 20
157.3060986409622046
 30
0.0
  0
VERTEX
  5
166D
  8
0
 10
116.782853788139704
 20
157.3058182120020945
 30
0.0
  0
VERTEX
  5
166E
  8
0
 10
116.7734950156417995
 20
157.3055382270144946
 30
0.0
  0
VERTEX
  5
166F
  8
0
 10
116.7641653327542031
 20
157.3052587121154033
 30
0.0
  0
VERTEX
  5
1670
  8
0
 10
116.7548663555661932
 20
157.3049796934209041
 30
0.0
  0
VERTEX
  5
1671
  8
0
 10
116.745599700167304
 20
157.30470119704691
 30
0.0
  0
VERTEX
  5
1672
  8
0
 10
116.7363669826470982
 20
157.3044232491095897
 30
0.0
  0
VERTEX
  5
1673
  8
0
 10
116.7271698190947973
 20
157.3041458757249984
 30
0.0
  0
VERTEX
  5
1674
  8
0
 10
116.7180098256000065
 20
157.3038691030089922
 30
0.0
  0
VERTEX
  5
1675
  8
0
 10
116.7088886182523026
 20
157.3035929570777114
 30
0.0
  0
VERTEX
  5
1676
  8
0
 10
116.6998078131407937
 20
157.3033174640470975
 30
0.0
  0
VERTEX
  5
1677
  8
0
 10
116.6907690263551984
 20
157.3030426500334045
 30
0.0
  0
VERTEX
  5
1678
  8
0
 10
116.6817764804822986
 20
157.3027686367572073
 30
0.0
  0
VERTEX
  5
1679
  8
0
 10
116.6728501775939009
 20
157.3024961247216993
 30
0.0
  0
VERTEX
  5
167A
  8
0
 10
116.6640160270294047
 20
157.302226031105107
 30
0.0
  0
VERTEX
  5
167B
  8
0
 10
116.6552999484673023
 20
157.3019592734646892
 30
0.0
  0
VERTEX
  5
167C
  8
0
 10
116.6467278615865979
 20
157.3016967693581023
 30
0.0
  0
VERTEX
  5
167D
  8
0
 10
116.6383256860656985
 20
157.3014394363426902
 30
0.0
  0
VERTEX
  5
167E
  8
0
 10
116.6301206981266034
 20
157.3011882389839968
 30
0.0
  0
VERTEX
  5
167F
  8
0
 10
116.6221768093276978
 20
157.3009454113696961
 30
0.0
  0
VERTEX
  5
1680
  8
0
 10
116.6145978673161068
 20
157.3007145714900901
 30
0.0
  0
VERTEX
  5
1681
  8
0
 10
116.6075050385255025
 20
157.3004997708171118
 30
0.0
  0
VERTEX
  5
1682
  8
0
 10
116.6011314425353049
 20
157.3003077208500997
 30
0.0
  0
VERTEX
  5
1683
  8
0
 10
116.595781092386602
 20
157.3001469610597098
 30
0.0
  0
VERTEX
  5
1684
  8
0
 10
116.5921488899755047
 20
157.3000379692080912
 30
0.0
  0
VERTEX
  5
1685
  8
0
 10
116.5909018018821968
 20
157.3000005855469112
 30
0.0
  0
SEQEND
  5
1686
  8
0
  0
POLYLINE
  5
1508
  8
0
 66
     1
 10
0.0
 20
0.0
 30
0.0
  0
VERTEX
  5
1687
  8
0
 10
107.9999999999030962
 20
154.9594519527952912
 30
0.0
  0
VERTEX
  5
1688
  8
0
 10
107.9941349207444006
 20
155.0032612141012009
 30
0.0
  0
VERTEX
  5
1689
  8
0
 10
107.9882450598043988
 20
155.0470671658432025
 30
0.0
  0
VERTEX
  5
168A
  8
0
 10
107.9823056353019979
 20
155.0908664984575864
 30
0.0
  0
VERTEX
  5
168B
  8
0
 10
107.9762918654559058
 20
155.1346559023805867
 30
0.0
  0
VERTEX
  5
168C
  8
0
 10
107.9701789684850013
 20
155.1784320680482097
 30
0.0
  0
VERTEX
  5
168D
  8
0
 10
107.9639421626080065
 20
155.2221916858966893
 30
0.0
  0
VERTEX
  5
168E
  8
0
 10
107.9575566660437005
 20
155.2659314463622877
 30
0.0
  0
VERTEX
  5
168F
  8
0
 10
107.9509983243837041
 20
155.3096481204852921
 30
0.0
  0
VERTEX
  5
1690
  8
0
 10
107.9442585350574006
 20
155.3533404773920097
 30
0.0
  0
VERTEX
  5
1691
  8
0
 10
107.9373448976048024
 20
155.3970093678402975
 30
0.0
  0
VERTEX
  5
1692
  8
0
 10
107.9302657690625011
 20
155.4406557399109943
 30
0.0
  0
VERTEX
  5
1693
  8
0
 10
107.9230295064666052
 20
155.4842805416843987
 30
0.0
  0
VERTEX
  5
1694
  8
0
 10
107.9156444668536068
 20
155.5278847212412927
 30
0.0
  0
VERTEX
  5
1695
  8
0
 10
107.9081190072597991
 20
155.5714692266620034
 30
0.0
  0
VERTEX
  5
1696
  8
0
 10
107.9004613630627034
 20
155.6150350025837952
 30
0.0
  0
VERTEX
  5
1697
  8
0
 10
107.8926754492277951
 20
155.6585828713562876
 30
0.0
  0
VERTEX
  5
1698
  8
0
 10
107.8847597941654044
 20
155.7021135028653873
 30
0.0
  0
VERTEX
  5
1699
  8
0
 10
107.8767125881418991
 20
155.7456275574259905
 30
0.0
  0
VERTEX
  5
169A
  8
0
 10
107.8685320214233059
 20
155.7891256953527943
 30
0.0
  0
VERTEX
  5
169B
  8
0
 10
107.860216284275694
 20
155.8326085769606948
 30
0.0
  0
VERTEX
  5
169C
  8
0
 10
107.8517635669654027
 20
155.8760768625645881
 30
0.0
  0
VERTEX
  5
169D
  8
0
 10
107.8431721421941063
 20
155.9195311857995137
 30
0.0
  0
VERTEX
  5
169E
  8
0
 10
107.8344420845591003
 20
155.9629715971323094
 30
0.0
  0
VERTEX
  5
169F
  8
0
 10
107.8255752197651987
 20
156.0063975802979996
 30
0.0
  0
VERTEX
  5
16A0
  8
0
 10
107.8165734457925993
 20
156.0498085956405987
 30
0.0
  0
VERTEX
  5
16A1
  8
0
 10
107.8074386606215
 20
156.0932041035040072
 30
0.0
  0
VERTEX
  5
16A2
  8
0
 10
107.7981727622319994
 20
156.1365835642320121
 30
0.0
  0
VERTEX
  5
16A3
  8
0
 10
107.7887776486041957
 20
156.1799464381685993
 30
0.0
  0
VERTEX
  5
16A4
  8
0
 10
107.779255261446707
 20
156.2232921852489937
 30
0.0
  0
VERTEX
  5
16A5
  8
0
 10
107.7696081291631032
 20
156.2666202599278051
 30
0.0
  0
VERTEX
  5
16A6
  8
0
 10
107.7598391995358043
 20
156.309930112741597
 30
0.0
  0
VERTEX
  5
16A7
  8
0
 10
107.7499514294254936
 20
156.3532211941420087
 30
0.0
  0
VERTEX
  5
16A8
  8
0
 10
107.7399477756927979
 20
156.3964929545809071
 30
0.0
  0
VERTEX
  5
16A9
  8
0
 10
107.729831195198301
 20
156.439744844509903
 30
0.0
  0
VERTEX
  5
16AA
  8
0
 10
107.7196046448029989
 20
156.4829763143810055
 30
0.0
  0
VERTEX
  5
16AB
  8
0
 10
107.7092706846408987
 20
156.526186782357513
 30
0.0
  0
VERTEX
  5
16AC
  8
0
 10
107.6988274351472938
 20
156.5693753052696877
 30
0.0
  0
VERTEX
  5
16AD
  8
0
 10
107.6882702321586009
 20
156.6125407133183103
 30
0.0
  0
VERTEX
  5
16AE
  8
0
 10
107.6775943685551056
 20
156.6556818332076091
 30
0.0
  0
VERTEX
  5
16AF
  8
0
 10
107.6667951372169938
 20
156.6987974916422957
 30
0.0
  0
VERTEX
  5
16B0
  8
0
 10
107.6558678310243948
 20
156.741886515326712
 30
0.0
  0
VERTEX
  5
16B1
  8
0
 10
107.6448114059715948
 20
156.7849485237105114
 30
0.0
  0
VERTEX
  5
16B2
  8
0
 10
107.6336427935523972
 20
156.8279870263731084
 30
0.0
  0
VERTEX
  5
16B3
  8
0
 10
107.6223844301045034
 20
156.87100672421289
 30
0.0
  0
VERTEX
  5
16B4
  8
0
 10
107.6110587533849952
 20
156.9140123184355957
 30
0.0
  0
VERTEX
  5
16B5
  8
0
 10
107.5996882011511957
 20
156.9570085102467942
 30
0.0
  0
VERTEX
  5
16B6
  8
0
 10
107.5882952111602009
 20
157.0000000008523955
 30
0.0
  0
SEQEND
  5
16B7
  8
0
  0
POLYLINE
  5
1509
  8
0
 66
     1
 10
0.0
 20
0.0
 30
0.0
  0
VERTEX
  5
16B8
  8
0
 10
100.0000000001820979
 20
152.0405480468681105
 30
0.0
  0
VERTEX
  5
16B9
  8
0
 10
100.0072364656371064
 20
151.9965115622576093
 30
0.0
  0
VERTEX
  5
16BA
  8
0
 10
100.0145078026153982
 20
151.9524798043757983
 30
0.0
  0
VERTEX
  5
16BB
  8
0
 10
100.0218488826406968
 20
151.9084574999513109
 30
0.0
  0
VERTEX
  5
16BC
  8
0
 10
100.0292945772362998
 20
151.8644493757126099
 30
0.0
  0
VERTEX
  5
16BD
  8
0
 10
100.0368797579255045
 20
151.8204601583886131
 30
0.0
  0
VERTEX
  5
16BE
  8
0
 10
100.0446392962319067
 20
151.7764945747076979
 30
0.0
  0
VERTEX
  5
16BF
  8
0
 10
100.0526079629342036
 20
151.7325573418733029
 30
0.0
  0
VERTEX
  5
16C0
  8
0
 10
100.0608066322265017
 20
151.688651863175096
 30
0.0
  0
VERTEX
  5
16C1
  8
0
 10
100.0692282187579991
 20
151.6447788983450948
 30
0.0
  0
VERTEX
  5
16C2
  8
0
 10
100.0778622851094042
 20
151.6009388901790089
 30
0.0
  0
VERTEX
  5
16C3
  8
0
 10
100.0866983938619938
 20
151.5571322814730024
 30
0.0
  0
VERTEX
  5
16C4
  8
0
 10
100.0957261075968034
 20
151.5133595150228984
 30
0.0
  0
VERTEX
  5
16C5
  8
0
 10
100.1049349888948967
 20
151.4696210336246907
 30
0.0
  0
VERTEX
  5
16C6
  8
0
 10
100.1143149968416992
 20
151.4259171931890933
 30
0.0
  0
VERTEX
  5
16C7
  8
0
 10
100.1238613619131002
 20
151.3822471945179871
 30
0.0
  0
VERTEX
  5
16C8
  8
0
 10
100.1335730587517929
 20
151.3386094179620045
 30
0.0
  0
VERTEX
  5
16C9
  8
0
 10
100.1434491418103931
 20
151.2950022263827066
 30
0.0
  0
VERTEX
  5
16CA
  8
0
 10
100.1534886655419001
 20
151.2514239826419953
 30
0.0
  0
VERTEX
  5
16CB
  8
0
 10
100.163690684398901
 20
151.2078730496016874
 30
0.0
  0
VERTEX
  5
16CC
  8
0
 10
100.1740542527971058
 20
151.1643477903018038
 30
0.0
  0
VERTEX
  5
16CD
  8
0
 10
100.1845783268556005
 20
151.1208470385884084
 30
0.0
  0
VERTEX
  5
16CE
  8
0
 10
100.1952615510564044
 20
151.077371120946907
 30
0.0
  0
VERTEX
  5
16CF
  8
0
 10
100.2061025082661985
 20
151.0339206589773937
 30
0.0
  0
VERTEX
  5
16D0
  8
0
 10
100.2170997813518056
 20
150.9904962742803036
 30
0.0
  0
VERTEX
  5
16D1
  8
0
 10
100.2282519531801057
 20
150.9470985884559013
 30
0.0
  0
VERTEX
  5
16D2
  8
0
 10
100.2395576066178933
 20
150.9037282231045936
 30
0.0
  0
VERTEX
  5
16D3
  8
0
 10
100.251015304518603
 20
150.8603857958260903
 30
0.0
  0
VERTEX
  5
16D4
  8
0
 10
100.2626231102506011
 20
150.8170718243740112
 30
0.0
  0
VERTEX
  5
16D5
  8
0
 10
100.2743785649089006
 20
150.7737867221003967
 30
0.0
  0
VERTEX
  5
16D6
  8
0
 10
100.2862791850143935
 20
150.7305308974451066
 30
0.0
  0
VERTEX
  5
16D7
  8
0
 10
100.2983224870883987
 20
150.6873047588481995
 30
0.0
  0
VERTEX
  5
16D8
  8
0
 10
100.3105059876517942
 20
150.6441087147495068
 30
0.0
  0
VERTEX
  5
16D9
  8
0
 10
100.3228272032257991
 20
150.6009431735890018
 30
0.0
  0
VERTEX
  5
16DA
  8
0
 10
100.3352842145753954
 20
150.5578086064525962
 30
0.0
  0
VERTEX
  5
16DB
  8
0
 10
100.3478792971987019
 20
150.5147059501549904
 30
0.0
  0
VERTEX
  5
16DC
  8
0
 10
100.3606166163639983
 20
150.4716363513257988
 30
0.0
  0
VERTEX
  5
16DD
  8
0
 10
100.3735003464625066
 20
150.4286009576078982
 30
0.0
  0
VERTEX
  5
16DE
  8
0
 10
100.3865346618855057
 20
150.3856009166437957
 30
0.0
  0
VERTEX
  5
16DF
  8
0
 10
100.3997237370246012
 20
150.3426373760763113
 30
0.0
  0
VERTEX
  5
16E0
  8
0
 10
100.4130717462709015
 20
150.299711483548009
 30
0.0
  0
VERTEX
  5
16E1
  8
0
 10
100.4265784805590016
 20
150.2568233193981087
 30
0.0
  0
VERTEX
  5
16E2
  8
0
 10
100.4402253802524001
 20
150.2139684958866042
 30
0.0
  0
VERTEX
  5
16E3
  8
0
 10
100.4539890844634016
 20
150.1711414562437028
 30
0.0
  0
VERTEX
  5
16E4
  8
0
 10
100.4678462322885935
 20
150.1283366436956896
 30
0.0
  0
VERTEX
  5
16E5
  8
0
 10
100.4817734628244068
 20
150.0855485014689066
 30
0.0
  0
VERTEX
  5
16E6
  8
0
 10
100.4957474151673011
 20
150.0427714727896102
 30
0.0
  0
VERTEX
  5
16E7
  8
0
 10
100.509744728413807
 20
150.0000000008840004
 30
0.0
  0
SEQEND
  5
16E8
  8
0
  0
POLYLINE
  5
150A
  8
0
 66
     1
 10
0.0
 20
0.0
 30
0.0
  0
VERTEX
  5
16E9
  8
0
 10
100.5097447284133949
 20
157.000000000887411
 30
0.0
  0
VERTEX
  5
16EA
  8
0
 10
100.4937431302888058
 20
156.9509453326332959
 30
0.0
  0
VERTEX
  5
16EB
  8
0
 10
100.4777722101738959
 20
156.9018835370293914
 30
0.0
  0
VERTEX
  5
16EC
  8
0
 10
100.4618626460788988
 20
156.8528074867257942
 30
0.0
  0
VERTEX
  5
16ED
  8
0
 10
100.4460451160133942
 20
156.8037100543726865
 30
0.0
  0
VERTEX
  5
16EE
  8
0
 10
100.4303502979874025
 20
156.7545841126203925
 30
0.0
  0
VERTEX
  5
16EF
  8
0
 10
100.4148088700107024
 20
156.7054225341188101
 30
0.0
  0
VERTEX
  5
16F0
  8
0
 10
100.3994515100933
 20
156.6562181915182066
 30
0.0
  0
VERTEX
  5
16F1
  8
0
 10
100.3843044175850991
 20
156.6069651390538979
 30
0.0
  0
VERTEX
  5
16F2
  8
0
 10
100.369370086443098
 20
156.5576636850501018
 30
0.0
  0
VERTEX
  5
16F3
  8
0
 10
100.3546431969796942
 20
156.5083161992706096
 30
0.0
  0
VERTEX
  5
16F4
  8
0
 10
100.3401184246967972
 20
156.4589250527480999
 30
0.0
  0
VERTEX
  5
16F5
  8
0
 10
100.3257904450960041
 20
156.4094926165155073
 30
0.0
  0
VERTEX
  5
16F6
  8
0
 10
100.311653933678997
 20
156.3600212616055956
 30
0.0
  0
VERTEX
  5
16F7
  8
0
 10
100.2977035659502008
 20
156.3105133590499918
 30
0.0
  0
VERTEX
  5
16F8
  8
0
 10
100.2839355574276965
 20
156.2609705217230101
 30
0.0
  0
VERTEX
  5
16F9
  8
0
 10
100.2703520671326061
 20
156.2113914364792038
 30
0.0
  0
VERTEX
  5
16FA
  8
0
 10
100.2569566877130001
 20
156.1617740843907995
 30
0.0
  0
VERTEX
  5
16FB
  8
0
 10
100.2437530118175033
 20
156.1121164465299955
 30
0.0
  0
VERTEX
  5
16FC
  8
0
 10
100.2307446320943995
 20
156.062416503968592
 30
0.0
  0
VERTEX
  5
16FD
  8
0
 10
100.217935141192001
 20
156.0126722377787871
 30
0.0
  0
VERTEX
  5
16FE
  8
0
 10
100.205328124475102
 20
155.9628816412937908
 30
0.0
  0
VERTEX
  5
16FF
  8
0
 10
100.1929262756751058
 20
155.913044208778814
 30
0.0
  0
VERTEX
  5
1700
  8
0
 10
100.1807305512679989
 20
155.8631623589126036
 30
0.0
  0
VERTEX
  5
1701
  8
0
 10
100.1687417073500939
 20
155.8132388476828112
 30
0.0
  0
VERTEX
  5
1702
  8
0
 10
100.1569605000179024
 20
155.7632764310768891
 30
0.0
  0
VERTEX
  5
1703
  8
0
 10
100.1453876853676945
 20
155.7132778650824889
 30
0.0
  0
VERTEX
  5
1704
  8
0
 10
100.1340240194958966
 20
155.663245905687404
 30
0.0
  0
VERTEX
  5
1705
  8
0
 10
100.1228706968473006
 20
155.6131831777634034
 30
0.0
  0
VERTEX
  5
1706
  8
0
 10
100.1119363423272972
 20
155.5630900836331989
 30
0.0
  0
VERTEX
  5
1707
  8
0
 10
100.1012357821128944
 20
155.5129651707374876
 30
0.0
  0
VERTEX
  5
1708
  8
0
 10
100.0907840323691005
 20
155.46280692968881
 30
0.0
  0
VERTEX
  5
1709
  8
0
 10
100.0805961092608953
 20
155.4126138510997066
 30
0.0
  0
VERTEX
  5
170A
  8
0
 10
100.070687028953202
 20
155.3623844255828033
 30
0.0
  0
VERTEX
  5
170B
  8
0
 10
100.0610718076110004
 20
155.3121171437508963
 30
0.0
  0
VERTEX
  5
170C
  8
0
 10
100.0517588898110972
 20
155.2618112888202972
 30
0.0
  0
VERTEX
  5
170D
  8
0
 10
100.0427175152308052
 20
155.2114708725374896
 30
0.0
  0
VERTEX
  5
170E
  8
0
 10
100.0339024458898933
 20
155.1611016528092932
 30
0.0
  0
VERTEX
  5
170F
  8
0
 10
100.025268420740602
 20
155.1107093903250131
 30
0.0
  0
VERTEX
  5
1710
  8
0
 10
100.0167701787350012
 20
155.0602998457733861
 30
0.0
  0
VERTEX
  5
1711
  8
0
 10
100.0083624588251041
 20
155.0098787798436888
 30
0.0
  0
VERTEX
  5
1712
  8
0
 10
99.9999999999631655
 20
154.9594519532249137
 30
0.0
  0
SEQEND
  5
1713
  8
0
  0
POLYLINE
  5
150B
  8
0
 66
     1
 10
0.0
 20
0.0
 30
0.0
  0
VERTEX
  5
1714
  8
0
 10
107.5882952111548008
 20
143.0000000008029133
 30
0.0
  0
VERTEX
  5
1715
  8
0
 10
107.6034495769713004
 20
143.0577619454456908
 30
0.0
  0
VERTEX
  5
1716
  8
0
 10
107.6185686974135933
 20
143.1155300321109962
 30
0.0
  0
VERTEX
  5
1717
  8
0
 10
107.6336173271076007
 20
143.1733104028209027
 30
0.0
  0
VERTEX
  5
1718
  8
0
 10
107.648560220679002
 20
143.231109199597995
 30
0.0
  0
VERTEX
  5
1719
  8
0
 10
107.6633621327536048
 20
143.2889325644646874
 30
0.0
  0
VERTEX
  5
171A
  8
0
 10
107.6779878179573018
 20
143.3467866394433088
 30
0.0
  0
VERTEX
  5
171B
  8
0
 10
107.692402030915801
 20
143.4046775665561029
 30
0.0
  0
VERTEX
  5
171C
  8
0
 10
107.7065734131599015
 20
143.4626107877024879
 30
0.0
  0
VERTEX
  5
171D
  8
0
 10
107.7204968021128053
 20
143.5205870262838062
 30
0.0
  0
VERTEX
  5
171E
  8
0
 10
107.7341778542779025
 20
143.5786050569300869
 30
0.0
  0
VERTEX
  5
171F
  8
0
 10
107.7476222602786038
 20
143.6366636481259036
 30
0.0
  0
VERTEX
  5
1720
  8
0
 10
107.7608357107383057
 20
143.6947615683554886
 30
0.0
  0
VERTEX
  5
1721
  8
0
 10
107.7738238962804047
 20
143.7528975861029892
 30
0.0
  0
VERTEX
  5
1722
  8
0
 10
107.7865925075284963
 20
143.8110704698528934
 30
0.0
  0
VERTEX
  5
1723
  8
0
 10
107.7991464446336067
 20
143.8692791102552064
 30
0.0
  0
VERTEX
  5
1724
  8
0
 10
107.8114858748682963
 20
143.9275231294151922
 30
0.0
  0
VERTEX
  5
1725
  8
0
 10
107.8236092118324052
 20
143.9858024204644948
 30
0.0
  0
VERTEX
  5
1726
  8
0
 10
107.8355148662650009
 20
144.0441168769766875
 30
0.0
  0
VERTEX
  5
1727
  8
0
 10
107.847201248905094
 20
144.1024663925252867
 30
0.0
  0
VERTEX
  5
1728
  8
0
 10
107.8586667704919932
 20
144.1608508606840928
 30
0.0
  0
VERTEX
  5
1729
  8
0
 10
107.8699098417645956
 20
144.2192701750267076
 30
0.0
  0
VERTEX
  5
172A
  8
0
 10
107.8809263898581037
 20
144.2777242705330139
 30
0.0
  0
VERTEX
  5
172B
  8
0
 10
107.8917023204964067
 20
144.3362132492590888
 30
0.0
  0
VERTEX
  5
172C
  8
0
 10
107.9022210121114966
 20
144.3947372553957962
 30
0.0
  0
VERTEX
  5
172D
  8
0
 10
107.9124658431358057
 20
144.4532964331338007
 30
0.0
  0
VERTEX
  5
172E
  8
0
 10
107.9224201920013968
 20
144.5118909266639093
 30
0.0
  0
VERTEX
  5
172F
  8
0
 10
107.9320674371402049
 20
144.5705208801770141
 30
0.0
  0
VERTEX
  5
1730
  8
0
 10
107.9413909607166033
 20
144.6291864375633054
 30
0.0
  0
VERTEX
  5
1731
  8
0
 10
107.9503873276393051
 20
144.6878866816892923
 30
0.0
  0
VERTEX
  5
1732
  8
0
 10
107.959095858118701
 20
144.7466172542260097
 30
0.0
  0
VERTEX
  5
1733
  8
0
 10
107.9675645248952947
 20
144.805373100438203
 30
0.0
  0
VERTEX
  5
1734
  8
0
 10
107.9758413007097033
 20
144.8641491655907032
 30
0.0
  0
VERTEX
  5
1735
  8
0
 10
107.9839741583024022
 20
144.922940394948597
 30
0.0
  0
VERTEX
  5
1736
  8
0
 10
107.9920110704139944
 20
144.9817417337766017
 30
0.0
  0
VERTEX
  5
1737
  8
0
 10
108.0000000097849977
 20
145.0405481273398038
 30
0.0
  0
SEQEND
  5
1738
  8
0
  0
POLYLINE
  5
150C
  8
0
 66
     1
 10
0.0
 20
0.0
 30
0.0
  0
VERTEX
  5
1739
  8
0
 10
100.0000000001820979
 20
145.0405480469351005
 30
0.0
  0
VERTEX
  5
173A
  8
0
 10
100.007236465637007
 20
144.9965485167855093
 30
0.0
  0
VERTEX
  5
173B
  8
0
 10
100.0145078026153982
 20
144.952553613743504
 30
0.0
  0
VERTEX
  5
173C
  8
0
 10
100.0218488826405974
 20
144.9085679649168128
 30
0.0
  0
VERTEX
  5
173D
  8
0
 10
100.0292945772361008
 20
144.8645961974129932
 30
0.0
  0
VERTEX
  5
173E
  8
0
 10
100.0368797579253055
 20
144.820642938339688
 30
0.0
  0
VERTEX
  5
173F
  8
0
 10
100.0446392962316935
 20
144.776712814804398
 30
0.0
  0
VERTEX
  5
1740
  8
0
 10
100.0526079629340046
 20
144.7328104398141022
 30
0.0
  0
VERTEX
  5
1741
  8
0
 10
100.0608066322264023
 20
144.6889384813239872
 30
0.0
  0
VERTEX
  5
1742
  8
0
 10
100.0692282187577007
 20
144.6450956938994068
 30
0.0
  0
VERTEX
  5
1743
  8
0
 10
100.0778622851091058
 20
144.6012803629296002
 30
0.0
  0
VERTEX
  5
1744
  8
0
 10
100.0866983938616954
 20
144.5574907738036927
 30
0.0
  0
VERTEX
  5
1745
  8
0
 10
100.0957261075964055
 20
144.513725211911094
 30
0.0
  0
VERTEX
  5
1746
  8
0
 10
100.1049349888944988
 20
144.4699819626409862
 30
0.0
  0
VERTEX
  5
1747
  8
0
 10
100.1143149968413013
 20
144.4262594679885012
 30
0.0
  0
VERTEX
  5
1748
  8
0
 10
100.1238613619126028
 20
144.3825582519675095
 30
0.0
  0
VERTEX
  5
1749
  8
0
 10
100.1335730587511961
 20
144.3388803174102009
 30
0.0
  0
VERTEX
  5
174A
  8
0
 10
100.1434491418097963
 20
144.2952276986711979
 30
0.0
  0
VERTEX
  5
174B
  8
0
 10
100.1534886655412038
 20
144.2516024301048105
 30
0.0
  0
VERTEX
  5
174C
  8
0
 10
100.1636906843982047
 20
144.2080065460656044
 30
0.0
  0
VERTEX
  5
174D
  8
0
 10
100.1740542527962958
 20
144.1644420807336928
 30
0.0
  0
VERTEX
  5
174E
  8
0
 10
100.1845783268549042
 20
144.1209106085339897
 30
0.0
  0
VERTEX
  5
174F
  8
0
 10
100.1952615510555944
 20
144.0774122462858884
 30
0.0
  0
VERTEX
  5
1750
  8
0
 10
100.2061025082653032
 20
144.0339468226204929
 30
0.0
  0
VERTEX
  5
1751
  8
0
 10
100.2170997813508961
 20
143.9905141661687935
 30
0.0
  0
VERTEX
  5
1752
  8
0
 10
100.2282519531791962
 20
143.947114105562008
 30
0.0
  0
VERTEX
  5
1753
  8
0
 10
100.239557606616799
 20
143.9037464694312121
 30
0.0
  0
VERTEX
  5
1754
  8
0
 10
100.251015304517594
 20
143.8604110743144986
 30
0.0
  0
VERTEX
  5
1755
  8
0
 10
100.2626231102496064
 20
143.817107434944802
 30
0.0
  0
VERTEX
  5
1756
  8
0
 10
100.2743785649078063
 20
143.7738347504788123
 30
0.0
  0
VERTEX
  5
1757
  8
0
 10
100.2862791850132993
 20
143.7305922052254914
 30
0.0
  0
VERTEX
  5
1758
  8
0
 10
100.2983224870871055
 20
143.6873789834936019
 30
0.0
  0
VERTEX
  5
1759
  8
0
 10
100.310505987650501
 20
143.644194269591992
 30
0.0
  0
VERTEX
  5
175A
  8
0
 10
100.3228272032245059
 20
143.6010372478293107
 30
0.0
  0
VERTEX
  5
175B
  8
0
 10
100.3352842145739032
 20
143.5579073200466098
 30
0.0
  0
VERTEX
  5
175C
  8
0
 10
100.3478792971971956
 20
143.5148055052740119
 30
0.0
  0
VERTEX
  5
175D
  8
0
 10
100.3606166163624067
 20
143.4717335511022043
 30
0.0
  0
VERTEX
  5
175E
  8
0
 10
100.3735003464608013
 20
143.4286932086388902
 30
0.0
  0
VERTEX
  5
175F
  8
0
 10
100.3865346618838998
 20
143.3856862289916876
 30
0.0
  0
VERTEX
  5
1760
  8
0
 10
100.3997237370227964
 20
143.3427143632686125
 30
0.0
  0
VERTEX
  5
1761
  8
0
 10
100.4130717462690967
 20
143.2997793625773113
 30
0.0
  0
VERTEX
  5
1762
  8
0
 10
100.4265784805572963
 20
143.2568818185372095
 30
0.0
  0
VERTEX
  5
1763
  8
0
 10
100.4402253802505953
 20
143.2140174687733918
 30
0.0
  0
VERTEX
  5
1764
  8
0
 10
100.4539890844614973
 20
143.171180780910106
 30
0.0
  0
VERTEX
  5
1765
  8
0
 10
100.4678462322867034
 20
143.1283662225671094
 30
0.0
  0
VERTEX
  5
1766
  8
0
 10
100.4817734628224031
 20
143.0855682613643864
 30
0.0
  0
VERTEX
  5
1767
  8
0
 10
100.4957474151652974
 20
143.042781364922007
 30
0.0
  0
VERTEX
  5
1768
  8
0
 10
100.5097447284116043
 20
143.0000000008595862
 30
0.0
  0
SEQEND
  5
1769
  8
0
  0
POLYLINE
  5
150D
  8
0
 66
     1
 10
0.0
 20
0.0
 30
0.0
  0
VERTEX
  5
176A
  8
0
 10
100.509744728413807
 20
150.0000000008840004
 30
0.0
  0
VERTEX
  5
176B
  8
0
 10
100.4937431302890047
 20
149.9509598679750013
 30
0.0
  0
VERTEX
  5
176C
  8
0
 10
100.4777722101740949
 20
149.9019124397746907
 30
0.0
  0
VERTEX
  5
176D
  8
0
 10
100.4618626460789983
 20
149.8528504209917003
 30
0.0
  0
VERTEX
  5
176E
  8
0
 10
100.4460451160134937
 20
149.8037665163346048
 30
0.0
  0
VERTEX
  5
176F
  8
0
 10
100.430350297987502
 20
149.7546534305120929
 30
0.0
  0
VERTEX
  5
1770
  8
0
 10
100.4148088700108019
 20
149.7055038682329098
 30
0.0
  0
VERTEX
  5
1771
  8
0
 10
100.3994515100933995
 20
149.6563105342054882
 30
0.0
  0
VERTEX
  5
1772
  8
0
 10
100.3843044175852981
 20
149.6070672306190943
 30
0.0
  0
VERTEX
  5
1773
  8
0
 10
100.3693700864431975
 20
149.5577735685884875
 30
0.0
  0
VERTEX
  5
1774
  8
0
 10
100.3546431969797936
 20
149.5084310739358102
 30
0.0
  0
VERTEX
  5
1775
  8
0
 10
100.3401184246968967
 20
149.4590412736617111
 30
0.0
  0
VERTEX
  5
1776
  8
0
 10
100.3257904450961036
 20
149.4096056947672082
 30
0.0
  0
VERTEX
  5
1777
  8
0
 10
100.3116539336791959
 20
149.360125864253007
 30
0.0
  0
VERTEX
  5
1778
  8
0
 10
100.2977035659503002
 20
149.3106033091198981
 30
0.0
  0
VERTEX
  5
1779
  8
0
 10
100.283935557427796
 20
149.2610395873446123
 30
0.0
  0
VERTEX
  5
177A
  8
0
 10
100.2703520671327055
 20
149.2114363764499956
 30
0.0
  0
VERTEX
  5
177B
  8
0
 10
100.2569566877130995
 20
149.1617953827947929
 30
0.0
  0
VERTEX
  5
177C
  8
0
 10
100.2437530118176028
 20
149.112118312738005
 30
0.0
  0
VERTEX
  5
177D
  8
0
 10
100.230744632094499
 20
149.0624068726382916
 30
0.0
  0
VERTEX
  5
177E
  8
0
 10
100.2179351411921004
 20
149.0126627688545113
 30
0.0
  0
VERTEX
  5
177F
  8
0
 10
100.2053281244752014
 20
148.9628876983140913
 30
0.0
  0
VERTEX
  5
1780
  8
0
 10
100.1929262756753047
 20
148.9130822034092887
 30
0.0
  0
VERTEX
  5
1781
  8
0
 10
100.1807305512680983
 20
148.8632445770388983
 30
0.0
  0
VERTEX
  5
1782
  8
0
 10
100.1687417073501933
 20
148.8133728526391053
 30
0.0
  0
VERTEX
  5
1783
  8
0
 10
100.1569605000180019
 20
148.7634650636464926
 30
0.0
  0
VERTEX
  5
1784
  8
0
 10
100.145387685367794
 20
148.7135192434975863
 30
0.0
  0
VERTEX
  5
1785
  8
0
 10
100.1340240194959961
 20
148.663533425628799
 30
0.0
  0
VERTEX
  5
1786
  8
0
 10
100.1228706968474
 20
148.6135056905847875
 30
0.0
  0
VERTEX
  5
1787
  8
0
 10
100.1119363423273967
 20
148.5634349174455906
 30
0.0
  0
VERTEX
  5
1788
  8
0
 10
100.1012357821129939
 20
148.513320651727895
 30
0.0
  0
VERTEX
  5
1789
  8
0
 10
100.0907840323692
 20
148.4631624593662025
 30
0.0
  0
VERTEX
  5
178A
  8
0
 10
100.0805961092609948
 20
148.4129599062949012
 30
0.0
  0
VERTEX
  5
178B
  8
0
 10
100.070687028953401
 20
148.3627125584484077
 30
0.0
  0
VERTEX
  5
178C
  8
0
 10
100.0610718076110999
 20
148.31241998176111
 30
0.0
  0
VERTEX
  5
178D
  8
0
 10
100.0517588898111967
 20
148.2620825152455097
 30
0.0
  0
VERTEX
  5
178E
  8
0
 10
100.0427175152309047
 20
148.2117051099581886
 30
0.0
  0
VERTEX
  5
178F
  8
0
 10
100.033902445890007
 20
148.1612944200998072
 30
0.0
  0
VERTEX
  5
1790
  8
0
 10
100.0252684207407015
 20
148.1108571025845038
 30
0.0
  0
VERTEX
  5
1791
  8
0
 10
100.0167701787351007
 20
148.0603998143265017
 30
0.0
  0
VERTEX
  5
1792
  8
0
 10
100.0083624588252036
 20
148.0099292122399959
 30
0.0
  0
VERTEX
  5
1793
  8
0
 10
99.9999999999632792
 20
147.9594519532392951
 30
0.0
  0
SEQEND
  5
1794
  8
0
  0
POLYLINE
  5
150E
  8
0
 66
     1
 10
0.0
 20
0.0
 30
0.0
  0
VERTEX
  5
1795
  8
0
 10
107.9999999999031957
 20
147.9594519527952912
 30
0.0
  0
VERTEX
  5
1796
  8
0
 10
107.9941349207442016
 20
148.0032596747404909
 30
0.0
  0
VERTEX
  5
1797
  8
0
 10
107.9882450598040009
 20
148.0470652503315137
 30
0.0
  0
VERTEX
  5
1798
  8
0
 10
107.9823056353013015
 20
148.090866533213898
 30
0.0
  0
VERTEX
  5
1799
  8
0
 10
107.9762918654549964
 20
148.1346613770336091
 30
0.0
  0
VERTEX
  5
179A
  8
0
 10
107.9701789684836939
 20
148.1784476354362141
 30
0.0
  0
VERTEX
  5
179B
  8
0
 10
107.9639421626065001
 20
148.2222231620673938
 30
0.0
  0
VERTEX
  5
179C
  8
0
 10
107.9575566660418957
 20
148.2659858105731132
 30
0.0
  0
VERTEX
  5
179D
  8
0
 10
107.9509983243817999
 20
148.309733475172294
 30
0.0
  0
VERTEX
  5
179E
  8
0
 10
107.944258535055198
 20
148.3534650558499095
 30
0.0
  0
VERTEX
  5
179F
  8
0
 10
107.9373448976024008
 20
148.3971805004107978
 30
0.0
  0
VERTEX
  5
17A0
  8
0
 10
107.9302657690598011
 20
148.4408798056485921
 30
0.0
  0
VERTEX
  5
17A1
  8
0
 10
107.9230295064637062
 20
148.4845629683570962
 30
0.0
  0
VERTEX
  5
17A2
  8
0
 10
107.9156444668504946
 20
148.5282299853298014
 30
0.0
  0
VERTEX
  5
17A3
  8
0
 10
107.9081190072564027
 20
148.5718808533605113
 30
0.0
  0
VERTEX
  5
17A4
  8
0
 10
107.9004613630590939
 20
148.6155155496306008
 30
0.0
  0
VERTEX
  5
17A5
  8
0
 10
107.8926754492240008
 20
148.6591333548470004
 30
0.0
  0
VERTEX
  5
17A6
  8
0
 10
107.8847597941613969
 20
148.7027326813733055
 30
0.0
  0
VERTEX
  5
17A7
  8
0
 10
107.8767125881375932
 20
148.7463118870626886
 30
0.0
  0
VERTEX
  5
17A8
  8
0
 10
107.8685320214187016
 20
148.7898693297682087
 30
0.0
  0
VERTEX
  5
17A9
  8
0
 10
107.8602162842709049
 20
148.833403367342612
 30
0.0
  0
VERTEX
  5
17AA
  8
0
 10
107.8517635669604005
 20
148.8769123576390996
 30
0.0
  0
VERTEX
  5
17AB
  8
0
 10
107.8431721421888057
 20
148.9203947040143987
 30
0.0
  0
VERTEX
  5
17AC
  8
0
 10
107.8344420845535012
 20
148.9638498044583912
 30
0.0
  0
VERTEX
  5
17AD
  8
0
 10
107.8255752197594006
 20
149.0072780235595076
 30
0.0
  0
VERTEX
  5
17AE
  8
0
 10
107.8165734457865028
 20
149.0506797658011919
 30
0.0
  0
VERTEX
  5
17AF
  8
0
 10
107.8074386606152046
 20
149.0940554356673999
 30
0.0
  0
VERTEX
  5
17B0
  8
0
 10
107.798172762225505
 20
149.1374054376416041
 30
0.0
  0
VERTEX
  5
17B1
  8
0
 10
107.7887776485975024
 20
149.1807301762075895
 30
0.0
  0
VERTEX
  5
17B2
  8
0
 10
107.7792552614399
 20
149.2240300866010045
 30
0.0
  0
VERTEX
  5
17B3
  8
0
 10
107.7696081291560972
 20
149.2673060166480923
 30
0.0
  0
VERTEX
  5
17B4
  8
0
 10
107.7598391995285994
 20
149.310559109101888
 30
0.0
  0
VERTEX
  5
17B5
  8
0
 10
107.7499514294180045
 20
149.3537905130995966
 30
0.0
  0
VERTEX
  5
17B6
  8
0
 10
107.7399477756849961
 20
149.3970013777783095
 30
0.0
  0
VERTEX
  5
17B7
  8
0
 10
107.7298311951903997
 20
149.4401928522754019
 30
0.0
  0
VERTEX
  5
17B8
  8
0
 10
107.7196046447947992
 20
149.4833660857279085
 30
0.0
  0
VERTEX
  5
17B9
  8
0
 10
107.7092706846324006
 20
149.5265221064040873
 30
0.0
  0
VERTEX
  5
17BA
  8
0
 10
107.6988274351384973
 20
149.5696605899483131
 30
0.0
  0
VERTEX
  5
17BB
  8
0
 10
107.6882702321496055
 20
149.612780363632794
 30
0.0
  0
VERTEX
  5
17BC
  8
0
 10
107.6775943685458969
 20
149.6558802416427909
 30
0.0
  0
VERTEX
  5
17BD
  8
0
 10
107.6667951372075009
 20
149.6989590381635082
 30
0.0
  0
VERTEX
  5
17BE
  8
0
 10
107.655867831014703
 20
149.7420155673800082
 30
0.0
  0
VERTEX
  5
17BF
  8
0
 10
107.6448114059616046
 20
149.7850493388621089
 30
0.0
  0
VERTEX
  5
17C0
  8
0
 10
107.6336427935421938
 20
149.8280632745457126
 30
0.0
  0
VERTEX
  5
17C1
  8
0
 10
107.622384430094101
 20
149.8710613413751105
 30
0.0
  0
VERTEX
  5
17C2
  8
0
 10
107.6110587533743939
 20
149.9140475065636906
 30
0.0
  0
VERTEX
  5
17C3
  8
0
 10
107.599688201140296
 20
149.9570257373252105
 30
0.0
  0
VERTEX
  5
17C4
  8
0
 10
107.5882952111490027
 20
150.0000000008730012
 30
0.0
  0
SEQEND
  5
17C5
  8
0
  0
POLYLINE
  5
150F
  8
0
 66
     1
 10
0.0
 20
0.0
 30
0.0
  0
VERTEX
  5
17C6
  8
0
 10
107.5882952111491022
 20
150.0000000008730865
 30
0.0
  0
VERTEX
  5
17C7
  8
0
 10
107.6034495769653034
 20
150.0577354101311869
 30
0.0
  0
VERTEX
  5
17C8
  8
0
 10
107.6185686974073974
 20
150.1154779236501042
 30
0.0
  0
VERTEX
  5
17C9
  8
0
 10
107.6336173271015042
 20
150.1732346456907123
 30
0.0
  0
VERTEX
  5
17CA
  8
0
 10
107.6485602206733034
 20
150.2310126805136861
 30
0.0
  0
VERTEX
  5
17CB
  8
0
 10
107.6633621327488015
 20
150.2888191323798992
 30
0.0
  0
VERTEX
  5
17CC
  8
0
 10
107.6779878179539054
 20
150.3466611055503108
 30
0.0
  0
VERTEX
  5
17CD
  8
0
 10
107.6924020309147068
 20
150.4045457042855105
 30
0.0
  0
VERTEX
  5
17CE
  8
0
 10
107.7065734131619053
 20
150.4624791072646133
 30
0.0
  0
VERTEX
  5
17CF
  8
0
 10
107.7204968021184044
 20
150.5204612551843013
 30
0.0
  0
VERTEX
  5
17D0
  8
0
 10
107.7341778542873953
 20
150.5784895124128013
 30
0.0
  0
VERTEX
  5
17D1
  8
0
 10
107.7476222602922036
 20
150.6365612351933123
 30
0.0
  0
VERTEX
  5
17D2
  8
0
 10
107.7608357107556003
 20
150.6946737797688058
 30
0.0
  0
VERTEX
  5
17D3
  8
0
 10
107.7738238963010957
 20
150.7528245023827083
 30
0.0
  0
VERTEX
  5
17D4
  8
0
 10
107.7865925075516031
 20
150.8110107592779912
 30
0.0
  0
VERTEX
  5
17D5
  8
0
 10
107.7991464446580068
 20
150.8692301803513942
 30
0.0
  0
VERTEX
  5
17D6
  8
0
 10
107.8114858748931937
 20
150.9274820339738881
 30
0.0
  0
VERTEX
  5
17D7
  8
0
 10
107.8236092118568052
 20
150.9857661956199877
 30
0.0
  0
VERTEX
  5
17D8
  8
0
 10
107.8355148662884062
 20
151.0440825417547046
 30
0.0
  0
VERTEX
  5
17D9
  8
0
 10
107.8472012489271066
 20
151.1024309488429935
 30
0.0
  0
VERTEX
  5
17DA
  8
0
 10
107.8586667705121016
 20
151.1608112933496102
 30
0.0
  0
VERTEX
  5
17DB
  8
0
 10
107.8699098417828992
 20
151.2192234517397083
 30
0.0
  0
VERTEX
  5
17DC
  8
0
 10
107.8809263898746025
 20
151.277667559052702
 30
0.0
  0
VERTEX
  5
17DD
  8
0
 10
107.8917023205112997
 20
151.336144793683701
 30
0.0
  0
VERTEX
  5
17DE
  8
0
 10
107.902221012124798
 20
151.3946565971509983
 30
0.0
  0
VERTEX
  5
17DF
  8
0
 10
107.9124658431477002
 20
151.4532044109726883
 30
0.0
  0
VERTEX
  5
17E0
  8
0
 10
107.9224201920116997
 20
151.5117896766670071
 30
0.0
  0
VERTEX
  5
17E1
  8
0
 10
107.9320674371492004
 20
151.570413835752106
 30
0.0
  0
VERTEX
  5
17E2
  8
0
 10
107.9413909607245046
 20
151.6290783293223967
 30
0.0
  0
VERTEX
  5
17E3
  8
0
 10
107.9503873276459984
 20
151.6877831013113109
 30
0.0
  0
VERTEX
  5
17E4
  8
0
 10
107.9590958581242006
 20
151.7465232399439117
 30
0.0
  0
VERTEX
  5
17E5
  8
0
 10
107.9675645248997
 20
151.8052928507794945
 30
0.0
  0
VERTEX
  5
17E6
  8
0
 10
107.9758413007129008
 20
151.8640860393774972
 30
0.0
  0
VERTEX
  5
17E7
  8
0
 10
107.9839741583045054
 20
151.9228969112973004
 30
0.0
  0
VERTEX
  5
17E8
  8
0
 10
107.9920110704150034
 20
151.9817195720983136
 30
0.0
  0
VERTEX
  5
17E9
  8
0
 10
108.0000000097849977
 20
152.0405481273398891
 30
0.0
  0
SEQEND
  5
17EA
  8
0
  0
POLYLINE
  5
1510
  8
0
 66
     1
 10
0.0
 20
0.0
 30
0.0
  0
VERTEX
  5
17EB
  8
0
 10
183.9442719099997134
 20
105.4999999990753992
 30
0.0
  0
VERTEX
  5
17EC
  8
0
 10
183.9682517906537953
 20
105.4996024620212012
 30
0.0
  0
VERTEX
  5
17ED
  8
0
 10
183.9922214937433012
 20
105.4991203182945014
 30
0.0
  0
VERTEX
  5
17EE
  8
0
 10
184.0161708417035129
 20
105.4984689612227982
 30
0.0
  0
VERTEX
  5
17EF
  8
0
 10
184.0400896569697977
 20
105.4975637841336038
 30
0.0
  0
VERTEX
  5
17F0
  8
0
 10
184.0639678557207048
 20
105.4963246918766941
 30
0.0
  0
VERTEX
  5
17F1
  8
0
 10
184.0877966019191945
 20
105.4947316405854991
 30
0.0
  0
VERTEX
  5
17F2
  8
0
 10
184.1115679465476944
 20
105.4928072754217965
 30
0.0
  0
VERTEX
  5
17F3
  8
0
 10
184.1352739595351977
 20
105.4905751533536034
 30
0.0
  0
VERTEX
  5
17F4
  8
0
 10
184.1589067110978988
 20
105.4880588246508069
 30
0.0
  0
VERTEX
  5
17F5
  8
0
 10
184.1824585581194924
 20
105.4852751566158986
 30
0.0
  0
VERTEX
  5
17F6
  8
0
 10
184.2059226822530036
 20
105.4822217890459939
 30
0.0
  0
VERTEX
  5
17F7
  8
0
 10
184.2292924125763136
 20
105.4788929248835956
 30
0.0
  0
VERTEX
  5
17F8
  8
0
 10
184.2525610781671048
 20
105.4752827670707944
 30
0.0
  0
VERTEX
  5
17F9
  8
0
 10
184.2757220309360093
 20
105.4713856498798066
 30
0.0
  0
VERTEX
  5
17FA
  8
0
 10
184.2987691851784859
 20
105.4671991422943051
 30
0.0
  0
VERTEX
  5
17FB
  8
0
 10
184.3216970390689937
 20
105.4627241716412982
 30
0.0
  0
VERTEX
  5
17FC
  8
0
 10
184.3445001179156861
 20
105.4579618213145977
 30
0.0
  0
VERTEX
  5
17FD
  8
0
 10
184.3671729470268019
 20
105.4529131747080015
 30
0.0
  0
VERTEX
  5
17FE
  8
0
 10
184.3897101070973861
 20
105.4475790051023978
 30
0.0
  0
VERTEX
  5
17FF
  8
0
 10
184.4121065903125043
 20
105.4419577818383971
 30
0.0
  0
VERTEX
  5
1800
  8
0
 10
184.4343575741310133
 20
105.4360469369043045
 30
0.0
  0
VERTEX
  5
1801
  8
0
 10
184.4564582369038135
 20
105.4298438972933951
 30
0.0
  0
VERTEX
  5
1802
  8
0
 10
184.478403757219013
 20
105.4233460905848005
 30
0.0
  0
VERTEX
  5
1803
  8
0
 10
184.5001896776134913
 20
105.4165518444327034
 30
0.0
  0
VERTEX
  5
1804
  8
0
 10
184.5218126386627944
 20
105.4094622020276972
 30
0.0
  0
VERTEX
  5
1805
  8
0
 10
184.5432694871998933
 20
105.402078716651701
 30
0.0
  0
VERTEX
  5
1806
  8
0
 10
184.5645570700577878
 20
105.3944029415860939
 30
0.0
  0
VERTEX
  5
1807
  8
0
 10
184.5856722338697864
 20
105.3864363756830045
 30
0.0
  0
VERTEX
  5
1808
  8
0
 10
184.6066118183977096
 20
105.3781786433015952
 30
0.0
  0
VERTEX
  5
1809
  8
0
 10
184.6273726549572132
 20
105.3696270649153064
 30
0.0
  0
VERTEX
  5
180A
  8
0
 10
184.6479515743457114
 20
105.360778819542702
 30
0.0
  0
VERTEX
  5
180B
  8
0
 10
184.6683454073603912
 20
105.3516310862023033
 30
0.0
  0
VERTEX
  5
180C
  8
0
 10
184.688550910123098
 20
105.3421807100437064
 30
0.0
  0
VERTEX
  5
180D
  8
0
 10
184.708564156401394
 20
105.3324214854617935
 30
0.0
  0
VERTEX
  5
180E
  8
0
 10
184.7283808543992905
 20
105.3223455724424014
 30
0.0
  0
VERTEX
  5
180F
  8
0
 10
184.7479967088482908
 20
105.311945115446207
 30
0.0
  0
VERTEX
  5
1810
  8
0
 10
184.7674074244795861
 20
105.3012122589339015
 30
0.0
  0
VERTEX
  5
1811
  8
0
 10
184.7866090562417014
 20
105.2901402200662062
 30
0.0
  0
VERTEX
  5
1812
  8
0
 10
184.8056002283281032
 20
105.2787300854900963
 30
0.0
  0
VERTEX
  5
1813
  8
0
 10
184.824380709051411
 20
105.2669864462421998
 30
0.0
  0
VERTEX
  5
1814
  8
0
 10
184.8429502719639004
 20
105.2549139094075059
 30
0.0
  0
VERTEX
  5
1815
  8
0
 10
184.8613086906181024
 20
105.2425170820711031
 30
0.0
  0
VERTEX
  5
1816
  8
0
 10
184.8794557766088928
 20
105.2298006239475967
 30
0.0
  0
VERTEX
  5
1817
  8
0
 10
184.8973922737141038
 20
105.2167704843710965
 30
0.0
  0
VERTEX
  5
1818
  8
0
 10
184.9151198908284925
 20
105.2034339478569933
 30
0.0
  0
VERTEX
  5
1819
  8
0
 10
184.9326403814787056
 20
105.1897983606659039
 30
0.0
  0
VERTEX
  5
181A
  8
0
 10
184.9499554991913044
 20
105.1758710690585019
 30
0.0
  0
VERTEX
  5
181B
  8
0
 10
184.9670669974925943
 20
105.1616594192956029
 30
0.0
  0
VERTEX
  5
181C
  8
0
 10
184.9839764001258118
 20
105.1471701498524993
 30
0.0
  0
VERTEX
  5
181D
  8
0
 10
185.0006823449359956
 20
105.1324023659046958
 30
0.0
  0
VERTEX
  5
181E
  8
0
 10
185.0171815006239058
 20
105.1173499641727034
 30
0.0
  0
VERTEX
  5
181F
  8
0
 10
185.0334704978965874
 20
105.1020067408823024
 30
0.0
  0
VERTEX
  5
1820
  8
0
 10
185.0495459674613983
 20
105.0863664922596001
 30
0.0
  0
VERTEX
  5
1821
  8
0
 10
185.0654048028256113
 20
105.0704236930506994
 30
0.0
  0
VERTEX
  5
1822
  8
0
 10
185.0810474645064119
 20
105.0541820276062026
 30
0.0
  0
VERTEX
  5
1823
  8
0
 10
185.0964769833234129
 20
105.0376518164991069
 30
0.0
  0
VERTEX
  5
1824
  8
0
 10
185.111696446819991
 20
105.0208435267572042
 30
0.0
  0
VERTEX
  5
1825
  8
0
 10
185.1267089425396932
 20
105.0037676254084005
 30
0.0
  0
VERTEX
  5
1826
  8
0
 10
185.1415175580262087
 20
104.9864345794804024
 30
0.0
  0
VERTEX
  5
1827
  8
0
 10
185.1561250728146888
 20
104.9688540186057963
 30
0.0
  0
VERTEX
  5
1828
  8
0
 10
185.1705322118673962
 20
104.9510299865551985
 30
0.0
  0
VERTEX
  5
1829
  8
0
 10
185.1847388594331107
 20
104.9329642414146946
 30
0.0
  0
VERTEX
  5
182A
  8
0
 10
185.1987448972386119
 20
104.9146585344137037
 30
0.0
  0
VERTEX
  5
182B
  8
0
 10
185.2125502070109917
 20
104.8961146167821994
 30
0.0
  0
VERTEX
  5
182C
  8
0
 10
185.2261546704772002
 20
104.8773342397498993
 30
0.0
  0
VERTEX
  5
182D
  8
0
 10
185.239558169364301
 20
104.8583191545463933
 30
0.0
  0
VERTEX
  5
182E
  8
0
 10
185.2527605782663898
 20
104.8390711306066976
 30
0.0
  0
VERTEX
  5
182F
  8
0
 10
185.2657609468762132
 20
104.8195940428215067
 30
0.0
  0
VERTEX
  5
1830
  8
0
 10
185.2785567429237972
 20
104.7998958038357955
 30
0.0
  0
VERTEX
  5
1831
  8
0
 10
185.2911452551589093
 20
104.7799847831196018
 30
0.0
  0
VERTEX
  5
1832
  8
0
 10
185.30352377233109
 20
104.7598693501429068
 30
0.0
  0
VERTEX
  5
1833
  8
0
 10
185.3156895831903057
 20
104.7395578743756062
 30
0.0
  0
VERTEX
  5
1834
  8
0
 10
185.3276399764862106
 20
104.7190587252874963
 30
0.0
  0
VERTEX
  5
1835
  8
0
 10
185.339372240968288
 20
104.6983802723487997
 30
0.0
  0
VERTEX
  5
1836
  8
0
 10
185.3508836653863909
 20
104.6775308850290997
 30
0.0
  0
VERTEX
  5
1837
  8
0
 10
185.362171538490287
 20
104.6565189327985053
 30
0.0
  0
VERTEX
  5
1838
  8
0
 10
185.3732331490296019
 20
104.6353527851268979
 30
0.0
  0
VERTEX
  5
1839
  8
0
 10
185.3840657857539895
 20
104.6140408114842018
 30
0.0
  0
VERTEX
  5
183A
  8
0
 10
185.3946667597062969
 20
104.5925913593792984
 30
0.0
  0
VERTEX
  5
183B
  8
0
 10
185.4050347811106008
 20
104.5710113979785945
 30
0.0
  0
VERTEX
  5
183C
  8
0
 10
185.4151707651039942
 20
104.549305724375202
 30
0.0
  0
VERTEX
  5
183D
  8
0
 10
185.4250758207859917
 20
104.5274789445883954
 30
0.0
  0
VERTEX
  5
183E
  8
0
 10
185.4347504020801125
 20
104.5055358875825959
 30
0.0
  0
VERTEX
  5
183F
  8
0
 10
185.4441881259164973
 20
104.4834837088360047
 30
0.0
  0
VERTEX
  5
1840
  8
0
 10
185.4533785422028984
 20
104.4613309477654042
 30
0.0
  0
VERTEX
  5
1841
  8
0
 10
185.4623111469657886
 20
104.439086162122706
 30
0.0
  0
VERTEX
  5
1842
  8
0
 10
185.4709754362318961
 20
104.4167579096596938
 30
0.0
  0
VERTEX
  5
1843
  8
0
 10
185.479360895850192
 20
104.3943546799351054
 30
0.0
  0
VERTEX
  5
1844
  8
0
 10
185.4874566212897093
 20
104.3718823468497021
 30
0.0
  0
VERTEX
  5
1845
  8
0
 10
185.4952512039332078
 20
104.3493434067788002
 30
0.0
  0
VERTEX
  5
1846
  8
0
 10
185.5027332017774881
 20
104.3267401324031027
 30
0.0
  0
VERTEX
  5
1847
  8
0
 10
185.5098911728196072
 20
104.3040747964035972
 30
0.0
  0
VERTEX
  5
1848
  8
0
 10
185.5167129946428872
 20
104.2813506078280028
 30
0.0
  0
VERTEX
  5
1849
  8
0
 10
185.523180237579993
 20
104.2585794555968022
 30
0.0
  0
VERTEX
  5
184A
  8
0
 10
185.5292710535829031
 20
104.2357779329156955
 30
0.0
  0
VERTEX
  5
184B
  8
0
 10
185.534963560836502
 20
104.2129626794602046
 30
0.0
  0
VERTEX
  5
184C
  8
0
 10
185.5402358775255891
 20
104.1901503349055957
 30
0.0
  0
VERTEX
  5
184D
  8
0
 10
185.5450661218349069
 20
104.1673575389273054
 30
0.0
  0
VERTEX
  5
184E
  8
0
 10
185.5494324119493967
 20
104.1446009312006993
 30
0.0
  0
VERTEX
  5
184F
  8
0
 10
185.5533128660538864
 20
104.1218971514010008
 30
0.0
  0
VERTEX
  5
1850
  8
0
 10
185.5566856023332036
 20
104.0992628392037034
 30
0.0
  0
VERTEX
  5
1851
  8
0
 10
185.5595287389720056
 20
104.0767146342842011
 30
0.0
  0
VERTEX
  5
1852
  8
0
 10
185.5618203941554043
 20
104.0542691763177032
 30
0.0
  0
VERTEX
  5
1853
  8
0
 10
185.563538186187202
 20
104.0319435026753041
 30
0.0
  0
VERTEX
  5
1854
  8
0
 10
185.5646541877520974
 20
104.0097590627167961
 30
0.0
  0
VERTEX
  5
1855
  8
0
 10
185.5651370158763882
 20
103.9877400550578983
 30
0.0
  0
VERTEX
  5
1856
  8
0
 10
185.5649552352398928
 20
103.965910719959993
 30
0.0
  0
VERTEX
  5
1857
  8
0
 10
185.5640774105227138
 20
103.9442952976845049
 30
0.0
  0
VERTEX
  5
1858
  8
0
 10
185.5624721064044991
 20
103.9229180284927025
 30
0.0
  0
VERTEX
  5
1859
  8
0
 10
185.5601078875652945
 20
103.9018031526461954
 30
0.0
  0
VERTEX
  5
185A
  8
0
 10
185.5569533186848901
 20
103.880974910406394
 30
0.0
  0
VERTEX
  5
185B
  8
0
 10
185.5529775933999872
 20
103.8604582913986007
 30
0.0
  0
VERTEX
  5
185C
  8
0
 10
185.5481572666429884
 20
103.8402870557860069
 30
0.0
  0
VERTEX
  5
185D
  8
0
 10
185.5424736662633052
 20
103.8205006503738019
 30
0.0
  0
VERTEX
  5
185E
  8
0
 10
185.5359082007304039
 20
103.8011386180208007
 30
0.0
  0
VERTEX
  5
185F
  8
0
 10
185.5284422785138077
 20
103.7822405015857044
 30
0.0
  0
VERTEX
  5
1860
  8
0
 10
185.5200573080830111
 20
103.7638458439275979
 30
0.0
  0
VERTEX
  5
1861
  8
0
 10
185.5107346979073952
 20
103.7459941879050973
 30
0.0
  0
VERTEX
  5
1862
  8
0
 10
185.5004558564565116
 20
103.7287250763771027
 30
0.0
  0
VERTEX
  5
1863
  8
0
 10
185.4892072484084053
 20
103.7120753642649049
 30
0.0
  0
VERTEX
  5
1864
  8
0
 10
185.4770085032282907
 20
103.6960642757151021
 30
0.0
  0
VERTEX
  5
1865
  8
0
 10
185.463892615855201
 20
103.6807039296377013
 30
0.0
  0
VERTEX
  5
1866
  8
0
 10
185.4498926180702938
 20
103.6660064253569971
 30
0.0
  0
VERTEX
  5
1867
  8
0
 10
185.4350415416548969
 20
103.6519838621974969
 30
0.0
  0
VERTEX
  5
1868
  8
0
 10
185.4193724183901963
 20
103.638648339483197
 30
0.0
  0
VERTEX
  5
1869
  8
0
 10
185.4029182800574063
 20
103.6260119565387043
 30
0.0
  0
VERTEX
  5
186A
  8
0
 10
185.385712454279286
 20
103.614086040323599
 30
0.0
  0
VERTEX
  5
186B
  8
0
 10
185.3677944933452011
 20
103.6028656668238028
 30
0.0
  0
VERTEX
  5
186C
  8
0
 10
185.3492098682424114
 20
103.5923304598559014
 30
0.0
  0
VERTEX
  5
186D
  8
0
 10
185.3300042845571056
 20
103.5824594307598971
 30
0.0
  0
VERTEX
  5
186E
  8
0
 10
185.3102234478753871
 20
103.5732315908760057
 30
0.0
  0
VERTEX
  5
186F
  8
0
 10
185.2899130637835015
 20
103.5646259515443006
 30
0.0
  0
VERTEX
  5
1870
  8
0
 10
185.2691188378676088
 20
103.5566215241047985
 30
0.0
  0
VERTEX
  5
1871
  8
0
 10
185.2478864592999912
 20
103.5491973472318961
 30
0.0
  0
VERTEX
  5
1872
  8
0
 10
185.226258046400801
 20
103.5423384061707992
 30
0.0
  0
VERTEX
  5
1873
  8
0
 10
185.2042677052272097
 20
103.5360430290578932
 30
0.0
  0
VERTEX
  5
1874
  8
0
 10
185.1819484506816025
 20
103.5303113611392973
 30
0.0
  0
VERTEX
  5
1875
  8
0
 10
185.1593332976661088
 20
103.5251435476606048
 30
0.0
  0
VERTEX
  5
1876
  8
0
 10
185.1364552610831993
 20
103.5205397338680058
 30
0.0
  0
VERTEX
  5
1877
  8
0
 10
185.1133473558350886
 20
103.5165000650071931
 30
0.0
  0
VERTEX
  5
1878
  8
0
 10
185.0900425968241905
 20
103.5130246863241013
 30
0.0
  0
VERTEX
  5
1879
  8
0
 10
185.0665733277828053
 20
103.5101099575575034
 30
0.0
  0
VERTEX
  5
187A
  8
0
 10
185.0429643349837932
 20
103.5077096131566066
 30
0.0
  0
VERTEX
  5
187B
  8
0
 10
185.019235642740199
 20
103.5057505293485036
 30
0.0
  0
VERTEX
  5
187C
  8
0
 10
184.9954072009593915
 20
103.5041591627010007
 30
0.0
  0
VERTEX
  5
187D
  8
0
 10
184.9714989595487964
 20
103.5028619697820034
 30
0.0
  0
VERTEX
  5
187E
  8
0
 10
184.9475308684158961
 20
103.5017854071593035
 30
0.0
  0
VERTEX
  5
187F
  8
0
 10
184.9235228774680877
 20
103.5008559314009062
 30
0.0
  0
VERTEX
  5
1880
  8
0
 10
184.8994949366129958
 20
103.4999999990747028
 30
0.0
  0
SEQEND
  5
1881
  8
0
  0
POLYLINE
  5
1511
  8
0
 66
     1
 10
0.0
 20
0.0
 30
0.0
  0
VERTEX
  5
1882
  8
0
 10
185.4522724801836944
 20
100.9999999990749018
 30
0.0
  0
VERTEX
  5
1883
  8
0
 10
185.4707027058634878
 20
100.9996587916972004
 30
0.0
  0
VERTEX
  5
1884
  8
0
 10
185.4891237337301106
 20
100.9992529895149005
 30
0.0
  0
VERTEX
  5
1885
  8
0
 10
185.5075263659701079
 20
100.998717997723702
 30
0.0
  0
VERTEX
  5
1886
  8
0
 10
185.5259014047701953
 20
100.9979892215191057
 30
0.0
  0
VERTEX
  5
1887
  8
0
 10
185.5442396524935873
 20
100.9970021671803977
 30
0.0
  0
VERTEX
  5
1888
  8
0
 10
185.5625319501997978
 20
100.9957145282910034
 30
0.0
  0
VERTEX
  5
1889
  8
0
 10
185.5807692259436976
 20
100.9941338785097003
 30
0.0
  0
VERTEX
  5
188A
  8
0
 10
185.5989424196542075
 20
100.992274599457005
 30
0.0
  0
VERTEX
  5
188B
  8
0
 10
185.6170424712597935
 20
100.9901510727528944
 30
0.0
  0
VERTEX
  5
188C
  8
0
 10
185.6350603227591023
 20
100.9877775422870059
 30
0.0
  0
VERTEX
  5
188D
  8
0
 10
185.6529870346942062
 20
100.9851603638162061
 30
0.0
  0
VERTEX
  5
188E
  8
0
 10
185.6708138481745038
 20
100.9822938777740973
 30
0.0
  0
VERTEX
  5
188F
  8
0
 10
185.6885320194766962
 20
100.9791714153232931
 30
0.0
  0
VERTEX
  5
1890
  8
0
 10
185.7061328048777114
 20
100.9757863076266062
 30
0.0
  0
VERTEX
  5
1891
  8
0
 10
185.7236074681430864
 20
100.9721319664172938
 30
0.0
  0
VERTEX
  5
1892
  8
0
 10
185.7409475054431027
 20
100.9682043038460932
 30
0.0
  0
VERTEX
  5
1893
  8
0
 10
185.7581446846913877
 20
100.9640021557172958
 30
0.0
  0
VERTEX
  5
1894
  8
0
 10
185.7751907892181862
 20
100.9595245237028962
 30
0.0
  0
VERTEX
  5
1895
  8
0
 10
185.7920776023539133
 20
100.9547704094745058
 30
0.0
  0
VERTEX
  5
1896
  8
0
 10
185.8087969248938123
 20
100.9497387924158005
 30
0.0
  0
VERTEX
  5
1897
  8
0
 10
185.8253409463258947
 20
100.9444281558799048
 30
0.0
  0
VERTEX
  5
1898
  8
0
 10
185.8417022377383034
 20
100.9388364962394036
 30
0.0
  0
VERTEX
  5
1899
  8
0
 10
185.8578733862661068
 20
100.932961789388898
 30
0.0
  0
VERTEX
  5
189A
  8
0
 10
185.8738469790442025
 20
100.9268020112231028
 30
0.0
  0
VERTEX
  5
189B
  8
0
 10
185.8896156323351079
 20
100.9203551675065
 30
0.0
  0
VERTEX
  5
189C
  8
0
 10
185.9051725078595894
 20
100.9136198233691033
 30
0.0
  0
VERTEX
  5
189D
  8
0
 10
185.9205112514767109
 20
100.9065950404226015
 30
0.0
  0
VERTEX
  5
189E
  8
0
 10
185.9356255258545048
 20
100.8992798975161946
 30
0.0
  0
VERTEX
  5
189F
  8
0
 10
185.9505089936610034
 20
100.8916734734991962
 30
0.0
  0
VERTEX
  5
18A0
  8
0
 10
185.9651553610858059
 20
100.8837748804161976
 30
0.0
  0
VERTEX
  5
18A1
  8
0
 10
185.9795591128506089
 20
100.8755838241238934
 30
0.0
  0
VERTEX
  5
18A2
  8
0
 10
185.9937154056169106
 20
100.8671005229899009
 30
0.0
  0
VERTEX
  5
18A3
  8
0
 10
186.0076194181042979
 20
100.8583252122059974
 30
0.0
  0
VERTEX
  5
18A4
  8
0
 10
186.0212663290319028
 20
100.8492581269639032
 30
0.0
  0
VERTEX
  5
18A5
  8
0
 10
186.034651351406211
 20
100.8398995223141981
 30
0.0
  0
VERTEX
  5
18A6
  8
0
 10
186.0477703727555081
 20
100.8302500439878031
 30
0.0
  0
VERTEX
  5
18A7
  8
0
 10
186.060619897250092
 20
100.8203106948721057
 30
0.0
  0
VERTEX
  5
18A8
  8
0
 10
186.0731964517416088
 20
100.8100824909915048
 30
0.0
  0
VERTEX
  5
18A9
  8
0
 10
186.0854965630819038
 20
100.799566448370399
 30
0.0
  0
VERTEX
  5
18AA
  8
0
 10
186.0975168132420947
 20
100.7887636491537933
 30
0.0
  0
VERTEX
  5
18AB
  8
0
 10
186.109255256097498
 20
100.777676941174704
 30
0.0
  0
VERTEX
  5
18AC
  8
0
 10
186.1207115406691912
 20
100.7663110857942996
 30
0.0
  0
VERTEX
  5
18AD
  8
0
 10
186.1318853957957913
 20
100.7546709401218976
 30
0.0
  0
VERTEX
  5
18AE
  8
0
 10
186.1427765503158014
 20
100.7427613612668011
 30
0.0
  0
VERTEX
  5
18AF
  8
0
 10
186.1533847405324025
 20
100.7305872007253953
 30
0.0
  0
VERTEX
  5
18B0
  8
0
 10
186.1637101172273105
 20
100.718152998327696
 30
0.0
  0
VERTEX
  5
18B1
  8
0
 10
186.1737534551187991
 20
100.7054628247368981
 30
0.0
  0
VERTEX
  5
18B2
  8
0
 10
186.1835155804903934
 20
100.6925207118411976
 30
0.0
  0
VERTEX
  5
18B3
  8
0
 10
186.1929973196259027
 20
100.6793306915288042
 30
0.0
  0
VERTEX
  5
18B4
  8
0
 10
186.2021994983414004
 20
100.6658967951799042
 30
0.0
  0
VERTEX
  5
18B5
  8
0
 10
186.2111221770664997
 20
100.6522222225496961
 30
0.0
  0
VERTEX
  5
18B6
  8
0
 10
186.2197630924289911
 20
100.6383076484844992
 30
0.0
  0
VERTEX
  5
18B7
  8
0
 10
186.228119541680087
 20
100.6241532704294031
 30
0.0
  0
VERTEX
  5
18B8
  8
0
 10
186.236188822071199
 20
100.6097592858295968
 30
0.0
  0
VERTEX
  5
18B9
  8
0
 10
186.2439682308533975
 20
100.5951258921299996
 30
0.0
  0
VERTEX
  5
18BA
  8
0
 10
186.2514550961101065
 20
100.5802533212506944
 30
0.0
  0
VERTEX
  5
18BB
  8
0
 10
186.2586506775392934
 20
100.5651462012553026
 30
0.0
  0
VERTEX
  5
18BC
  8
0
 10
186.2655639811542017
 20
100.5498178217676042
 30
0.0
  0
VERTEX
  5
18BD
  8
0
 10
186.2722049185937863
 20
100.5342824850383039
 30
0.0
  0
VERTEX
  5
18BE
  8
0
 10
186.2785834014966042
 20
100.5185544933180068
 30
0.0
  0
VERTEX
  5
18BF
  8
0
 10
186.2847093415012978
 20
100.502648148857503
 30
0.0
  0
VERTEX
  5
18C0
  8
0
 10
186.2905926502469072
 20
100.4865777539074969
 30
0.0
  0
VERTEX
  5
18C1
  8
0
 10
186.2962432099440093
 20
100.4703575760999001
 30
0.0
  0
VERTEX
  5
18C2
  8
0
 10
186.3016660187662126
 20
100.4539961375021022
 30
0.0
  0
VERTEX
  5
18C3
  8
0
 10
186.3068557781759864
 20
100.4374898471686066
 30
0.0
  0
VERTEX
  5
18C4
  8
0
 10
186.3118058849395027
 20
100.4208335793127986
 30
0.0
  0
VERTEX
  5
18C5
  8
0
 10
186.3165099373478029
 20
100.4040224472445004
 30
0.0
  0
VERTEX
  5
18C6
  8
0
 10
186.3209677736726917
 20
100.3870589675971985
 30
0.0
  0
VERTEX
  5
18C7
  8
0
 10
186.3251865203156115
 20
100.3699543038874964
 30
0.0
  0
VERTEX
  5
18C8
  8
0
 10
186.3291737164178983
 20
100.3527201093205008
 30
0.0
  0
VERTEX
  5
18C9
  8
0
 10
186.3329369011212862
 20
100.3353680371015031
 30
0.0
  0
VERTEX
  5
18CA
  8
0
 10
186.3364836643951037
 20
100.3179089052792961
 30
0.0
  0
VERTEX
  5
18CB
  8
0
 10
186.3398218399426014
 20
100.3003495271014032
 30
0.0
  0
VERTEX
  5
18CC
  8
0
 10
186.3429593344380919
 20
100.2826955168278005
 30
0.0
  0
VERTEX
  5
18CD
  8
0
 10
186.3459040545689049
 20
100.2649524884976984
 30
0.0
  0
VERTEX
  5
18CE
  8
0
 10
186.3486639070225976
 20
100.247126056150293
 30
0.0
  0
VERTEX
  5
18CF
  8
0
 10
186.3512449780166094
 20
100.229221706880594
 30
0.0
  0
VERTEX
  5
18D0
  8
0
 10
186.3536416335346075
 20
100.2112441105146985
 30
0.0
  0
VERTEX
  5
18D1
  8
0
 10
186.3558435958420034
 20
100.1931976130650952
 30
0.0
  0
VERTEX
  5
18D2
  8
0
 10
186.3578405755945084
 20
100.1750865597348934
 30
0.0
  0
VERTEX
  5
18D3
  8
0
 10
186.3596222834480898
 20
100.1569152957271029
 30
0.0
  0
VERTEX
  5
18D4
  8
0
 10
186.3611784300586862
 20
100.1386881662449042
 30
0.0
  0
VERTEX
  5
18D5
  8
0
 10
186.3624987260820944
 20
100.120409516491307
 30
0.0
  0
VERTEX
  5
18D6
  8
0
 10
186.3635752875827052
 20
100.1020840164188002
 30
0.0
  0
VERTEX
  5
18D7
  8
0
 10
186.364421384470802
 20
100.083719191917794
 30
0.0
  0
VERTEX
  5
18D8
  8
0
 10
186.3650612716890009
 20
100.0653240519457938
 30
0.0
  0
VERTEX
  5
18D9
  8
0
 10
186.3655192977790875
 20
100.0469076180971939
 30
0.0
  0
VERTEX
  5
18DA
  8
0
 10
186.3658198112829041
 20
100.0284789119659052
 30
0.0
  0
VERTEX
  5
18DB
  8
0
 10
186.3659849448827117
 20
100.0100467576821046
 30
0.0
  0
VERTEX
  5
18DC
  8
0
 10
186.3660085861500875
 20
99.9916174623393488
 30
0.0
  0
VERTEX
  5
18DD
  8
0
 10
186.3658651457232907
 20
99.973195597362519
 30
0.0
  0
VERTEX
  5
18DE
  8
0
 10
186.3655286483192128
 20
99.9547856997856456
 30
0.0
  0
VERTEX
  5
18DF
  8
0
 10
186.3649784963475042
 20
99.9363920727937369
 30
0.0
  0
VERTEX
  5
18E0
  8
0
 10
186.3642204093025896
 20
99.9180178751736321
 30
0.0
  0
VERTEX
  5
18E1
  8
0
 10
186.3632681444809975
 20
99.8996659161884253
 30
0.0
  0
VERTEX
  5
18E2
  8
0
 10
186.3621354611753134
 20
99.8813390050144108
 30
0.0
  0
VERTEX
  5
18E3
  8
0
 10
186.3608350227677874
 20
99.8630402821870149
 30
0.0
  0
VERTEX
  5
18E4
  8
0
 10
186.359365464219195
 20
99.8447771298724405
 30
0.0
  0
VERTEX
  5
18E5
  8
0
 10
186.3577157179607866
 20
99.8265598638915463
 30
0.0
  0
VERTEX
  5
18E6
  8
0
 10
186.3558745227308009
 20
99.8083988586301842
 30
0.0
  0
VERTEX
  5
18E7
  8
0
 10
186.3538306172675902
 20
99.7903044884743053
 30
0.0
  0
VERTEX
  5
18E8
  8
0
 10
186.351572740309507
 20
99.772287127809733
 30
0.0
  0
VERTEX
  5
18E9
  8
0
 10
186.349089630594591
 20
99.7543571510224325
 30
0.0
  0
VERTEX
  5
18EA
  8
0
 10
186.3463723094581894
 20
99.7365236823660553
 30
0.0
  0
VERTEX
  5
18EB
  8
0
 10
186.3434249406761865
 20
99.718788648246445
 30
0.0
  0
VERTEX
  5
18EC
  8
0
 10
186.3402563820961859
 20
99.7011514042211076
 30
0.0
  0
VERTEX
  5
18ED
  8
0
 10
186.3368754974212038
 20
99.6836113026408555
 30
0.0
  0
VERTEX
  5
18EE
  8
0
 10
186.3332911503543983
 20
99.66616769585643
 30
0.0
  0
VERTEX
  5
18EF
  8
0
 10
186.3295110345841863
 20
99.6488206871468805
 30
0.0
  0
VERTEX
  5
18F0
  8
0
 10
186.3255312933459891
 20
99.6315777929987263
 30
0.0
  0
VERTEX
  5
18F1
  8
0
 10
186.3213414887767954
 20
99.6144507537195807
 30
0.0
  0
VERTEX
  5
18F2
  8
0
 10
186.3169311065618956
 20
99.5974513586847934
 30
0.0
  0
VERTEX
  5
18F3
  8
0
 10
186.3122896323864097
 20
99.5805913972696857
 30
0.0
  0
VERTEX
  5
18F4
  8
0
 10
186.3074065519357134
 20
99.5638826588495363
 30
0.0
  0
VERTEX
  5
18F5
  8
0
 10
186.3022724718489087
 20
99.547335814692687
 30
0.0
  0
VERTEX
  5
18F6
  8
0
 10
186.2968847317804091
 20
99.5309548201538092
 30
0.0
  0
VERTEX
  5
18F7
  8
0
 10
186.2912431735908001
 20
99.5147411347367381
 30
0.0
  0
VERTEX
  5
18F8
  8
0
 10
186.2853476433070909
 20
99.4986962137894722
 30
0.0
  0
VERTEX
  5
18F9
  8
0
 10
186.2791979869562056
 20
99.4828215126600242
 30
0.0
  0
VERTEX
  5
18FA
  8
0
 10
186.2727939968170858
 20
99.4671185896194032
 30
0.0
  0
VERTEX
  5
18FB
  8
0
 10
186.2661337007120039
 20
99.451592381727437
 30
0.0
  0
VERTEX
  5
18FC
  8
0
 10
186.259213006442593
 20
99.4362518857076054
 30
0.0
  0
VERTEX
  5
18FD
  8
0
 10
186.252027696198013
 20
99.4211063388216445
 30
0.0
  0
VERTEX
  5
18FE
  8
0
 10
186.2445735521671111
 20
99.406164978331276
 30
0.0
  0
VERTEX
  5
18FF
  8
0
 10
186.2368463565387913
 20
99.3914370414982358
 30
0.0
  0
VERTEX
  5
1900
  8
0
 10
186.2288418915022135
 20
99.3769317655842457
 30
0.0
  0
VERTEX
  5
1901
  8
0
 10
186.2205559392461112
 20
99.3626583878510417
 30
0.0
  0
VERTEX
  5
1902
  8
0
 10
186.2119842819595021
 20
99.3486261455603454
 30
0.0
  0
VERTEX
  5
1903
  8
0
 10
186.2031227018312052
 20
99.3348442759739214
 30
0.0
  0
VERTEX
  5
1904
  8
0
 10
186.1939669810504938
 20
99.3213220163534345
 30
0.0
  0
VERTEX
  5
1905
  8
0
 10
186.1845130289839858
 20
99.3080684395849858
 30
0.0
  0
VERTEX
  5
1906
  8
0
 10
186.1747599217210904
 20
99.2950885256121154
 30
0.0
  0
VERTEX
  5
1907
  8
0
 10
186.1647100424289079
 20
99.2823829800282027
 30
0.0
  0
VERTEX
  5
1908
  8
0
 10
186.1543659295402904
 20
99.2699523077480848
 30
0.0
  0
VERTEX
  5
1909
  8
0
 10
186.1437301214882041
 20
99.2577970136865844
 30
0.0
  0
VERTEX
  5
190A
  8
0
 10
186.1328051567053876
 20
99.2459176027584959
 30
0.0
  0
VERTEX
  5
190B
  8
0
 10
186.1215935736246934
 20
99.2343145798786566
 30
0.0
  0
VERTEX
  5
190C
  8
0
 10
186.1100979106788884
 20
99.2229884499618464
 30
0.0
  0
VERTEX
  5
190D
  8
0
 10
186.0983207063009104
 20
99.2119397179229168
 30
0.0
  0
VERTEX
  5
190E
  8
0
 10
186.0862644989236969
 20
99.2011688886766478
 30
0.0
  0
VERTEX
  5
190F
  8
0
 10
186.0739318419772985
 20
99.1906764884100056
 30
0.0
  0
VERTEX
  5
1910
  8
0
 10
186.0613257975776946
 20
99.1804637648210132
 30
0.0
  0
VERTEX
  5
1911
  8
0
 10
186.0484500485891886
 20
99.1705328460669762
 30
0.0
  0
VERTEX
  5
1912
  8
0
 10
186.0353083155646914
 20
99.1608859137623995
 30
0.0
  0
VERTEX
  5
1913
  8
0
 10
186.0219043190575121
 20
99.1515251495217882
 30
0.0
  0
VERTEX
  5
1914
  8
0
 10
186.0082417796205903
 20
99.1424527349596758
 30
0.0
  0
VERTEX
  5
1915
  8
0
 10
185.9943244178072064
 20
99.1336708516905531
 30
0.0
  0
VERTEX
  5
1916
  8
0
 10
185.9801559541704137
 20
99.1251816813289821
 30
0.0
  0
VERTEX
  5
1917
  8
0
 10
185.9657401092632938
 20
99.1169874054894393
 30
0.0
  0
VERTEX
  5
1918
  8
0
 10
185.9510806036388999
 20
99.109090205786444
 30
0.0
  0
VERTEX
  5
1919
  8
0
 10
185.9361814367449028
 20
99.1014917424947441
 30
0.0
  0
VERTEX
  5
191A
  8
0
 10
185.9210488415826887
 20
99.094189500686781
 30
0.0
  0
VERTEX
  5
191B
  8
0
 10
185.9056901238967896
 20
99.0871789601472841
 30
0.0
  0
VERTEX
  5
191C
  8
0
 10
185.8901125962318019
 20
99.0804555879492597
 30
0.0
  0
VERTEX
  5
191D
  8
0
 10
185.8743235711324076
 20
99.0740148511658134
 30
0.0
  0
VERTEX
  5
191E
  8
0
 10
185.8583303611430892
 20
99.0678522168699658
 30
0.0
  0
VERTEX
  5
191F
  8
0
 10
185.8421402788086141
 20
99.0619631521347657
 30
0.0
  0
VERTEX
  5
1920
  8
0
 10
185.8257606366734933
 20
99.0563431240333045
 30
0.0
  0
VERTEX
  5
1921
  8
0
 10
185.809198747282494
 20
99.0509875996385887
 30
0.0
  0
VERTEX
  5
1922
  8
0
 10
185.792461923456699
 20
99.0458920491599457
 30
0.0
  0
VERTEX
  5
1923
  8
0
 10
185.7755577133586087
 20
99.0410546103223481
 30
0.0
  0
VERTEX
  5
1924
  8
0
 10
185.7584943290783031
 20
99.0364809462688811
 30
0.0
  0
VERTEX
  5
1925
  8
0
 10
185.7412800989486072
 20
99.0321780377141039
 30
0.0
  0
VERTEX
  5
1926
  8
0
 10
185.7239233513022896
 20
99.0281528653726042
 30
0.0
  0
VERTEX
  5
1927
  8
0
 10
185.7064324144720047
 20
99.024412409958984
 30
0.0
  0
VERTEX
  5
1928
  8
0
 10
185.6888156167902935
 20
99.0209636521878167
 30
0.0
  0
VERTEX
  5
1929
  8
0
 10
185.6710812865902085
 20
99.0178135727736333
 30
0.0
  0
VERTEX
  5
192A
  8
0
 10
185.6532377522042054
 20
99.0149691524310924
 30
0.0
  0
VERTEX
  5
192B
  8
0
 10
185.6352933419651947
 20
99.0124373718747108
 30
0.0
  0
VERTEX
  5
192C
  8
0
 10
185.6172564038371888
 20
99.0102243865949703
 30
0.0
  0
VERTEX
  5
192D
  8
0
 10
185.5991357498076013
 20
99.008316846502467
 30
0.0
  0
VERTEX
  5
192E
  8
0
 10
185.5809406629392981
 20
99.0066815994810412
 30
0.0
  0
VERTEX
  5
192F
  8
0
 10
185.5626804473371863
 20
99.0052846088968153
 30
0.0
  0
VERTEX
  5
1930
  8
0
 10
185.5443644071060021
 20
99.004091838115869
 30
0.0
  0
VERTEX
  5
1931
  8
0
 10
185.5260018463505958
 20
99.0030692505043532
 30
0.0
  0
VERTEX
  5
1932
  8
0
 10
185.507602069175789
 20
99.0021828094283762
 30
0.0
  0
VERTEX
  5
1933
  8
0
 10
185.4891743796864887
 20
99.0013984782540462
 30
0.0
  0
VERTEX
  5
1934
  8
0
 10
185.4707280819874882
 20
99.0006822203474854
 30
0.0
  0
VERTEX
  5
1935
  8
0
 10
185.4522724801836944
 20
98.9999999990748165
 30
0.0
  0
SEQEND
  5
1936
  8
0
  0
POLYLINE
  5
1512
  8
0
 66
     1
 10
0.0
 20
0.0
 30
0.0
  0
VERTEX
  5
1937
  8
0
 10
164.5477275198165898
 20
98.9999999990748165
 30
0.0
  0
VERTEX
  5
1938
  8
0
 10
164.5286620722658029
 20
99.0003546688601546
 30
0.0
  0
VERTEX
  5
1939
  8
0
 10
164.5096068429699869
 20
99.0007814661677656
 30
0.0
  0
VERTEX
  5
193A
  8
0
 10
164.490572050184312
 20
99.0013525185200081
 30
0.0
  0
VERTEX
  5
193B
  8
0
 10
164.4715679121636072
 20
99.0021399534391833
 30
0.0
  0
VERTEX
  5
193C
  8
0
 10
164.4526046454683126
 20
99.0032151040455943
 30
0.0
  0
VERTEX
  5
193D
  8
0
 10
164.433692391204886
 20
99.0046139359546231
 30
0.0
  0
VERTEX
  5
193E
  8
0
 10
164.414841186537501
 20
99.0063236936449726
 30
0.0
  0
VERTEX
  5
193F
  8
0
 10
164.396061061053814
 20
99.0083280702684334
 30
0.0
  0
VERTEX
  5
1940
  8
0
 10
164.3773620443411119
 20
99.0106107589769948
 30
0.0
  0
VERTEX
  5
1941
  8
0
 10
164.3587541442917086
 20
99.0131568371712945
 30
0.0
  0
VERTEX
  5
1942
  8
0
 10
164.3402471493259043
 20
99.0159653851534216
 30
0.0
  0
VERTEX
  5
1943
  8
0
 10
164.3218507204103958
 20
99.0190436151687834
 30
0.0
  0
VERTEX
  5
1944
  8
0
 10
164.303574516941012
 20
99.0223988396738832
 30
0.0
  0
VERTEX
  5
1945
  8
0
 10
164.2854281983136957
 20
99.0260383711252956
 30
0.0
  0
VERTEX
  5
1946
  8
0
 10
164.2674213266159029
 20
99.0299684810871952
 30
0.0
  0
VERTEX
  5
1947
  8
0
 10
164.2495630702636902
 20
99.0341912300804381
 30
0.0
  0
VERTEX
  5
1948
  8
0
 10
164.2318624981328981
 20
99.0387076138613764
 30
0.0
  0
VERTEX
  5
1949
  8
0
 10
164.2143286790993102
 20
99.0435186281862485
 30
0.0
  0
VERTEX
  5
194A
  8
0
 10
164.1969706795314039
 20
99.048625272301976
 30
0.0
  0
VERTEX
  5
194B
  8
0
 10
164.1797972848524125
 20
99.0540289365742552
 30
0.0
  0
VERTEX
  5
194C
  8
0
 10
164.162816746520889
 20
99.0597317547286451
 30
0.0
  0
VERTEX
  5
194D
  8
0
 10
164.1460372562447105
 20
99.065735943672891
 30
0.0
  0
VERTEX
  5
194E
  8
0
 10
164.1294670057316125
 20
99.0720437203146531
 30
0.0
  0
VERTEX
  5
194F
  8
0
 10
164.1131141633917991
 20
99.0786572784813586
 30
0.0
  0
VERTEX
  5
1950
  8
0
 10
164.0969863522587957
 20
99.0855782717158604
 30
0.0
  0
VERTEX
  5
1951
  8
0
 10
164.0810906446436093
 20
99.0928078079800656
 30
0.0
  0
VERTEX
  5
1952
  8
0
 10
164.065434088489809
 20
99.100346971096215
 30
0.0
  0
VERTEX
  5
1953
  8
0
 10
164.0500237317415042
 20
99.1081968448867201
 30
0.0
  0
VERTEX
  5
1954
  8
0
 10
164.0348665237025045
 20
99.1163584396842623
 30
0.0
  0
VERTEX
  5
1955
  8
0
 10
164.019968439282195
 20
99.1248320398671439
 30
0.0
  0
VERTEX
  5
1956
  8
0
 10
164.0053348979324142
 20
99.1336175159806885
 30
0.0
  0
VERTEX
  5
1957
  8
0
 10
163.9909713126419035
 20
99.1427147337552128
 30
0.0
  0
VERTEX
  5
1958
  8
0
 10
163.9768830963996038
 20
99.1521235589210477
 30
0.0
  0
VERTEX
  5
1959
  8
0
 10
163.963075499877192
 20
99.1618437790587564
 30
0.0
  0
VERTEX
  5
195A
  8
0
 10
163.9495529061427987
 20
99.1718747640306759
 30
0.0
  0
VERTEX
  5
195B
  8
0
 10
163.9363194095788003
 20
99.1822157447077331
 30
0.0
  0
VERTEX
  5
195C
  8
0
 10
163.9233791043726001
 20
99.1928659518669207
 30
0.0
  0
VERTEX
  5
195D
  8
0
 10
163.9107360845646895
 20
99.2038246161028354
 30
0.0
  0
VERTEX
  5
195E
  8
0
 10
163.8983936894541955
 20
99.2150900291940729
 30
0.0
  0
VERTEX
  5
195F
  8
0
 10
163.8863527458863132
 20
99.2266573577021944
 30
0.0
  0
VERTEX
  5
1960
  8
0
 10
163.874613558559588
 20
99.2385211186947913
 30
0.0
  0
VERTEX
  5
1961
  8
0
 10
163.8631764321721107
 20
99.2506758292393556
 30
0.0
  0
VERTEX
  5
1962
  8
0
 10
163.8520416709048959
 20
99.2631160078516217
 30
0.0
  0
VERTEX
  5
1963
  8
0
 10
163.8412094161629966
 20
99.2758366287749254
 30
0.0
  0
VERTEX
  5
1964
  8
0
 10
163.8306794157855961
 20
99.2888337681284554
 30
0.0
  0
VERTEX
  5
1965
  8
0
 10
163.8204513593072136
 20
99.302103665268703
 30
0.0
  0
VERTEX
  5
1966
  8
0
 10
163.8105249362619134
 20
99.3156425595521881
 30
0.0
  0
VERTEX
  5
1967
  8
0
 10
163.8008998382171058
 20
99.3294466924235309
 30
0.0
  0
VERTEX
  5
1968
  8
0
 10
163.7915764880976894
 20
99.3435130566899005
 30
0.0
  0
VERTEX
  5
1969
  8
0
 10
163.7825571209698978
 20
99.3578405068655997
 30
0.0
  0
VERTEX
  5
196A
  8
0
 10
163.773844247731688
 20
99.3724281808416663
 30
0.0
  0
VERTEX
  5
196B
  8
0
 10
163.7654403792813014
 20
99.3872752165091384
 30
0.0
  0
VERTEX
  5
196C
  8
0
 10
163.7573480265168087
 20
99.4023807517590114
 30
0.0
  0
VERTEX
  5
196D
  8
0
 10
163.7495692493162096
 20
99.4177434206453512
 30
0.0
  0
VERTEX
  5
196E
  8
0
 10
163.7420990989245979
 20
99.433354027843194
 30
0.0
  0
VERTEX
  5
196F
  8
0
 10
163.7349270951625044
 20
99.4491971988450842
 30
0.0
  0
VERTEX
  5
1970
  8
0
 10
163.7280426074702859
 20
99.4652573911532158
 30
0.0
  0
VERTEX
  5
1971
  8
0
 10
163.7214350052882992
 20
99.4815190622696406
 30
0.0
  0
VERTEX
  5
1972
  8
0
 10
163.7150936580569009
 20
99.4979666696965666
 30
0.0
  0
VERTEX
  5
1973
  8
0
 10
163.7090079352163912
 20
99.514584670936074
 30
0.0
  0
VERTEX
  5
1974
  8
0
 10
163.7031696836021126
 20
99.5313604406924952
 30
0.0
  0
VERTEX
  5
1975
  8
0
 10
163.6975824192278139
 20
99.548295094455753
 30
0.0
  0
VERTEX
  5
1976
  8
0
 10
163.692253090717287
 20
99.5653937897102566
 30
0.0
  0
VERTEX
  5
1977
  8
0
 10
163.6871885804758904
 20
99.5826616101766859
 30
0.0
  0
VERTEX
  5
1978
  8
0
 10
163.6823903117021075
 20
99.6000975558576442
 30
0.0
  0
VERTEX
  5
1979
  8
0
 10
163.6778502802247885
 20
99.6176901209327639
 30
0.0
  0
VERTEX
  5
197A
  8
0
 10
163.6735595465166
 20
99.6354267572244368
 30
0.0
  0
VERTEX
  5
197B
  8
0
 10
163.6695091710504926
 20
99.6532949165550264
 30
0.0
  0
VERTEX
  5
197C
  8
0
 10
163.6656911974924924
 20
99.6712832747575135
 30
0.0
  0
VERTEX
  5
197D
  8
0
 10
163.6621019853197936
 20
99.6893858805617725
 30
0.0
  0
VERTEX
  5
197E
  8
0
 10
163.6587390778670112
 20
99.7075982565218908
 30
0.0
  0
VERTEX
  5
197F
  8
0
 10
163.6556000185011044
 20
99.7259159252318881
 30
0.0
  0
VERTEX
  5
1980
  8
0
 10
163.6526823505892025
 20
99.7443344092857842
 30
0.0
  0
VERTEX
  5
1981
  8
0
 10
163.6499836175269138
 20
99.7628492311156521
 30
0.0
  0
VERTEX
  5
1982
  8
0
 10
163.647501508685508
 20
99.781455095583496
 30
0.0
  0
VERTEX
  5
1983
  8
0
 10
163.6452341987595105
 20
99.8001439893825903
 30
0.0
  0
VERTEX
  5
1984
  8
0
 10
163.6431799631756974
 20
99.8189073350317102
 30
0.0
  0
VERTEX
  5
1985
  8
0
 10
163.6413370773607028
 20
99.8377365550496165
 30
0.0
  0
VERTEX
  5
1986
  8
0
 10
163.639703816741104
 20
99.8566230719551271
 30
0.0
  0
VERTEX
  5
1987
  8
0
 10
163.6382784567435067
 20
99.8755583082670029
 30
0.0
  0
VERTEX
  5
1988
  8
0
 10
163.6370592727948008
 20
99.8945336865040048
 30
0.0
  0
VERTEX
  5
1989
  8
0
 10
163.6360445403215067
 20
99.9135406291849648
 30
0.0
  0
VERTEX
  5
198A
  8
0
 10
163.6352325347504006
 20
99.9325705588286439
 30
0.0
  0
VERTEX
  5
198B
  8
0
 10
163.6346215315080883
 20
99.9516148979538031
 30
0.0
  0
VERTEX
  5
198C
  8
0
 10
163.6342097993853884
 20
99.9706651616352815
 30
0.0
  0
VERTEX
  5
198D
  8
0
 10
163.6339951760282929
 20
99.9897189156724409
 30
0.0
  0
VERTEX
  5
198E
  8
0
 10
163.6339766232360944
 20
100.0087791813497944
 30
0.0
  0
VERTEX
  5
198F
  8
0
 10
163.6341578983306135
 20
100.0278385348248946
 30
0.0
  0
VERTEX
  5
1990
  8
0
 10
163.6345435608739081
 20
100.0468876836407048
 30
0.0
  0
VERTEX
  5
1991
  8
0
 10
163.6351376015140886
 20
100.0659178308122961
 30
0.0
  0
VERTEX
  5
1992
  8
0
 10
163.6359396215848108
 20
100.0849240020536968
 30
0.0
  0
VERTEX
  5
1993
  8
0
 10
163.6369471804480895
 20
100.1039030014518971
 30
0.0
  0
VERTEX
  5
1994
  8
0
 10
163.6381578261216987
 20
100.1228516429742967
 30
0.0
  0
VERTEX
  5
1995
  8
0
 10
163.639569350416707
 20
100.1417665294232933
 30
0.0
  0
VERTEX
  5
1996
  8
0
 10
163.6411827737464932
 20
100.1606414671075953
 30
0.0
  0
VERTEX
  5
1997
  8
0
 10
163.6430014035387046
 20
100.1794682814100952
 30
0.0
  0
VERTEX
  5
1998
  8
0
 10
163.6450285956505866
 20
100.198238755765999
 30
0.0
  0
VERTEX
  5
1999
  8
0
 10
163.647267705939214
 20
100.2169446736104987
 30
0.0
  0
VERTEX
  5
199A
  8
0
 10
163.649722090261605
 20
100.2355778183788004
 30
0.0
  0
VERTEX
  5
199B
  8
0
 10
163.6523951044750049
 20
100.2541299735059965
 30
0.0
  0
VERTEX
  5
199C
  8
0
 10
163.6552901044362898
 20
100.2725929224274068
 30
0.0
  0
VERTEX
  5
199D
  8
0
 10
163.6584104460029039
 20
100.2909584485781949
 30
0.0
  0
VERTEX
  5
199E
  8
0
 10
163.6617594850316095
 20
100.3092183353935951
 30
0.0
  0
VERTEX
  5
199F
  8
0
 10
163.665340577379709
 20
100.3273643663086006
 30
0.0
  0
VERTEX
  5
19A0
  8
0
 10
163.6691570789043055
 20
100.3453883247587015
 30
0.0
  0
VERTEX
  5
19A1
  8
0
 10
163.6732123635468952
 20
100.3632821655488954
 30
0.0
  0
VERTEX
  5
19A2
  8
0
 10
163.6775099239683016
 20
100.3810389684692979
 30
0.0
  0
VERTEX
  5
19A3
  8
0
 10
163.6820533007089011
 20
100.3986522670219017
 30
0.0
  0
VERTEX
  5
19A4
  8
0
 10
163.6868460344416008
 20
100.4161155959644987
 30
0.0
  0
VERTEX
  5
19A5
  8
0
 10
163.6918916658395915
 20
100.4334224900548946
 30
0.0
  0
VERTEX
  5
19A6
  8
0
 10
163.6971937355758939
 20
100.4505664840508956
 30
0.0
  0
VERTEX
  5
19A7
  8
0
 10
163.7027557843233865
 20
100.4675411127106059
 30
0.0
  0
VERTEX
  5
19A8
  8
0
 10
163.7085813527552034
 20
100.4843399107916042
 30
0.0
  0
VERTEX
  5
19A9
  8
0
 10
163.7146739815443937
 20
100.5009564130518953
 30
0.0
  0
VERTEX
  5
19AA
  8
0
 10
163.7210372286949962
 20
100.5173841091405933
 30
0.0
  0
VERTEX
  5
19AB
  8
0
 10
163.7276749247812972
 20
100.5336157792690983
 30
0.0
  0
VERTEX
  5
19AC
  8
0
 10
163.7345911171910018
 20
100.5496436393341071
 30
0.0
  0
VERTEX
  5
19AD
  8
0
 10
163.741789859307687
 20
100.565459889625501
 30
0.0
  0
VERTEX
  5
19AE
  8
0
 10
163.7492752045152997
 20
100.5810567304332039
 30
0.0
  0
VERTEX
  5
19AF
  8
0
 10
163.7570512061975023
 20
100.5964263620472963
 30
0.0
  0
VERTEX
  5
19B0
  8
0
 10
163.7651219177382131
 20
100.6115609847574035
 30
0.0
  0
VERTEX
  5
19B1
  8
0
 10
163.7734913924579985
 20
100.6264527989179953
 30
0.0
  0
VERTEX
  5
19B2
  8
0
 10
163.7821631283518968
 20
100.6410945725806982
 30
0.0
  0
VERTEX
  5
19B3
  8
0
 10
163.7911387157151069
 20
100.6554810239972966
 30
0.0
  0
VERTEX
  5
19B4
  8
0
 10
163.8004193355141922
 20
100.6696072898668035
 30
0.0
  0
VERTEX
  5
19B5
  8
0
 10
163.810006168716086
 20
100.6834685068881043
 30
0.0
  0
VERTEX
  5
19B6
  8
0
 10
163.8199003962878066
 20
100.6970598117600986
 30
0.0
  0
VERTEX
  5
19B7
  8
0
 10
163.8301031991960031
 20
100.7103763411816999
 30
0.0
  0
VERTEX
  5
19B8
  8
0
 10
163.8406157584076936
 20
100.7234132318518931
 30
0.0
  0
VERTEX
  5
19B9
  8
0
 10
163.8514389450812985
 20
100.7361657879835946
 30
0.0
  0
VERTEX
  5
19BA
  8
0
 10
163.8625715367822124
 20
100.7486304457998045
 30
0.0
  0
VERTEX
  5
19BB
  8
0
 10
163.8740114443085076
 20
100.7608041101862
 30
0.0
  0
VERTEX
  5
19BC
  8
0
 10
163.8857565756891859
 20
100.7726836875259977
 30
0.0
  0
VERTEX
  5
19BD
  8
0
 10
163.8978048389533058
 20
100.7842660842023008
 30
0.0
  0
VERTEX
  5
19BE
  8
0
 10
163.9101541421298123
 20
100.7955482065978998
 30
0.0
  0
VERTEX
  5
19BF
  8
0
 10
163.9228023932477072
 20
100.8065269610958978
 30
0.0
  0
VERTEX
  5
19C0
  8
0
 10
163.935747500336106
 20
100.8171992540794975
 30
0.0
  0
VERTEX
  5
19C1
  8
0
 10
163.9489873714240105
 20
100.8275619919316028
 30
0.0
  0
VERTEX
  5
19C2
  8
0
 10
163.9625194408461084
 20
100.8376124609841042
 30
0.0
  0
VERTEX
  5
19C3
  8
0
 10
163.976338728226807
 20
100.8473498844005007
 30
0.0
  0
VERTEX
  5
19C4
  8
0
 10
163.9904394857175873
 20
100.8567741009321992
 30
0.0
  0
VERTEX
  5
19C5
  8
0
 10
164.0048159651520905
 20
100.8658849495855065
 30
0.0
  0
VERTEX
  5
19C6
  8
0
 10
164.019462418363787
 20
100.8746822693667013
 30
0.0
  0
VERTEX
  5
19C7
  8
0
 10
164.0343730971862897
 20
100.8831658992824032
 30
0.0
  0
VERTEX
  5
19C8
  8
0
 10
164.0495422534528984
 20
100.8913356783387059
 30
0.0
  0
VERTEX
  5
19C9
  8
0
 10
164.0649641389975102
 20
100.8991914455421011
 30
0.0
  0
VERTEX
  5
19CA
  8
0
 10
164.0806330053264048
 20
100.906733040546996
 30
0.0
  0
VERTEX
  5
19CB
  8
0
 10
164.0965426033504002
 20
100.9139612959007053
 30
0.0
  0
VERTEX
  5
19CC
  8
0
 10
164.1126851741157111
 20
100.9208800388446008
 30
0.0
  0
VERTEX
  5
19CD
  8
0
 10
164.1290526751390075
 20
100.9274936589789036
 30
0.0
  0
VERTEX
  5
19CE
  8
0
 10
164.1456370639369879
 20
100.9338065459034937
 30
0.0
  0
VERTEX
  5
19CF
  8
0
 10
164.1624302980264929
 20
100.9398230892182937
 30
0.0
  0
VERTEX
  5
19D0
  8
0
 10
164.1794243349241924
 20
100.945547678523198
 30
0.0
  0
VERTEX
  5
19D1
  8
0
 10
164.1966111321466997
 20
100.9509847034182002
 30
0.0
  0
VERTEX
  5
19D2
  8
0
 10
164.2139826472107984
 20
100.956138553503294
 30
0.0
  0
VERTEX
  5
19D3
  8
0
 10
164.2315308297482943
 20
100.9610135536092059
 30
0.0
  0
VERTEX
  5
19D4
  8
0
 10
164.249247095637287
 20
100.9656096441545969
 30
0.0
  0
VERTEX
  5
19D5
  8
0
 10
164.2671219965351952
 20
100.9699196665939951
 30
0.0
  0
VERTEX
  5
19D6
  8
0
 10
164.2851460052712014
 20
100.9739358148617043
 30
0.0
  0
VERTEX
  5
19D7
  8
0
 10
164.3033095946746016
 20
100.9776502828922986
 30
0.0
  0
VERTEX
  5
19D8
  8
0
 10
164.3216032375744078
 20
100.9810552646200961
 30
0.0
  0
VERTEX
  5
19D9
  8
0
 10
164.3400174067998023
 20
100.9841429539797986
 30
0.0
  0
VERTEX
  5
19DA
  8
0
 10
164.358542575179996
 20
100.9869055449055963
 30
0.0
  0
VERTEX
  5
19DB
  8
0
 10
164.3771692155441997
 20
100.9893352313322055
 30
0.0
  0
VERTEX
  5
19DC
  8
0
 10
164.3958877747170106
 20
100.9914259308150974
 30
0.0
  0
VERTEX
  5
19DD
  8
0
 10
164.4146883110240083
 20
100.9931973113141055
 30
0.0
  0
VERTEX
  5
19DE
  8
0
 10
164.4335605840323069
 20
100.9946888430265943
 30
0.0
  0
VERTEX
  5
19DF
  8
0
 10
164.4524943456416963
 20
100.9959405043505001
 30
0.0
  0
VERTEX
  5
19E0
  8
0
 10
164.4714793477521084
 20
100.996992273683901
 30
0.0
  0
VERTEX
  5
19E1
  8
0
 10
164.4905053422633046
 20
100.9978841294249037
 30
0.0
  0
VERTEX
  5
19E2
  8
0
 10
164.5095620810749892
 20
100.9986560499716006
 30
0.0
  0
VERTEX
  5
19E3
  8
0
 10
164.5286393160870944
 20
100.9993480137220985
 30
0.0
  0
VERTEX
  5
19E4
  8
0
 10
164.5477267991994097
 20
100.9999999990746034
 30
0.0
  0
SEQEND
  5
19E5
  8
0
  0
POLYLINE
  5
1513
  8
0
 66
     1
 10
0.0
 20
0.0
 30
0.0
  0
VERTEX
  5
19E6
  8
0
 10
165.1005060218633957
 20
103.4999999990751007
 30
0.0
  0
VERTEX
  5
19E7
  8
0
 10
165.079830679102713
 20
103.5003884310334996
 30
0.0
  0
VERTEX
  5
19E8
  8
0
 10
165.0591671182610014
 20
103.500861500798095
 30
0.0
  0
VERTEX
  5
19E9
  8
0
 10
165.0385271212570899
 20
103.5015038461751971
 30
0.0
  0
VERTEX
  5
19EA
  8
0
 10
165.0179224700102054
 20
103.5024001049710023
 30
0.0
  0
VERTEX
  5
19EB
  8
0
 10
164.9973649956554027
 20
103.5036335303537953
 30
0.0
  0
VERTEX
  5
19EC
  8
0
 10
164.9768680630822075
 20
103.5052442251607943
 30
0.0
  0
VERTEX
  5
19ED
  8
0
 10
164.9564468342134944
 20
103.5072217348540988
 30
0.0
  0
VERTEX
  5
19EE
  8
0
 10
164.9361165732589996
 20
103.5095527271843991
 30
0.0
  0
VERTEX
  5
19EF
  8
0
 10
164.9158925444282033
 20
103.512223869902698
 30
0.0
  0
VERTEX
  5
19F0
  8
0
 10
164.895790454036387
 20
103.515225233020999
 30
0.0
  0
VERTEX
  5
19F1
  8
0
 10
164.8758284977836013
 20
103.5185660438231992
 30
0.0
  0
VERTEX
  5
19F2
  8
0
 10
164.8560257419381117
 20
103.5222622291240953
 30
0.0
  0
VERTEX
  5
19F3
  8
0
 10
164.8364012536860912
 20
103.5263297228041068
 30
0.0
  0
VERTEX
  5
19F4
  8
0
 10
164.8169741391311049
 20
103.5307844076581034
 30
0.0
  0
VERTEX
  5
19F5
  8
0
 10
164.7977653038441872
 20
103.5356398043777943
 30
0.0
  0
VERTEX
  5
19F6
  8
0
 10
164.7787981717522996
 20
103.5409061278894995
 30
0.0
  0
VERTEX
  5
19F7
  8
0
 10
164.7600963545881996
 20
103.5465933465928998
 30
0.0
  0
VERTEX
  5
19F8
  8
0
 10
164.7416834640847867
 20
103.5527114288876049
 30
0.0
  0
VERTEX
  5
19F9
  8
0
 10
164.7235836093032049
 20
103.5592704877406049
 30
0.0
  0
VERTEX
  5
19FA
  8
0
 10
164.7058235007413884
 20
103.566281392323603
 30
0.0
  0
VERTEX
  5
19FB
  8
0
 10
164.6884306966510962
 20
103.573755258239899
 30
0.0
  0
VERTEX
  5
19FC
  8
0
 10
164.671432755747702
 20
103.5817032012271994
 30
0.0
  0
VERTEX
  5
19FD
  8
0
 10
164.6548572583321004
 20
103.5901362229845972
 30
0.0
  0
VERTEX
  5
19FE
  8
0
 10
164.6387322703021141
 20
103.5990627597309981
 30
0.0
  0
VERTEX
  5
19FF
  8
0
 10
164.6230863371897897
 20
103.6084887137053983
 30
0.0
  0
VERTEX
  5
1A00
  8
0
 10
164.6079480249206028
 20
103.6184198794077957
 30
0.0
  0
VERTEX
  5
1A01
  8
0
 10
164.5933458971572918
 20
103.6288620476770035
 30
0.0
  0
VERTEX
  5
1A02
  8
0
 10
164.5793070919980039
 20
103.6398187016655044
 30
0.0
  0
VERTEX
  5
1A03
  8
0
 10
164.5658548848475107
 20
103.6512870716511969
 30
0.0
  0
VERTEX
  5
1A04
  8
0
 10
164.5530119032233074
 20
103.6632633391208032
 30
0.0
  0
VERTEX
  5
1A05
  8
0
 10
164.5408007746432872
 20
103.6757436855611019
 30
0.0
  0
VERTEX
  5
1A06
  8
0
 10
164.5292432799678011
 20
103.6887235473596007
 30
0.0
  0
VERTEX
  5
1A07
  8
0
 10
164.5183536993802988
 20
103.7021917599444976
 30
0.0
  0
VERTEX
  5
1A08
  8
0
 10
164.508142394501192
 20
103.716133710218898
 30
0.0
  0
VERTEX
  5
1A09
  8
0
 10
164.4986196928414017
 20
103.7305347550677936
 30
0.0
  0
VERTEX
  5
1A0A
  8
0
 10
164.4897958536371902
 20
103.745380217089803
 30
0.0
  0
VERTEX
  5
1A0B
  8
0
 10
164.4816741978434038
 20
103.7606519346077931
 30
0.0
  0
VERTEX
  5
1A0C
  8
0
 10
164.4742452299246906
 20
103.7763253097420062
 30
0.0
  0
VERTEX
  5
1A0D
  8
0
 10
164.4674980697583067
 20
103.7923750492986983
 30
0.0
  0
VERTEX
  5
1A0E
  8
0
 10
164.4614218372215078
 20
103.8087758600837986
 30
0.0
  0
VERTEX
  5
1A0F
  8
0
 10
164.4560056540684911
 20
103.825502736810904
 30
0.0
  0
VERTEX
  5
1A10
  8
0
 10
164.4512386700505999
 20
103.8425349686278025
 30
0.0
  0
VERTEX
  5
1A11
  8
0
 10
164.4471100564259984
 20
103.8598551436507051
 30
0.0
  0
VERTEX
  5
1A12
  8
0
 10
164.4436089850038911
 20
103.8774459344594021
 30
0.0
  0
VERTEX
  5
1A13
  8
0
 10
164.4407246275933971
 20
103.8952900136335984
 30
0.0
  0
VERTEX
  5
1A14
  8
0
 10
164.4384457399301027
 20
103.9133699406480957
 30
0.0
  0
VERTEX
  5
1A15
  8
0
 10
164.4367537175041036
 20
103.931666274179193
 30
0.0
  0
VERTEX
  5
1A16
  8
0
 10
164.43562364702791
 20
103.9501578579339025
 30
0.0
  0
VERTEX
  5
1A17
  8
0
 10
164.4350304110022023
 20
103.9688234801065931
 30
0.0
  0
VERTEX
  5
1A18
  8
0
 10
164.4349488919276041
 20
103.9876419288916054
 30
0.0
  0
VERTEX
  5
1A19
  8
0
 10
164.4353539723045969
 20
104.006591992483294
 30
0.0
  0
VERTEX
  5
1A1A
  8
0
 10
164.4362206499855006
 20
104.0256525733644963
 30
0.0
  0
VERTEX
  5
1A1B
  8
0
 10
164.4375290626641117
 20
104.0448076664853971
 30
0.0
  0
VERTEX
  5
1A1C
  8
0
 10
164.4392664309968097
 20
104.0640482844746941
 30
0.0
  0
VERTEX
  5
1A1D
  8
0
 10
164.4414204921864098
 20
104.0833659517466998
 30
0.0
  0
VERTEX
  5
1A1E
  8
0
 10
164.4439789785193966
 20
104.1027521924049069
 30
0.0
  0
VERTEX
  5
1A1F
  8
0
 10
164.446928435684697
 20
104.122198455582506
 30
0.0
  0
VERTEX
  5
1A20
  8
0
 10
164.4502526872533963
 20
104.141696018427794
 30
0.0
  0
VERTEX
  5
1A21
  8
0
 10
164.453935176620206
 20
104.1612361340690995
 30
0.0
  0
VERTEX
  5
1A22
  8
0
 10
164.4579593471798091
 20
104.1808100556345948
 30
0.0
  0
VERTEX
  5
1A23
  8
0
 10
164.4623088496389016
 20
104.2004090511988039
 30
0.0
  0
VERTEX
  5
1A24
  8
0
 10
164.4669704812382065
 20
104.220024615682604
 30
0.0
  0
VERTEX
  5
1A25
  8
0
 10
164.4719334844043885
 20
104.2396484202909051
 30
0.0
  0
VERTEX
  5
1A26
  8
0
 10
164.4771871658043949
 20
104.2592721408598067
 30
0.0
  0
VERTEX
  5
1A27
  8
0
 10
164.4827208321052012
 20
104.2788874532253942
 30
0.0
  0
VERTEX
  5
1A28
  8
0
 10
164.4885237899738968
 20
104.2984860332237957
 30
0.0
  0
VERTEX
  5
1A29
  8
0
 10
164.4945853460774003
 20
104.3180595566911961
 30
0.0
  0
VERTEX
  5
1A2A
  8
0
 10
164.5008948070828865
 20
104.3375996994636949
 30
0.0
  0
VERTEX
  5
1A2B
  8
0
 10
164.5074414796571887
 20
104.3570981373775055
 30
0.0
  0
VERTEX
  5
1A2C
  8
0
 10
164.514214670467311
 20
104.376546546268699
 30
0.0
  0
VERTEX
  5
1A2D
  8
0
 10
164.5212037011775976
 20
104.3959366132836948
 30
0.0
  0
VERTEX
  5
1A2E
  8
0
 10
164.5284007529884889
 20
104.4152621821236977
 30
0.0
  0
VERTEX
  5
1A2F
  8
0
 10
164.5358042367377891
 20
104.4345217946477931
 30
0.0
  0
VERTEX
  5
1A30
  8
0
 10
164.5434133833520036
 20
104.4537146111948971
 30
0.0
  0
VERTEX
  5
1A31
  8
0
 10
164.5512268877122892
 20
104.4728392768821976
 30
0.0
  0
VERTEX
  5
1A32
  8
0
 10
164.5592396218067108
 20
104.4918907624356024
 30
0.0
  0
VERTEX
  5
1A33
  8
0
 10
164.5674447970399967
 20
104.5108624425046031
 30
0.0
  0
VERTEX
  5
1A34
  8
0
 10
164.5758356160536096
 20
104.529747797769403
 30
0.0
  0
VERTEX
  5
1A35
  8
0
 10
164.5844052184056068
 20
104.5485438601115931
 30
0.0
  0
VERTEX
  5
1A36
  8
0
 10
164.5931466692890979
 20
104.5672518477371966
 30
0.0
  0
VERTEX
  5
1A37
  8
0
 10
164.6020530318174053
 20
104.585873216828702
 30
0.0
  0
VERTEX
  5
1A38
  8
0
 10
164.611119401288704
 20
104.6044069611057949
 30
0.0
  0
VERTEX
  5
1A39
  8
0
 10
164.6203466670932016
 20
104.6228450534037933
 30
0.0
  0
VERTEX
  5
1A3A
  8
0
 10
164.6297367444713871
 20
104.6411782235023935
 30
0.0
  0
VERTEX
  5
1A3B
  8
0
 10
164.6392915486640902
 20
104.6593972011813065
 30
0.0
  0
VERTEX
  5
1A3C
  8
0
 10
164.6490129949118
 20
104.6774927162203994
 30
0.0
  0
VERTEX
  5
1A3D
  8
0
 10
164.6589029984552894
 20
104.6954554983994967
 30
0.0
  0
VERTEX
  5
1A3E
  8
0
 10
164.6689634745349906
 20
104.7132762774983945
 30
0.0
  0
VERTEX
  5
1A3F
  8
0
 10
164.6791961851216115
 20
104.7309460229174931
 30
0.0
  0
VERTEX
  5
1A40
  8
0
 10
164.6895987770456031
 20
104.7484621376206064
 30
0.0
  0
VERTEX
  5
1A41
  8
0
 10
164.700164424849504
 20
104.7658290164952035
 30
0.0
  0
VERTEX
  5
1A42
  8
0
 10
164.7108860782215061
 20
104.7830514059643008
 30
0.0
  0
VERTEX
  5
1A43
  8
0
 10
164.7217566868496874
 20
104.8001340524507015
 30
0.0
  0
VERTEX
  5
1A44
  8
0
 10
164.7327692744719911
 20
104.8170816059993058
 30
0.0
  0
VERTEX
  5
1A45
  8
0
 10
164.7439206608673885
 20
104.8338937760252065
 30
0.0
  0
VERTEX
  5
1A46
  8
0
 10
164.7552132050678892
 20
104.8505630624842979
 30
0.0
  0
VERTEX
  5
1A47
  8
0
 10
164.7666497044816083
 20
104.8670813947763065
 30
0.0
  0
VERTEX
  5
1A48
  8
0
 10
164.77823295651649
 20
104.8834407023009021
 30
0.0
  0
VERTEX
  5
1A49
  8
0
 10
164.7899657585809905
 20
104.899632914457797
 30
0.0
  0
VERTEX
  5
1A4A
  8
0
 10
164.8018509080829119
 20
104.9156499606469026
 30
0.0
  0
VERTEX
  5
1A4B
  8
0
 10
164.8138912024305966
 20
104.9314837702677039
 30
0.0
  0
VERTEX
  5
1A4C
  8
0
 10
164.8260894390319891
 20
104.9471262727201974
 30
0.0
  0
VERTEX
  5
1A4D
  8
0
 10
164.838448142511993
 20
104.962569945436897
 30
0.0
  0
VERTEX
  5
1A4E
  8
0
 10
164.8509674042255995
 20
104.9778121543887011
 30
0.0
  0
VERTEX
  5
1A4F
  8
0
 10
164.8636460371760109
 20
104.9928528338071061
 30
0.0
  0
VERTEX
  5
1A50
  8
0
 10
164.8764828430172997
 20
105.007691940725195
 30
0.0
  0
VERTEX
  5
1A51
  8
0
 10
164.8894766234035103
 20
105.0223294321753968
 30
0.0
  0
VERTEX
  5
1A52
  8
0
 10
164.9026261799886015
 20
105.0367652651906951
 30
0.0
  0
VERTEX
  5
1A53
  8
0
 10
164.9159303144267028
 20
105.0509993968038032
 30
0.0
  0
VERTEX
  5
1A54
  8
0
 10
164.9293878289649911
 20
105.0650317830863969
 30
0.0
  0
VERTEX
  5
1A55
  8
0
 10
164.942997954844202
 20
105.0788616850962001
 30
0.0
  0
VERTEX
  5
1A56
  8
0
 10
164.9567611081228051
 20
105.0924864443643969
 30
0.0
  0
VERTEX
  5
1A57
  8
0
 10
164.9706779076803116
 20
105.1059030738308024
 30
0.0
  0
VERTEX
  5
1A58
  8
0
 10
164.9847489723960905
 20
105.1191085864356012
 30
0.0
  0
VERTEX
  5
1A59
  8
0
 10
164.9989749211497099
 20
105.1320999951186934
 30
0.0
  0
VERTEX
  5
1A5A
  8
0
 10
165.0133563728205104
 20
105.1448743128200931
 30
0.0
  0
VERTEX
  5
1A5B
  8
0
 10
165.0278939462880032
 20
105.1574285524798995
 30
0.0
  0
VERTEX
  5
1A5C
  8
0
 10
165.0425882604315007
 20
105.1697597270380982
 30
0.0
  0
VERTEX
  5
1A5D
  8
0
 10
165.0574399306360931
 20
105.1818648565466958
 30
0.0
  0
VERTEX
  5
1A5E
  8
0
 10
165.0724491987685099
 20
105.1937417212339057
 30
0.0
  0
VERTEX
  5
1A5F
  8
0
 10
165.0876156063887095
 20
105.2053895265773065
 30
0.0
  0
VERTEX
  5
1A60
  8
0
 10
165.1029386179947096
 20
105.2168076348895056
 30
0.0
  0
VERTEX
  5
1A61
  8
0
 10
165.1184176980844995
 20
105.2279954084832951
 30
0.0
  0
VERTEX
  5
1A62
  8
0
 10
165.134052311155898
 20
105.2389522096714956
 30
0.0
  0
VERTEX
  5
1A63
  8
0
 10
165.1498419217068943
 20
105.2496774007668989
 30
0.0
  0
VERTEX
  5
1A64
  8
0
 10
165.165785994235307
 20
105.2601703440821979
 30
0.0
  0
VERTEX
  5
1A65
  8
0
 10
165.1818839932392109
 20
105.2704304019301986
 30
0.0
  0
VERTEX
  5
1A66
  8
0
 10
165.1981353741502971
 20
105.2804569507904944
 30
0.0
  0
VERTEX
  5
1A67
  8
0
 10
165.2145392541787032
 20
105.2902498956525932
 30
0.0
  0
VERTEX
  5
1A68
  8
0
 10
165.2310943192281059
 20
105.2998098154714057
 30
0.0
  0
VERTEX
  5
1A69
  8
0
 10
165.2477992271736866
 20
105.3091373329995974
 30
0.0
  0
VERTEX
  5
1A6A
  8
0
 10
165.2646526358903998
 20
105.3182330709900043
 30
0.0
  0
VERTEX
  5
1A6B
  8
0
 10
165.2816532032533985
 20
105.3270976521954054
 30
0.0
  0
VERTEX
  5
1A6C
  8
0
 10
165.2987995871376938
 20
105.3357316993686936
 30
0.0
  0
VERTEX
  5
1A6D
  8
0
 10
165.3160904454182969
 20
105.3441358352625059
 30
0.0
  0
VERTEX
  5
1A6E
  8
0
 10
165.3335244359703893
 20
105.3523106826297067
 30
0.0
  0
VERTEX
  5
1A6F
  8
0
 10
165.3511002125551101
 20
105.3602568638784049
 30
0.0
  0
VERTEX
  5
1A70
  8
0
 10
165.3688161154796887
 20
105.3679749751513981
 30
0.0
  0
VERTEX
  5
1A71
  8
0
 10
165.3866699564462124
 20
105.3754655682981962
 30
0.0
  0
VERTEX
  5
1A72
  8
0
 10
165.4046594962931067
 20
105.382729190906403
 30
0.0
  0
VERTEX
  5
1A73
  8
0
 10
165.4227824958587973
 20
105.3897663905632953
 30
0.0
  0
VERTEX
  5
1A74
  8
0
 10
165.4410367159817952
 20
105.3965777148565053
 30
0.0
  0
VERTEX
  5
1A75
  8
0
 10
165.4594199175004974
 20
105.4031637113734945
 30
0.0
  0
VERTEX
  5
1A76
  8
0
 10
165.4779298612535001
 20
105.4095249277016961
 30
0.0
  0
VERTEX
  5
1A77
  8
0
 10
165.4965643080792006
 20
105.4156619114286997
 30
0.0
  0
VERTEX
  5
1A78
  8
0
 10
165.515321018815996
 20
105.4215752101418957
 30
0.0
  0
VERTEX
  5
1A79
  8
0
 10
165.5341976103765091
 20
105.4272657163815978
 30
0.0
  0
VERTEX
  5
1A7A
  8
0
 10
165.5531911242931926
 20
105.4327357017226063
 30
0.0
  0
VERTEX
  5
1A7B
  8
0
 10
165.5722984583350126
 20
105.437987782304404
 30
0.0
  0
VERTEX
  5
1A7C
  8
0
 10
165.5915165102703952
 20
105.4430245742664027
 30
0.0
  0
VERTEX
  5
1A7D
  8
0
 10
165.610842177867994
 20
105.4478486937482984
 30
0.0
  0
VERTEX
  5
1A7E
  8
0
 10
165.6302723588964909
 20
105.4524627568893038
 30
0.0
  0
VERTEX
  5
1A7F
  8
0
 10
165.6498039511245111
 20
105.4568693798291008
 30
0.0
  0
VERTEX
  5
1A80
  8
0
 10
165.669433852320708
 20
105.4610711787071011
 30
0.0
  0
VERTEX
  5
1A81
  8
0
 10
165.6891589602537067
 20
105.4650707696629013
 30
0.0
  0
VERTEX
  5
1A82
  8
0
 10
165.7089761070440943
 20
105.4688701444551953
 30
0.0
  0
VERTEX
  5
1A83
  8
0
 10
165.7288814714819978
 20
105.4724650809873054
 30
0.0
  0
VERTEX
  5
1A84
  8
0
 10
165.7488708577481873
 20
105.4758477942400958
 30
0.0
  0
VERTEX
  5
1A85
  8
0
 10
165.7689400655852126
 20
105.4790104569789975
 30
0.0
  0
VERTEX
  5
1A86
  8
0
 10
165.7890848947353106
 20
105.4819452419698962
 30
0.0
  0
VERTEX
  5
1A87
  8
0
 10
165.8093011449408891
 20
105.4846443219782941
 30
0.0
  0
VERTEX
  5
1A88
  8
0
 10
165.8295846159442135
 20
105.4870998697699065
 30
0.0
  0
VERTEX
  5
1A89
  8
0
 10
165.8499311074878904
 20
105.4893040581102071
 30
0.0
  0
VERTEX
  5
1A8A
  8
0
 10
165.8703364193142136
 20
105.4912490597649963
 30
0.0
  0
VERTEX
  5
1A8B
  8
0
 10
165.8907962652031927
 20
105.4929287723929008
 30
0.0
  0
VERTEX
  5
1A8C
  8
0
 10
165.911305266024101
 20
105.4943590236723026
 30
0.0
  0
VERTEX
  5
1A8D
  8
0
 10
165.9318572903927134
 20
105.4955707357738959
 30
0.0
  0
VERTEX
  5
1A8E
  8
0
 10
165.9524461920879901
 20
105.4965951285804948
 30
0.0
  0
VERTEX
  5
1A8F
  8
0
 10
165.9730658248888062
 20
105.4974634219745013
 30
0.0
  0
VERTEX
  5
1A90
  8
0
 10
165.9937100425740084
 20
105.4982068358383032
 30
0.0
  0
VERTEX
  5
1A91
  8
0
 10
166.0143726989223865
 20
105.4988565900547002
 30
0.0
  0
VERTEX
  5
1A92
  8
0
 10
166.0350476477130996
 20
105.4994439045058954
 30
0.0
  0
VERTEX
  5
1A93
  8
0
 10
166.0557287427247957
 20
105.4999999990747028
 30
0.0
  0
SEQEND
  5
1A94
  8
0
  0
POLYLINE
  5
1514
  8
0
 66
     1
 10
0.0
 20
0.0
 30
0.0
  0
VERTEX
  5
1A95
  8
0
 10
166.0557264901113967
 20
94.4999978475565854
 30
0.0
  0
VERTEX
  5
1A96
  8
0
 10
166.0350651223118916
 20
94.5003443517402815
 30
0.0
  0
VERTEX
  5
1A97
  8
0
 10
166.0144102701981978
 20
94.5007440823270457
 30
0.0
  0
VERTEX
  5
1A98
  8
0
 10
165.9937684494562973
 20
94.5012502657199462
 30
0.0
  0
VERTEX
  5
1A99
  8
0
 10
165.9731461757718876
 20
94.501916128321966
 30
0.0
  0
VERTEX
  5
1A9A
  8
0
 10
165.9525499648310074
 20
94.5027948965362725
 30
0.0
  0
VERTEX
  5
1A9B
  8
0
 10
165.9319861945689922
 20
94.503933403643984
 30
0.0
  0
VERTEX
  5
1A9C
  8
0
 10
165.9114603042930867
 20
94.5053349203808324
 30
0.0
  0
VERTEX
  5
1A9D
  8
0
 10
165.8909773418046996
 20
94.5069845473367991
 30
0.0
  0
VERTEX
  5
1A9E
  8
0
 10
165.8705423536040087
 20
94.5088673247274045
 30
0.0
  0
VERTEX
  5
1A9F
  8
0
 10
165.8501603861913907
 20
94.5109682927681263
 30
0.0
  0
VERTEX
  5
1AA0
  8
0
 10
165.8298364686127115
 20
94.5132728786285554
 30
0.0
  0
VERTEX
  5
1AA1
  8
0
 10
165.8095752294258887
 20
94.5157753880557152
 30
0.0
  0
VERTEX
  5
1AA2
  8
0
 10
165.7893808972355032
 20
94.5184789935200627
 30
0.0
  0
VERTEX
  5
1AA3
  8
0
 10
165.7692576832986902
 20
94.5213872520753853
 30
0.0
  0
VERTEX
  5
1AA4
  8
0
 10
165.7492097988724993
 20
94.5245037207755274
 30
0.0
  0
VERTEX
  5
1AA5
  8
0
 10
165.7292414551608033
 20
94.5278319563688854
 30
0.0
  0
VERTEX
  5
1AA6
  8
0
 10
165.7093567108564116
 20
94.5313746425465666
 30
0.0
  0
VERTEX
  5
1AA7
  8
0
 10
165.6895591379999075
 20
94.5351316771289305
 30
0.0
  0
VERTEX
  5
1AA8
  8
0
 10
165.6698522117737866
 20
94.5391024034672682
 30
0.0
  0
VERTEX
  5
1AA9
  8
0
 10
165.6502394073606865
 20
94.543286164912999
 30
0.0
  0
VERTEX
  5
1AAA
  8
0
 10
165.6307241999431881
 20
94.5476823048174282
 30
0.0
  0
VERTEX
  5
1AAB
  8
0
 10
165.6113100439887091
 20
94.5522902282635584
 30
0.0
  0
VERTEX
  5
1AAC
  8
0
 10
165.5920000889607877
 20
94.5571102492521192
 30
0.0
  0
VERTEX
  5
1AAD
  8
0
 10
165.5727972520400897
 20
94.5621433739918587
 30
0.0
  0
VERTEX
  5
1AAE
  8
0
 10
165.5537044445754873
 20
94.5673906260708179
 30
0.0
  0
VERTEX
  5
1AAF
  8
0
 10
165.5347245779155969
 20
94.5728530290770948
 30
0.0
  0
VERTEX
  5
1AB0
  8
0
 10
165.5158605631841056
 20
94.5785316066085784
 30
0.0
  0
VERTEX
  5
1AB1
  8
0
 10
165.4971151909304865
 20
94.5844273875327275
 30
0.0
  0
VERTEX
  5
1AB2
  8
0
 10
165.4784909326986053
 20
94.5905414146586736
 30
0.0
  0
VERTEX
  5
1AB3
  8
0
 10
165.4599902078790876
 20
94.596874733074813
 30
0.0
  0
VERTEX
  5
1AB4
  8
0
 10
165.4416154358627864
 20
94.6034283878695987
 30
0.0
  0
VERTEX
  5
1AB5
  8
0
 10
165.4233690360404978
 20
94.6102034241313845
 30
0.0
  0
VERTEX
  5
1AB6
  8
0
 10
165.40525341816479
 20
94.6172009656783928
 30
0.0
  0
VERTEX
  5
1AB7
  8
0
 10
165.3872709049925049
 20
94.6244228469646629
 30
0.0
  0
VERTEX
  5
1AB8
  8
0
 10
165.3694237731338035
 20
94.6318712793971741
 30
0.0
  0
VERTEX
  5
1AB9
  8
0
 10
165.351714298775704
 20
94.6395484778435048
 30
0.0
  0
VERTEX
  5
1ABA
  8
0
 10
165.3341447581044861
 20
94.6474566571712757
 30
0.0
  0
VERTEX
  5
1ABB
  8
0
 10
165.3167174057907971
 20
94.6555979780068242
 30
0.0
  0
VERTEX
  5
1ABC
  8
0
 10
165.2994338877778091
 20
94.6639730664098238
 30
0.0
  0
VERTEX
  5
1ABD
  8
0
 10
165.2822951703822127
 20
94.6725808351410762
 30
0.0
  0
VERTEX
  5
1ABE
  8
0
 10
165.2653021841711052
 20
94.6814201068375354
 30
0.0
  0
VERTEX
  5
1ABF
  8
0
 10
165.2484558597109867
 20
94.6904897041361551
 30
0.0
  0
VERTEX
  5
1AC0
  8
0
 10
165.2317571301452119
 20
94.6997884640401821
 30
0.0
  0
VERTEX
  5
1AC1
  8
0
 10
165.2152071046388073
 20
94.7093162051580748
 30
0.0
  0
VERTEX
  5
1AC2
  8
0
 10
165.1988071782984946
 20
94.7190743406780911
 30
0.0
  0
VERTEX
  5
1AC3
  8
0
 10
165.1825587724264892
 20
94.7290644298700073
 30
0.0
  0
VERTEX
  5
1AC4
  8
0
 10
165.1664633083248077
 20
94.7392880320036284
 30
0.0
  0
VERTEX
  5
1AC5
  8
0
 10
165.1505222068130081
 20
94.7497467051548767
 30
0.0
  0
VERTEX
  5
1AC6
  8
0
 10
165.1347366326957058
 20
94.760441374012899
 30
0.0
  0
VERTEX
  5
1AC7
  8
0
 10
165.1191070744889942
 20
94.7713712901159511
 30
0.0
  0
VERTEX
  5
1AC8
  8
0
 10
165.1036339103301884
 20
94.7825354319226818
 30
0.0
  0
VERTEX
  5
1AC9
  8
0
 10
165.0883175183566891
 20
94.7939327778917544
 30
0.0
  0
VERTEX
  5
1ACA
  8
0
 10
165.0731582767056977
 20
94.8055623064818604
 30
0.0
  0
VERTEX
  5
1ACB
  8
0
 10
165.0581565393812866
 20
94.817422920150463
 30
0.0
  0
VERTEX
  5
1ACC
  8
0
 10
165.0433125211820879
 20
94.8295130829664146
 30
0.0
  0
VERTEX
  5
1ACD
  8
0
 10
165.0286263871012125
 20
94.8418311021497544
 30
0.0
  0
VERTEX
  5
1ACE
  8
0
 10
165.0140983020685042
 20
94.8543752847224368
 30
0.0
  0
VERTEX
  5
1ACF
  8
0
 10
164.9997284310142049
 20
94.8671439377062455
 30
0.0
  0
VERTEX
  5
1AD0
  8
0
 10
164.9855168868498936
 20
94.8801352790896857
 30
0.0
  0
VERTEX
  5
1AD1
  8
0
 10
164.971462586326993
 20
94.8933454795518116
 30
0.0
  0
VERTEX
  5
1AD2
  8
0
 10
164.9575632501864106
 20
94.9067686627171838
 30
0.0
  0
VERTEX
  5
1AD3
  8
0
 10
164.9438165471800062
 20
94.9203988632279732
 30
0.0
  0
VERTEX
  5
1AD4
  8
0
 10
164.9302201460598098
 20
94.9342301157263222
 30
0.0
  0
VERTEX
  5
1AD5
  8
0
 10
164.9167717155779087
 20
94.9482564548543877
 30
0.0
  0
VERTEX
  5
1AD6
  8
0
 10
164.9034697763680128
 20
94.9624732730925274
 30
0.0
  0
VERTEX
  5
1AD7
  8
0
 10
164.8903166064905861
 20
94.9768819519870249
 30
0.0
  0
VERTEX
  5
1AD8
  8
0
 10
164.8773155196367952
 20
94.9914855238047124
 30
0.0
  0
VERTEX
  5
1AD9
  8
0
 10
164.8644698295302931
 20
95.0062870208641641
 30
0.0
  0
VERTEX
  5
1ADA
  8
0
 10
164.851782849894704
 20
95.0212894754839397
 30
0.0
  0
VERTEX
  5
1ADB
  8
0
 10
164.8392578666037025
 20
95.0364958813780447
 30
0.0
  0
VERTEX
  5
1ADC
  8
0
 10
164.8268959644030929
 20
95.0519061811277481
 30
0.0
  0
VERTEX
  5
1ADD
  8
0
 10
164.8146944705030137
 20
95.0675151087404373
 30
0.0
  0
VERTEX
  5
1ADE
  8
0
 10
164.8026503447937898
 20
95.0833168890562916
 30
0.0
  0
VERTEX
  5
1ADF
  8
0
 10
164.7907605471654904
 20
95.0993057469154337
 30
0.0
  0
VERTEX
  5
1AE0
  8
0
 10
164.7790220375086108
 20
95.1154759071580429
 30
0.0
  0
VERTEX
  5
1AE1
  8
0
 10
164.7674317757131917
 20
95.1318215946242844
 30
0.0
  0
VERTEX
  5
1AE2
  8
0
 10
164.7559867583146911
 20
95.1483370411727236
 30
0.0
  0
VERTEX
  5
1AE3
  8
0
 10
164.7446857127532098
 20
95.1650168101714371
 30
0.0
  0
VERTEX
  5
1AE4
  8
0
 10
164.7335298102300101
 20
95.1818559330268954
 30
0.0
  0
VERTEX
  5
1AE5
  8
0
 10
164.7225204065001947
 20
95.1988494764920858
 30
0.0
  0
VERTEX
  5
1AE6
  8
0
 10
164.7116588573188949
 20
95.2159925073199105
 30
0.0
  0
VERTEX
  5
1AE7
  8
0
 10
164.7009465184412136
 20
95.2332800922633851
 30
0.0
  0
VERTEX
  5
1AE8
  8
0
 10
164.6903847456223957
 20
95.2507072980754828
 30
0.0
  0
VERTEX
  5
1AE9
  8
0
 10
164.6799748946174873
 20
95.2682691915091056
 30
0.0
  0
VERTEX
  5
1AEA
  8
0
 10
164.6697183211817048
 20
95.2859608393172834
 30
0.0
  0
VERTEX
  5
1AEB
  8
0
 10
164.6596163810700091
 20
95.3037773082529327
 30
0.0
  0
VERTEX
  5
1AEC
  8
0
 10
164.6496704300377019
 20
95.3217136650690264
 30
0.0
  0
VERTEX
  5
1AED
  8
0
 10
164.6398818238399997
 20
95.3397649765185236
 30
0.0
  0
VERTEX
  5
1AEE
  8
0
 10
164.6302519182318065
 20
95.357926309354383
 30
0.0
  0
VERTEX
  5
1AEF
  8
0
 10
164.6207820689685093
 20
95.3761927303296062
 30
0.0
  0
VERTEX
  5
1AF0
  8
0
 10
164.611473631805012
 20
95.3945593061971095
 30
0.0
  0
VERTEX
  5
1AF1
  8
0
 10
164.6023297283593934
 20
95.4130225865155523
 30
0.0
  0
VERTEX
  5
1AF2
  8
0
 10
164.5933666616660105
 20
95.4315901893584453
 30
0.0
  0
VERTEX
  5
1AF3
  8
0
 10
164.5846056962134867
 20
95.4502738190411861
 30
0.0
  0
VERTEX
  5
1AF4
  8
0
 10
164.576053277910006
 20
95.4690715475727387
 30
0.0
  0
VERTEX
  5
1AF5
  8
0
 10
164.567704466096103
 20
95.4879709737241029
 30
0.0
  0
VERTEX
  5
1AF6
  8
0
 10
164.5595540297013031
 20
95.5069594291490205
 30
0.0
  0
VERTEX
  5
1AF7
  8
0
 10
164.5515967541143141
 20
95.526024270650467
 30
0.0
  0
VERTEX
  5
1AF8
  8
0
 10
164.5438295484987066
 20
95.5451561000127185
 30
0.0
  0
VERTEX
  5
1AF9
  8
0
 10
164.5362535197666034
 20
95.5643519328911566
 30
0.0
  0
VERTEX
  5
1AFA
  8
0
 10
164.5288702674801868
 20
95.583609537676665
 30
0.0
  0
VERTEX
  5
1AFB
  8
0
 10
164.5216813915199054
 20
95.6029266826332531
 30
0.0
  0
VERTEX
  5
1AFC
  8
0
 10
164.5146906256684929
 20
95.6223002838471245
 30
0.0
  0
VERTEX
  5
1AFD
  8
0
 10
164.5079089238205086
 20
95.6417243740398391
 30
0.0
  0
VERTEX
  5
1AFE
  8
0
 10
164.5013487654078119
 20
95.6611923767068077
 30
0.0
  0
VERTEX
  5
1AFF
  8
0
 10
164.4950226298626035
 20
95.6806977153434275
 30
0.0
  0
VERTEX
  5
1B00
  8
0
 10
164.4889429966167995
 20
95.700233813445081
 30
0.0
  0
VERTEX
  5
1B01
  8
0
 10
164.4831223451026005
 20
95.7197940945071934
 30
0.0
  0
VERTEX
  5
1B02
  8
0
 10
164.4775731547518092
 20
95.7393719820251334
 30
0.0
  0
VERTEX
  5
1B03
  8
0
 10
164.4723078642919063
 20
95.758960888857743
 30
0.0
  0
VERTEX
  5
1B04
  8
0
 10
164.467337439306192
 20
95.7785538429160397
 30
0.0
  0
VERTEX
  5
1B05
  8
0
 10
164.4626709926255046
 20
95.7981433879675421
 30
0.0
  0
VERTEX
  5
1B06
  8
0
 10
164.4583175192003921
 20
95.817722036976491
 30
0.0
  0
VERTEX
  5
1B07
  8
0
 10
164.4542860139818004
 20
95.8372823029070844
 30
0.0
  0
VERTEX
  5
1B08
  8
0
 10
164.4505854719199931
 20
95.8568166987235344
 30
0.0
  0
VERTEX
  5
1B09
  8
0
 10
164.4472257845785066
 20
95.8763173050113977
 30
0.0
  0
VERTEX
  5
1B0A
  8
0
 10
164.4442245548542871
 20
95.8957724836752732
 30
0.0
  0
VERTEX
  5
1B0B
  8
0
 10
164.4416033172832101
 20
95.9151687006429228
 30
0.0
  0
VERTEX
  5
1B0C
  8
0
 10
164.4393836377512912
 20
95.9344924067238765
 30
0.0
  0
VERTEX
  5
1B0D
  8
0
 10
164.4375868254406896
 20
95.9537303647697541
 30
0.0
  0
VERTEX
  5
1B0E
  8
0
 10
164.4362306793360915
 20
95.9728736045285871
 30
0.0
  0
VERTEX
  5
1B0F
  8
0
 10
164.4353304560750928
 20
95.9919162461538207
 30
0.0
  0
VERTEX
  5
1B10
  8
0
 10
164.4349013554974022
 20
96.010852478840377
 30
0.0
  0
VERTEX
  5
1B11
  8
0
 10
164.4349589831604135
 20
96.0296753559836702
 30
0.0
  0
VERTEX
  5
1B12
  8
0
 10
164.435522809994211
 20
96.0483671099302541
 30
0.0
  0
VERTEX
  5
1B13
  8
0
 10
164.4366144482883101
 20
96.066903978324433
 30
0.0
  0
VERTEX
  5
1B14
  8
0
 10
164.4382555330732885
 20
96.085262135147687
 30
0.0
  0
VERTEX
  5
1B15
  8
0
 10
164.4404676993798091
 20
96.1034177543814252
 30
0.0
  0
VERTEX
  5
1B16
  8
0
 10
164.4432725822381087
 20
96.1213470100070566
 30
0.0
  0
VERTEX
  5
1B17
  8
0
 10
164.4466918166791061
 20
96.1390260760060329
 30
0.0
  0
VERTEX
  5
1B18
  8
0
 10
164.4507470377330947
 20
96.1564311263597915
 30
0.0
  0
VERTEX
  5
1B19
  8
0
 10
164.4554598804307943
 20
96.1735383350497415
 30
0.0
  0
VERTEX
  5
1B1A
  8
0
 10
164.4608514019408858
 20
96.1903240001178688
 30
0.0
  0
VERTEX
  5
1B1B
  8
0
 10
164.4669315538035903
 20
96.2067668038611856
 30
0.0
  0
VERTEX
  5
1B1C
  8
0
 10
164.4737002752935098
 20
96.2228475780990067
 30
0.0
  0
VERTEX
  5
1B1D
  8
0
 10
164.48115714723221
 20
96.238547231606475
 30
0.0
  0
VERTEX
  5
1B1E
  8
0
 10
164.4893017504413137
 20
96.2538466731587334
 30
0.0
  0
VERTEX
  5
1B1F
  8
0
 10
164.4981336657426141
 20
96.2687268115309251
 30
0.0
  0
VERTEX
  5
1B20
  8
0
 10
164.5076524739577053
 20
96.2831685554982215
 30
0.0
  0
VERTEX
  5
1B21
  8
0
 10
164.5178577559082953
 20
96.2971528138357513
 30
0.0
  0
VERTEX
  5
1B22
  8
0
 10
164.5287490450226926
 20
96.3106605256488422
 30
0.0
  0
VERTEX
  5
1B23
  8
0
 10
164.5403186695409943
 20
96.3236772411362807
 30
0.0
  0
VERTEX
  5
1B24
  8
0
 10
164.552544093823002
 20
96.3361980229112049
 30
0.0
  0
VERTEX
  5
1B25
  8
0
 10
164.5654009463810894
 20
96.3482191084712412
 30
0.0
  0
VERTEX
  5
1B26
  8
0
 10
164.5788648557281135
 20
96.3597367353138736
 30
0.0
  0
VERTEX
  5
1B27
  8
0
 10
164.5929114503767039
 20
96.3707471409367145
 30
0.0
  0
VERTEX
  5
1B28
  8
0
 10
164.6075163588392911
 20
96.3812465628372763
 30
0.0
  0
VERTEX
  5
1B29
  8
0
 10
164.6226552096285047
 20
96.3912312385131145
 30
0.0
  0
VERTEX
  5
1B2A
  8
0
 10
164.6383036158520952
 20
96.4006974767026321
 30
0.0
  0
VERTEX
  5
1B2B
  8
0
 10
164.6544358368761891
 20
96.409647846551394
 30
0.0
  0
VERTEX
  5
1B2C
  8
0
 10
164.6710237404969916
 20
96.4180959770740316
 30
0.0
  0
VERTEX
  5
1B2D
  8
0
 10
164.6880389502258879
 20
96.4260566269865222
 30
0.0
  0
VERTEX
  5
1B2E
  8
0
 10
164.7054530895742914
 20
96.433544555004886
 30
0.0
  0
VERTEX
  5
1B2F
  8
0
 10
164.7232377820531894
 20
96.4405745198451001
 30
0.0
  0
VERTEX
  5
1B30
  8
0
 10
164.7413646511741092
 20
96.4471612802231704
 30
0.0
  0
VERTEX
  5
1B31
  8
0
 10
164.7598053204480948
 20
96.4533195948550741
 30
0.0
  0
VERTEX
  5
1B32
  8
0
 10
164.7785314588271035
 20
96.4590641355290472
 30
0.0
  0
VERTEX
  5
1B33
  8
0
 10
164.7975177324640015
 20
96.4644038403742883
 30
0.0
  0
VERTEX
  5
1B34
  8
0
 10
164.8167436159434089
 20
96.4693384489688128
 30
0.0
  0
VERTEX
  5
1B35
  8
0
 10
164.8361890171053972
 20
96.4738668720709569
 30
0.0
  0
VERTEX
  5
1B36
  8
0
 10
164.8558338437904069
 20
96.4779880204390139
 30
0.0
  0
VERTEX
  5
1B37
  8
0
 10
164.8756580038383959
 20
96.481700804831334
 30
0.0
  0
VERTEX
  5
1B38
  8
0
 10
164.895641405089691
 20
96.4850041360062249
 30
0.0
  0
VERTEX
  5
1B39
  8
0
 10
164.9157639553843921
 20
96.4878969247219942
 30
0.0
  0
VERTEX
  5
1B3A
  8
0
 10
164.9360055725078098
 20
96.4903781495848136
 30
0.0
  0
VERTEX
  5
1B3B
  8
0
 10
164.9563483005962894
 20
96.4924612959457164
 30
0.0
  0
VERTEX
  5
1B3C
  8
0
 10
164.9767789368426918
 20
96.4941922762367454
 30
0.0
  0
VERTEX
  5
1B3D
  8
0
 10
164.9972849229390022
 20
96.4956213998964358
 30
0.0
  0
VERTEX
  5
1B3E
  8
0
 10
165.0178537005766088
 20
96.4967989763633653
 30
0.0
  0
VERTEX
  5
1B3F
  8
0
 10
165.038472711447298
 20
96.4977753150760833
 30
0.0
  0
VERTEX
  5
1B40
  8
0
 10
165.0591293972429128
 20
96.4986007254731675
 30
0.0
  0
VERTEX
  5
1B41
  8
0
 10
165.0798111996550119
 20
96.4993255169931246
 30
0.0
  0
VERTEX
  5
1B42
  8
0
 10
165.1005055603754954
 20
96.4999999990745323
 30
0.0
  0
SEQEND
  5
1B43
  8
0
  0
POLYLINE
  5
1515
  8
0
 66
     1
 10
0.0
 20
0.0
 30
0.0
  0
VERTEX
  5
1B44
  8
0
 10
184.8994949366141896
 20
96.4999999990750439
 30
0.0
  0
VERTEX
  5
1B45
  8
0
 10
184.9201709824307045
 20
96.4996137168728154
 30
0.0
  0
VERTEX
  5
1B46
  8
0
 10
184.9408352723513076
 20
96.4991425025429947
 30
0.0
  0
VERTEX
  5
1B47
  8
0
 10
184.9614760504798028
 20
96.4985014239579755
 30
0.0
  0
VERTEX
  5
1B48
  8
0
 10
184.9820815609203919
 20
96.4976055489901228
 30
0.0
  0
VERTEX
  5
1B49
  8
0
 10
185.0026399891968936
 20
96.4963715935518707
 30
0.0
  0
VERTEX
  5
1B4A
  8
0
 10
185.0231379270418017
 20
96.4947611120083053
 30
0.0
  0
VERTEX
  5
1B4B
  8
0
 10
185.0435602221149907
 20
96.492784725050285
 30
0.0
  0
VERTEX
  5
1B4C
  8
0
 10
185.0638916333637098
 20
96.4904555491358593
 30
0.0
  0
VERTEX
  5
1B4D
  8
0
 10
185.084116919735493
 20
96.4877867007231487
 30
0.0
  0
VERTEX
  5
1B4E
  8
0
 10
185.1042203595835076
 20
96.4847876795563764
 30
0.0
  0
VERTEX
  5
1B4F
  8
0
 10
185.1241836832020908
 20
96.4814488099466701
 30
0.0
  0
VERTEX
  5
1B50
  8
0
 10
185.1439877796433109
 20
96.4777540854279749
 30
0.0
  0
VERTEX
  5
1B51
  8
0
 10
185.1636135374320133
 20
96.4736874955721078
 30
0.0
  0
VERTEX
  5
1B52
  8
0
 10
185.1830418095458981
 20
96.4692330753155147
 30
0.0
  0
VERTEX
  5
1B53
  8
0
 10
185.2022516626225865
 20
96.4643771392338323
 30
0.0
  0
VERTEX
  5
1B54
  8
0
 10
185.2212195772343932
 20
96.4591093021122532
 30
0.0
  0
VERTEX
  5
1B55
  8
0
 10
185.2399218315665053
 20
96.4534194370132809
 30
0.0
  0
VERTEX
  5
1B56
  8
0
 10
185.2583347038035981
 20
96.447297416999433
 30
0.0
  0
VERTEX
  5
1B57
  8
0
 10
185.2764340622588861
 20
96.4407330176497908
 30
0.0
  0
VERTEX
  5
1B58
  8
0
 10
185.2941931464783067
 20
96.4337153893199854
 30
0.0
  0
VERTEX
  5
1B59
  8
0
 10
185.3115841580614074
 20
96.426233435501544
 30
0.0
  0
VERTEX
  5
1B5A
  8
0
 10
185.3285792960652998
 20
96.4182760590812649
 30
0.0
  0
VERTEX
  5
1B5B
  8
0
 10
185.3451507571504919
 20
96.4098322132471566
 30
0.0
  0
VERTEX
  5
1B5C
  8
0
 10
185.3612706237603049
 20
96.4008932484458825
 30
0.0
  0
VERTEX
  5
1B5D
  8
0
 10
185.3769108164904083
 20
96.391453912073672
 30
0.0
  0
VERTEX
  5
1B5E
  8
0
 10
185.3920432436497947
 20
96.3815092094118029
 30
0.0
  0
VERTEX
  5
1B5F
  8
0
 10
185.4066398135472866
 20
96.371054145741553
 30
0.0
  0
VERTEX
  5
1B60
  8
0
 10
185.4206730877928067
 20
96.360084858568257
 30
0.0
  0
VERTEX
  5
1B61
  8
0
 10
185.4341191145045968
 20
96.3486035278033057
 30
0.0
  0
VERTEX
  5
1B62
  8
0
 10
185.4469551001600109
 20
96.3366143408893691
 30
0.0
  0
VERTEX
  5
1B63
  8
0
 10
185.459158252008308
 20
96.3241214866065292
 30
0.0
  0
VERTEX
  5
1B64
  8
0
 10
185.4707059874037895
 20
96.3111293189577822
 30
0.0
  0
VERTEX
  5
1B65
  8
0
 10
185.4815836290077868
 20
96.2976484085306765
 30
0.0
  0
VERTEX
  5
1B66
  8
0
 10
185.4917866194016085
 20
96.2836972840276246
 30
0.0
  0
VERTEX
  5
1B67
  8
0
 10
185.5013110626809123
 20
96.2692949943533449
 30
0.0
  0
VERTEX
  5
1B68
  8
0
 10
185.5101530629414128
 20
96.2544605884125986
 30
0.0
  0
VERTEX
  5
1B69
  8
0
 10
185.5183090556930949
 20
96.2392129203324345
 30
0.0
  0
VERTEX
  5
1B6A
  8
0
 10
185.5257780299737078
 20
96.2235693434902259
 30
0.0
  0
VERTEX
  5
1B6B
  8
0
 10
185.5325601613901085
 20
96.207546513897384
 30
0.0
  0
VERTEX
  5
1B6C
  8
0
 10
185.538655632109112
 20
96.1911610837097442
 30
0.0
  0
VERTEX
  5
1B6D
  8
0
 10
185.5440646242979028
 20
96.1744297050831847
 30
0.0
  0
VERTEX
  5
1B6E
  8
0
 10
185.548790950740397
 20
96.1573704924053061
 30
0.0
  0
VERTEX
  5
1B6F
  8
0
 10
185.5528591357939092
 20
96.1400099016544516
 30
0.0
  0
VERTEX
  5
1B70
  8
0
 10
185.5563010370235872
 20
96.1223773422600232
 30
0.0
  0
VERTEX
  5
1B71
  8
0
 10
185.5591485205393099
 20
96.1045022270927234
 30
0.0
  0
VERTEX
  5
1B72
  8
0
 10
185.5614334524508138
 20
96.0864139690232832
 30
0.0
  0
VERTEX
  5
1B73
  8
0
 10
185.5631876890803937
 20
96.0681419740691069
 30
0.0
  0
VERTEX
  5
1B74
  8
0
 10
185.5644347328725985
 20
96.049709798662775
 30
0.0
  0
VERTEX
  5
1B75
  8
0
 10
185.5651745083251001
 20
96.0311244893962765
 30
0.0
  0
VERTEX
  5
1B76
  8
0
 10
185.5654028098898038
 20
96.0123902009050454
 30
0.0
  0
VERTEX
  5
1B77
  8
0
 10
185.5651154320190983
 20
95.9935110878245439
 30
0.0
  0
VERTEX
  5
1B78
  8
0
 10
185.5643081691648888
 20
95.974491304790277
 30
0.0
  0
VERTEX
  5
1B79
  8
0
 10
185.5629832499679139
 20
95.9553374824451737
 30
0.0
  0
VERTEX
  5
1B7A
  8
0
 10
185.561168739039914
 20
95.9360661936429011
 30
0.0
  0
VERTEX
  5
1B7B
  8
0
 10
185.558899184885405
 20
95.9166965063717925
 30
0.0
  0
VERTEX
  5
1B7C
  8
0
 10
185.5562091360087891
 20
95.8972474886201667
 30
0.0
  0
VERTEX
  5
1B7D
  8
0
 10
185.5531331409144968
 20
95.8777382083763143
 30
0.0
  0
VERTEX
  5
1B7E
  8
0
 10
185.5497057481069874
 20
95.8581877336285544
 30
0.0
  0
VERTEX
  5
1B7F
  8
0
 10
185.545961506090606
 20
95.8386151323652484
 30
0.0
  0
VERTEX
  5
1B80
  8
0
 10
185.541928994788492
 20
95.8190363300331853
 30
0.0
  0
VERTEX
  5
1B81
  8
0
 10
185.5376129278481869
 20
95.7994546861514067
 30
0.0
  0
VERTEX
  5
1B82
  8
0
 10
185.5330120543598866
 20
95.7798704198162056
 30
0.0
  0
VERTEX
  5
1B83
  8
0
 10
185.528125123413588
 20
95.7602837501238469
 30
0.0
  0
VERTEX
  5
1B84
  8
0
 10
185.5229509513885091
 20
95.740694965337326
 30
0.0
  0
VERTEX
  5
1B85
  8
0
 10
185.5174918242869921
 20
95.7211079201703541
 30
0.0
  0
VERTEX
  5
1B86
  8
0
 10
185.5117551027582863
 20
95.7015316856028591
 30
0.0
  0
VERTEX
  5
1B87
  8
0
 10
185.5057485503637054
 20
95.6819757467706893
 30
0.0
  0
VERTEX
  5
1B88
  8
0
 10
185.4994799306645064
 20
95.6624495888097641
 30
0.0
  0
VERTEX
  5
1B89
  8
0
 10
185.4929570072216904
 20
95.6429626968559319
 30
0.0
  0
VERTEX
  5
1B8A
  8
0
 10
185.4861875435964862
 20
95.6235245560450409
 30
0.0
  0
VERTEX
  5
1B8B
  8
0
 10
185.4791793033502927
 20
95.6041446515129536
 30
0.0
  0
VERTEX
  5
1B8C
  8
0
 10
185.4719400270419101
 20
95.5848313331975135
 30
0.0
  0
VERTEX
  5
1B8D
  8
0
 10
185.4644773497703056
 20
95.5655877463999701
 30
0.0
  0
VERTEX
  5
1B8E
  8
0
 10
185.4567989962559977
 20
95.5464155090810436
 30
0.0
  0
VERTEX
  5
1B8F
  8
0
 10
185.4489182360366044
 20
95.5273145430368658
 30
0.0
  0
VERTEX
  5
1B90
  8
0
 10
185.4408561010613141
 20
95.5082823957072975
 30
0.0
  0
VERTEX
  5
1B91
  8
0
 10
185.432634202420104
 20
95.4893164373854262
 30
0.0
  0
VERTEX
  5
1B92
  8
0
 10
185.4242665473607872
 20
95.4704173582548492
 30
0.0
  0
VERTEX
  5
1B93
  8
0
 10
185.4157371340081966
 20
95.4515989506913627
 30
0.0
  0
VERTEX
  5
1B94
  8
0
 10
185.4070227785877876
 20
95.4328781222310454
 30
0.0
  0
VERTEX
  5
1B95
  8
0
 10
185.3981127285335901
 20
95.4142651950065073
 30
0.0
  0
VERTEX
  5
1B96
  8
0
 10
185.3890150645096924
 20
95.3957605142908847
 30
0.0
  0
VERTEX
  5
1B97
  8
0
 10
185.3797394374309988
 20
95.3773635935205846
 30
0.0
  0
VERTEX
  5
1B98
  8
0
 10
185.370295498212613
 20
95.359073946132014
 30
0.0
  0
VERTEX
  5
1B99
  8
0
 10
185.3606928977692974
 20
95.3408910855616369
 30
0.0
  0
VERTEX
  5
1B9A
  8
0
 10
185.3509412870160986
 20
95.3228145252458887
 30
0.0
  0
VERTEX
  5
1B9B
  8
0
 10
185.3410488508098126
 20
95.3048448769621075
 30
0.0
  0
VERTEX
  5
1B9C
  8
0
 10
185.3310139272107051
 20
95.2869901295079273
 30
0.0
  0
VERTEX
  5
1B9D
  8
0
 10
185.3208307999971964
 20
95.269261309066323
 30
0.0
  0
VERTEX
  5
1B9E
  8
0
 10
185.3104937403718964
 20
95.2516694512421935
 30
0.0
  0
VERTEX
  5
1B9F
  8
0
 10
185.2999970195365904
 20
95.2342255916404952
 30
0.0
  0
VERTEX
  5
1BA0
  8
0
 10
185.2893349086938031
 20
95.2169407658661839
 30
0.0
  0
VERTEX
  5
1BA1
  8
0
 10
185.2785017204124927
 20
95.1998259543242682
 30
0.0
  0
VERTEX
  5
1BA2
  8
0
 10
185.2674957989245001
 20
95.182886757543514
 30
0.0
  0
VERTEX
  5
1BA3
  8
0
 10
185.2563228428699915
 20
95.1661189622852675
 30
0.0
  0
VERTEX
  5
1BA4
  8
0
 10
185.2449893330555142
 20
95.1495173115833239
 30
0.0
  0
VERTEX
  5
1BA5
  8
0
 10
185.2335017502873029
 20
95.1330765484713652
 30
0.0
  0
VERTEX
  5
1BA6
  8
0
 10
185.2218665753123901
 20
95.1167914160662349
 30
0.0
  0
VERTEX
  5
1BA7
  8
0
 10
185.2100887812520966
 20
95.1006587635484948
 30
0.0
  0
VERTEX
  5
1BA8
  8
0
 10
185.1981679148802016
 20
95.0846830203855546
 30
0.0
  0
VERTEX
  5
1BA9
  8
0
 10
185.186102302561892
 20
95.068870320883363
 30
0.0
  0
VERTEX
  5
1BAA
  8
0
 10
185.1738902706624117
 20
95.0532267993477546
 30
0.0
  0
VERTEX
  5
1BAB
  8
0
 10
185.1615301455468909
 20
95.037758590084664
 30
0.0
  0
VERTEX
  5
1BAC
  8
0
 10
185.149020253580602
 20
95.0224718273999684
 30
0.0
  0
VERTEX
  5
1BAD
  8
0
 10
185.1363589211289025
 20
95.0073726455995455
 30
0.0
  0
VERTEX
  5
1BAE
  8
0
 10
185.1235444745568941
 20
94.9924671789892869
 30
0.0
  0
VERTEX
  5
1BAF
  8
0
 10
185.1105752402297071
 20
94.9777615618750986
 30
0.0
  0
VERTEX
  5
1BB0
  8
0
 10
185.0974495445128127
 20
94.9632619285628437
 30
0.0
  0
VERTEX
  5
1BB1
  8
0
 10
185.0841657137711991
 20
94.9489744133584708
 30
0.0
  0
VERTEX
  5
1BB2
  8
0
 10
185.0707222595908945
 20
94.934904654310003
 30
0.0
  0
VERTEX
  5
1BB3
  8
0
 10
185.0571191148206935
 20
94.9210544815100974
 30
0.0
  0
VERTEX
  5
1BB4
  8
0
 10
185.0433568704063987
 20
94.9074239618255433
 30
0.0
  0
VERTEX
  5
1BB5
  8
0
 10
185.0294361208781879
 20
94.8940131525211967
 30
0.0
  0
VERTEX
  5
1BB6
  8
0
 10
185.0153574607660119
 20
94.8808221108618994
 30
0.0
  0
VERTEX
  5
1BB7
  8
0
 10
185.0011214845997927
 20
94.8678508941124647
 30
0.0
  0
VERTEX
  5
1BB8
  8
0
 10
184.9867287869093957
 20
94.8550995595378197
 30
0.0
  0
VERTEX
  5
1BB9
  8
0
 10
184.9721799622249137
 20
94.8425681644027208
 30
0.0
  0
VERTEX
  5
1BBA
  8
0
 10
184.9574756050762971
 20
94.8302567659720665
 30
0.0
  0
VERTEX
  5
1BBB
  8
0
 10
184.9426163018794966
 20
94.8181654491365862
 30
0.0
  0
VERTEX
  5
1BBC
  8
0
 10
184.9276023865407126
 20
94.8062951585288403
 30
0.0
  0
VERTEX
  5
1BBD
  8
0
 10
184.9124338973091142
 20
94.7946478454272636
 30
0.0
  0
VERTEX
  5
1BBE
  8
0
 10
184.8971108556237084
 20
94.7832255183462848
 30
0.0
  0
VERTEX
  5
1BBF
  8
0
 10
184.8816332829235023
 20
94.7720301858004746
 30
0.0
  0
VERTEX
  5
1BC0
  8
0
 10
184.866001200647105
 20
94.7610638563043466
 30
0.0
  0
VERTEX
  5
1BC1
  8
0
 10
184.8502146302336939
 20
94.7503285383723579
 30
0.0
  0
VERTEX
  5
1BC2
  8
0
 10
184.834273593121992
 20
94.7398262405190366
 30
0.0
  0
VERTEX
  5
1BC3
  8
0
 10
184.8181781107510062
 20
94.7295589712588963
 30
0.0
  0
VERTEX
  5
1BC4
  8
0
 10
184.8019282156429881
 20
94.7195287149420864
 30
0.0
  0
VERTEX
  5
1BC5
  8
0
 10
184.785524523451187
 20
94.7097361845601
 30
0.0
  0
VERTEX
  5
1BC6
  8
0
 10
184.7689685095068057
 20
94.7001802188102744
 30
0.0
  0
VERTEX
  5
1BC7
  8
0
 10
184.7522617181593887
 20
94.690859505914176
 30
0.0
  0
VERTEX
  5
1BC8
  8
0
 10
184.7354056937583948
 20
94.6817727340933573
 30
0.0
  0
VERTEX
  5
1BC9
  8
0
 10
184.7184019806535105
 20
94.6729185915694131
 30
0.0
  0
VERTEX
  5
1BCA
  8
0
 10
184.7012521231939957
 20
94.664295766563896
 30
0.0
  0
VERTEX
  5
1BCB
  8
0
 10
184.6839576657295083
 20
94.655902947298415
 30
0.0
  0
VERTEX
  5
1BCC
  8
0
 10
184.6665201526097064
 20
94.64773882199448
 30
0.0
  0
VERTEX
  5
1BCD
  8
0
 10
184.6489411357144945
 20
94.639802090486441
 30
0.0
  0
VERTEX
  5
1BCE
  8
0
 10
184.6312224343562889
 20
94.6320918650030194
 30
0.0
  0
VERTEX
  5
1BCF
  8
0
 10
184.6133662012719014
 20
94.6246077719322756
 30
0.0
  0
VERTEX
  5
1BD0
  8
0
 10
184.5953746101293973
 20
94.6173494699388016
 30
0.0
  0
VERTEX
  5
1BD1
  8
0
 10
184.5772498345968131
 20
94.6103166176871611
 30
0.0
  0
VERTEX
  5
1BD2
  8
0
 10
184.5589940483417877
 20
94.6035088738419461
 30
0.0
  0
VERTEX
  5
1BD3
  8
0
 10
184.5406094250324998
 20
94.5969258970677203
 30
0.0
  0
VERTEX
  5
1BD4
  8
0
 10
184.5220981383367871
 20
94.5905673460290615
 30
0.0
  0
VERTEX
  5
1BD5
  8
0
 10
184.5034623619224874
 20
94.5844328793905618
 30
0.0
  0
VERTEX
  5
1BD6
  8
0
 10
184.4847042697558095
 20
94.5785221550470254
 30
0.0
  0
VERTEX
  5
1BD7
  8
0
 10
184.4658262574058085
 20
94.5728342585758668
 30
0.0
  0
VERTEX
  5
1BD8
  8
0
 10
184.4468313347531137
 20
94.5673666890216822
 30
0.0
  0
VERTEX
  5
1BD9
  8
0
 10
184.4277226172534938
 20
94.5621166727672033
 30
0.0
  0
VERTEX
  5
1BDA
  8
0
 10
184.4085032203632011
 20
94.5570814361951477
 30
0.0
  0
VERTEX
  5
1BDB
  8
0
 10
184.3891762595382033
 20
94.5522582056883039
 30
0.0
  0
VERTEX
  5
1BDC
  8
0
 10
184.3697448502344969
 20
94.5476442076293608
 30
0.0
  0
VERTEX
  5
1BDD
  8
0
 10
184.3502121079081917
 20
94.5432366684010788
 30
0.0
  0
VERTEX
  5
1BDE
  8
0
 10
184.3305811480151988
 20
94.539032814386232
 30
0.0
  0
VERTEX
  5
1BDF
  8
0
 10
184.3108550860115997
 20
94.5350298719675237
 30
0.0
  0
VERTEX
  5
1BE0
  8
0
 10
184.2910371277332899
 20
94.5312259986479546
 30
0.0
  0
VERTEX
  5
1BE1
  8
0
 10
184.2711311377358925
 20
94.5276261382575171
 30
0.0
  0
VERTEX
  5
1BE2
  8
0
 10
184.2511412722361115
 20
94.5242382394083052
 30
0.0
  0
VERTEX
  5
1BE3
  8
0
 10
184.231071688751797
 20
94.5210702641135185
 30
0.0
  0
VERTEX
  5
1BE4
  8
0
 10
184.2109265448004862
 20
94.5181301743862861
 30
0.0
  0
VERTEX
  5
1BE5
  8
0
 10
184.1907099978998872
 20
94.5154259322398502
 30
0.0
  0
VERTEX
  5
1BE6
  8
0
 10
184.170426205567594
 20
94.5129654996873541
 30
0.0
  0
VERTEX
  5
1BE7
  8
0
 10
184.1500793253212862
 20
94.510756838741969
 30
0.0
  0
VERTEX
  5
1BE8
  8
0
 10
184.1296735146787
 20
94.5088079114168949
 30
0.0
  0
VERTEX
  5
1BE9
  8
0
 10
184.1092130396586128
 20
94.5071245581573152
 30
0.0
  0
VERTEX
  5
1BEA
  8
0
 10
184.0887033340364098
 20
94.5056897857838578
 30
0.0
  0
VERTEX
  5
1BEB
  8
0
 10
184.0681505428040907
 20
94.5044726944056919
 30
0.0
  0
VERTEX
  5
1BEC
  8
0
 10
184.0475608210487906
 20
94.5034421867378143
 30
0.0
  0
VERTEX
  5
1BED
  8
0
 10
184.0269403238577013
 20
94.5025671654951367
 30
0.0
  0
VERTEX
  5
1BEE
  8
0
 10
184.0062952063181001
 20
94.5018165333926419
 30
0.0
  0
VERTEX
  5
1BEF
  8
0
 10
183.9856316235170084
 20
94.5011591931452841
 30
0.0
  0
VERTEX
  5
1BF0
  8
0
 10
183.9649557305415897
 20
94.5005640474680035
 30
0.0
  0
VERTEX
  5
1BF1
  8
0
 10
183.9442736824790074
 20
94.4999999990757829
 30
0.0
  0
SEQEND
  5
1BF2
  8
0
  0
POLYLINE
  5
1516
  8
0
 66
     1
 10
0.0
 20
0.0
 30
0.0
  0
VERTEX
  5
1BF3
  8
0
 10
100.0000000002787033
 20
42.9999999992043911
 30
0.0
  0
VERTEX
  5
1BF4
  8
0
 10
100.007236465734394
 20
43.0000369536628995
 30
0.0
  0
VERTEX
  5
1BF5
  8
0
 10
100.0145078027135952
 20
43.0000738085003391
 30
0.0
  0
VERTEX
  5
1BF6
  8
0
 10
100.0218488827398033
 20
43.0001104640956626
 30
0.0
  0
VERTEX
  5
1BF7
  8
0
 10
100.0292945773365005
 20
43.0001468208277728
 30
0.0
  0
VERTEX
  5
1BF8
  8
0
 10
100.0368797580272968
 20
43.0001827790756366
 30
0.0
  0
VERTEX
  5
1BF9
  8
0
 10
100.0446392963356033
 20
43.0002182392181709
 30
0.0
  0
VERTEX
  5
1BFA
  8
0
 10
100.0526079630404013
 20
43.0002530970588168
 30
0.0
  0
VERTEX
  5
1BFB
  8
0
 10
100.0608066323353
 20
43.0002866172631286
 30
0.0
  0
VERTEX
  5
1BFC
  8
0
 10
100.0692282188690996
 20
43.0003167946647267
 30
0.0
  0
VERTEX
  5
1BFD
  8
0
 10
100.0778622852228068
 20
43.0003414718571406
 30
0.0
  0
VERTEX
  5
1BFE
  8
0
 10
100.0866983939773007
 20
43.0003584914339001
 30
0.0
  0
VERTEX
  5
1BFF
  8
0
 10
100.0957261077137019
 20
43.0003656959885632
 30
0.0
  0
VERTEX
  5
1C00
  8
0
 10
100.1049349890127047
 20
43.0003609281146595
 30
0.0
  0
VERTEX
  5
1C01
  8
0
 10
100.1143149969600046
 20
43.0003422738966492
 30
0.0
  0
VERTEX
  5
1C02
  8
0
 10
100.1238613620311071
 20
43.0003110565467281
 30
0.0
  0
VERTEX
  5
1C03
  8
0
 10
100.1335730588691035
 20
43.0002708985466526
 30
0.0
  0
VERTEX
  5
1C04
  8
0
 10
100.1434491419265953
 20
43.0002254713889371
 30
0.0
  0
VERTEX
  5
1C05
  8
0
 10
100.153488665656397
 20
43.0001784465661814
 30
0.0
  0
VERTEX
  5
1C06
  8
0
 10
100.1636906845114936
 20
43.0001334955709211
 30
0.0
  0
VERTEX
  5
1C07
  8
0
 10
100.1740542529072968
 20
43.000094289543398
 30
0.0
  0
VERTEX
  5
1C08
  8
0
 10
100.1845783269632051
 20
43.0000635690621209
 30
0.0
  0
VERTEX
  5
1C09
  8
0
 10
100.1952615511610958
 20
43.0000411244611129
 30
0.0
  0
VERTEX
  5
1C0A
  8
0
 10
100.206102508368005
 20
43.0000261627708511
 30
0.0
  0
VERTEX
  5
1C0B
  8
0
 10
100.217099781450699
 20
43.0000178910218622
 30
0.0
  0
VERTEX
  5
1C0C
  8
0
 10
100.228251953276299
 20
43.0000155162446376
 30
0.0
  0
VERTEX
  5
1C0D
  8
0
 10
100.2395576067116991
 20
43.0000182454697111
 30
0.0
  0
VERTEX
  5
1C0E
  8
0
 10
100.2510153046104051
 20
43.0000252776354799
 30
0.0
  0
VERTEX
  5
1C0F
  8
0
 10
100.2626231103409964
 20
43.0000356097207685
 30
0.0
  0
VERTEX
  5
1C10
  8
0
 10
100.274378564998301
 20
43.000048027530589
 30
0.0
  0
VERTEX
  5
1C11
  8
0
 10
100.2862791851030977
 20
43.0000613069339295
 30
0.0
  0
VERTEX
  5
1C12
  8
0
 10
100.2983224871768044
 20
43.0000742237997926
 30
0.0
  0
VERTEX
  5
1C13
  8
0
 10
100.3105059877401999
 20
43.0000855539971596
 30
0.0
  0
VERTEX
  5
1C14
  8
0
 10
100.3228272033145032
 20
43.0000940733950117
 30
0.0
  0
VERTEX
  5
1C15
  8
0
 10
100.335284214664398
 20
43.0000987127481622
 30
0.0
  0
VERTEX
  5
1C16
  8
0
 10
100.3478792972881024
 20
43.0000995542725235
 30
0.0
  0
VERTEX
  5
1C17
  8
0
 10
100.3606166164537967
 20
43.0000971989288487
 30
0.0
  0
VERTEX
  5
1C18
  8
0
 10
100.3735003465526034
 20
43.0000922501822771
 30
0.0
  0
VERTEX
  5
1C19
  8
0
 10
100.3865346619760999
 20
43.0000853114979478
 30
0.0
  0
VERTEX
  5
1C1A
  8
0
 10
100.3997237371153943
 20
43.0000769863409786
 30
0.0
  0
VERTEX
  5
1C1B
  8
0
 10
100.4130717463617941
 20
43.0000678781765018
 30
0.0
  0
VERTEX
  5
1C1C
  8
0
 10
100.4265784806503063
 20
43.0000584982848792
 30
0.0
  0
VERTEX
  5
1C1D
  8
0
 10
100.4402253803441027
 20
43.0000489720311165
 30
0.0
  0
VERTEX
  5
1C1E
  8
0
 10
100.4539890845558006
 20
43.0000393238092187
 30
0.0
  0
VERTEX
  5
1C1F
  8
0
 10
100.4678462323820014
 20
43.0000295780127786
 30
0.0
  0
VERTEX
  5
1C20
  8
0
 10
100.4817734629187953
 20
43.0000197590354531
 30
0.0
  0
VERTEX
  5
1C21
  8
0
 10
100.4957474152626986
 20
43.0000098912708566
 30
0.0
  0
VERTEX
  5
1C22
  8
0
 10
100.5097447285102987
 20
42.9999999991126529
 30
0.0
  0
SEQEND
  5
1C23
  8
0
  0
POLYLINE
  5
1517
  8
0
 66
     1
 10
0.0
 20
0.0
 30
0.0
  0
VERTEX
  5
1C24
  8
0
 10
108.0
 20
56.999999999137259
 30
0.0
  0
VERTEX
  5
1C25
  8
0
 10
107.9941349146796057
 20
57.0000015421070927
 30
0.0
  0
VERTEX
  5
1C26
  8
0
 10
107.9882450479012022
 20
57.0000019219358194
 30
0.0
  0
VERTEX
  5
1C27
  8
0
 10
107.9823056182068939
 20
56.9999999754823321
 30
0.0
  0
VERTEX
  5
1C28
  8
0
 10
107.9762918441387995
 20
56.9999945396055168
 30
0.0
  0
VERTEX
  5
1C29
  8
0
 10
107.9701789442387962
 20
56.9999844511642806
 30
0.0
  0
VERTEX
  5
1C2A
  8
0
 10
107.9639421370491021
 20
56.9999685470174882
 30
0.0
  0
VERTEX
  5
1C2B
  8
0
 10
107.9575566411115943
 20
56.9999456640240609
 30
0.0
  0
VERTEX
  5
1C2C
  8
0
 10
107.9509983019003982
 20
56.9999146790413889
 30
0.0
  0
VERTEX
  5
1C2D
  8
0
 10
107.9442585142845985
 20
56.9998754609845122
 30
0.0
  0
VERTEX
  5
1C2E
  8
0
 10
107.9373448774618964
 20
56.9998289126111075
 30
0.0
  0
VERTEX
  5
1C2F
  8
0
 10
107.9302657486186945
 20
56.9997759850388874
 30
0.0
  0
VERTEX
  5
1C30
  8
0
 10
107.9230294849412957
 20
56.9997176293855006
 30
0.0
  0
VERTEX
  5
1C31
  8
0
 10
107.915644443615804
 20
56.9996547967686169
 30
0.0
  0
VERTEX
  5
1C32
  8
0
 10
107.9081189818285935
 20
56.9995884383058993
 30
0.0
  0
VERTEX
  5
1C33
  8
0
 10
107.9004613351911956
 20
56.999519521275019
 30
0.0
  0
VERTEX
  5
1C34
  8
0
 10
107.892675419471999
 20
56.9994495871569171
 30
0.0
  0
VERTEX
  5
1C35
  8
0
 10
107.8847597631994972
 20
56.9993808935165376
 30
0.0
  0
VERTEX
  5
1C36
  8
0
 10
107.8767125565802019
 20
56.9993157428893866
 30
0.0
  0
VERTEX
  5
1C37
  8
0
 10
107.8685319898205961
 20
56.9992564378109492
 30
0.0
  0
VERTEX
  5
1C38
  8
0
 10
107.8602162531273052
 20
56.9992052808167315
 30
0.0
  0
VERTEX
  5
1C39
  8
0
 10
107.8517635367064997
 20
56.9991645744422186
 30
0.0
  0
VERTEX
  5
1C3A
  8
0
 10
107.8431721131670002
 20
56.9991365490686093
 30
0.0
  0
VERTEX
  5
1C3B
  8
0
 10
107.8344420568760995
 20
56.999121857394158
 30
0.0
  0
VERTEX
  5
1C3C
  8
0
 10
107.8255751935002991
 20
56.9991196186178684
 30
0.0
  0
VERTEX
  5
1C3D
  8
0
 10
107.8165734210141977
 20
56.999128888623467
 30
0.0
  0
VERTEX
  5
1C3E
  8
0
 10
107.8074386373922948
 20
56.9991487232946668
 30
0.0
  0
VERTEX
  5
1C3F
  8
0
 10
107.7981727406090044
 20
56.9991781785152014
 30
0.0
  0
VERTEX
  5
1C40
  8
0
 10
107.7887776286389965
 20
56.9992163101687623
 30
0.0
  0
VERTEX
  5
1C41
  8
0
 10
107.7792552431748021
 20
56.9992621429869715
 30
0.0
  0
VERTEX
  5
1C42
  8
0
 10
107.7696081125700971
 20
56.9993142836660311
 30
0.0
  0
VERTEX
  5
1C43
  8
0
 10
107.7598391845846066
 20
56.9993710400471372
 30
0.0
  0
VERTEX
  5
1C44
  8
0
 10
107.7499514160596021
 20
56.9994307135002671
 30
0.0
  0
VERTEX
  5
1C45
  8
0
 10
107.7399477638364971
 20
56.9994916053953773
 30
0.0
  0
VERTEX
  5
1C46
  8
0
 10
107.7298311847566055
 20
56.9995520171023884
 30
0.0
  0
VERTEX
  5
1C47
  8
0
 10
107.7196046356610992
 20
56.9996102499912922
 30
0.0
  0
VERTEX
  5
1C48
  8
0
 10
107.7092706767053016
 20
56.9996646940017797
 30
0.0
  0
VERTEX
  5
1C49
  8
0
 10
107.6988274284316986
 20
56.9997147303239871
 30
0.0
  0
VERTEX
  5
1C4A
  8
0
 10
107.6882702266682941
 20
56.9997603619027586
 30
0.0
  0
VERTEX
  5
1C4B
  8
0
 10
107.6775943642777946
 20
56.9998016012759408
 30
0.0
  0
VERTEX
  5
1C4C
  8
0
 10
107.6667951341225944
 20
56.9998384609814224
 30
0.0
  0
VERTEX
  5
1C4D
  8
0
 10
107.6558678290654001
 20
56.9998709535570498
 30
0.0
  0
VERTEX
  5
1C4E
  8
0
 10
107.6448114049539981
 20
56.9998991888874613
 30
0.0
  0
VERTEX
  5
1C4F
  8
0
 10
107.6336427931496047
 20
56.9999237545709789
 30
0.0
  0
VERTEX
  5
1C50
  8
0
 10
107.6223844300543959
 20
56.9999453845067734
 30
0.0
  0
VERTEX
  5
1C51
  8
0
 10
107.6110587534913066
 20
56.9999648126317524
 30
0.0
  0
VERTEX
  5
1C52
  8
0
 10
107.5996882012828024
 20
56.9999827728828734
 30
0.0
  0
VERTEX
  5
1C53
  8
0
 10
107.5882952112517046
 20
56.9999999991970583
 30
0.0
  0
SEQEND
  5
1C54
  8
0
  0
POLYLINE
  5
1518
  8
0
 66
     1
 10
0.0
 20
0.0
 30
0.0
  0
VERTEX
  5
1C55
  8
0
 10
107.5882952112570052
 20
42.9999999991475974
 30
0.0
  0
VERTEX
  5
1C56
  8
0
 10
107.6034495770848025
 20
43.0000265345584083
 30
0.0
  0
VERTEX
  5
1C57
  8
0
 10
107.6185686975380946
 20
43.0000521077298927
 30
0.0
  0
VERTEX
  5
1C58
  8
0
 10
107.6336173272425043
 20
43.0000757564227172
 30
0.0
  0
VERTEX
  5
1C59
  8
0
 10
107.6485602208233985
 20
43.0000965183975694
 30
0.0
  0
VERTEX
  5
1C5A
  8
0
 10
107.6633621329063999
 20
43.0001134314151017
 30
0.0
  0
VERTEX
  5
1C5B
  8
0
 10
107.6779878181170034
 20
43.0001255332359875
 30
0.0
  0
VERTEX
  5
1C5C
  8
0
 10
107.6924020310807038
 20
43.0001318616209005
 30
0.0
  0
VERTEX
  5
1C5D
  8
0
 10
107.7065734133281012
 20
43.0001316797893907
 30
0.0
  0
VERTEX
  5
1C5E
  8
0
 10
107.720496802282895
 20
43.0001257704466866
 30
0.0
  0
VERTEX
  5
1C5F
  8
0
 10
107.7341778544485038
 20
43.0001155438558271
 30
0.0
  0
VERTEX
  5
1C60
  8
0
 10
107.7476222604483951
 20
43.0001024122589683
 30
0.0
  0
VERTEX
  5
1C61
  8
0
 10
107.7608357109057948
 20
43.0000877878982593
 30
0.0
  0
VERTEX
  5
1C62
  8
0
 10
107.773823896444398
 20
43.0000730830158631
 30
0.0
  0
VERTEX
  5
1C63
  8
0
 10
107.7865925076874021
 20
43.0000597098539075
 30
0.0
  0
VERTEX
  5
1C64
  8
0
 10
107.7991464447867003
 20
43.0000489291670007
 30
0.0
  0
VERTEX
  5
1C65
  8
0
 10
107.8114858750157055
 20
43.0000410946916318
 30
0.0
  0
VERTEX
  5
1C66
  8
0
 10
107.8236092119753948
 20
43.0000362240869904
 30
0.0
  0
VERTEX
  5
1C67
  8
0
 10
107.8355148664059016
 20
43.0000343344640115
 30
0.0
  0
VERTEX
  5
1C68
  8
0
 10
107.8472012490472025
 20
43.0000354429336724
 30
0.0
  0
VERTEX
  5
1C69
  8
0
 10
107.8586667706398003
 20
43.0000395666069295
 30
0.0
  0
VERTEX
  5
1C6A
  8
0
 10
107.8699098419235014
 20
43.0000467225947105
 30
0.0
  0
VERTEX
  5
1C6B
  8
0
 10
107.8809263900358957
 20
43.0000567108384999
 30
0.0
  0
VERTEX
  5
1C6C
  8
0
 10
107.8917023207006025
 20
43.0000684549941568
 30
0.0
  0
VERTEX
  5
1C6D
  8
0
 10
107.9022210123467005
 20
43.0000806577275796
 30
0.0
  0
VERTEX
  5
1C6E
  8
0
 10
107.9124658434032966
 20
43.0000920217046882
 30
0.0
  0
VERTEX
  5
1C6F
  8
0
 10
107.9224201922993984
 20
43.0001012495913884
 30
0.0
  0
VERTEX
  5
1C70
  8
0
 10
107.9320674374641982
 20
43.0001070440535784
 30
0.0
  0
VERTEX
  5
1C71
  8
0
 10
107.9413909610587012
 20
43.0001081078806493
 30
0.0
  0
VERTEX
  5
1C72
  8
0
 10
107.9503873279842026
 20
43.0001035800008466
 30
0.0
  0
VERTEX
  5
1C73
  8
0
 10
107.9590958584490039
 20
43.0000940138627286
 30
0.0
  0
VERTEX
  5
1C74
  8
0
 10
107.9675645251967069
 20
43.000080249175987
 30
0.0
  0
VERTEX
  5
1C75
  8
0
 10
107.9758413009705009
 20
43.0000631256503425
 30
0.0
  0
VERTEX
  5
1C76
  8
0
 10
107.9839741585139024
 20
43.0000434829955367
 30
0.0
  0
VERTEX
  5
1C77
  8
0
 10
107.9920110705704985
 20
43.00002216092129
 30
0.0
  0
VERTEX
  5
1C78
  8
0
 10
108.0000000098836068
 20
42.9999999991373087
 30
0.0
  0
SEQEND
  5
1C79
  8
0
  0
POLYLINE
  5
1519
  8
0
 66
     1
 10
0.0
 20
0.0
 30
0.0
  0
VERTEX
  5
1C7A
  8
0
 10
100.5097447285084939
 20
56.9999999991403783
 30
0.0
  0
VERTEX
  5
1C7B
  8
0
 10
100.4937431303626028
 20
56.9999854637686383
 30
0.0
  0
VERTEX
  5
1C7C
  8
0
 10
100.4777722102273998
 20
56.9999710963386335
 30
0.0
  0
VERTEX
  5
1C7D
  8
0
 10
100.4618626461136017
 20
56.9999570647921203
 30
0.0
  0
VERTEX
  5
1C7E
  8
0
 10
100.4460451160320957
 20
56.9999435370708483
 30
0.0
  0
VERTEX
  5
1C7F
  8
0
 10
100.4303502979933995
 20
56.9999306811165596
 30
0.0
  0
VERTEX
  5
1C80
  8
0
 10
100.4148088700084003
 20
56.9999186648710179
 30
0.0
  0
VERTEX
  5
1C81
  8
0
 10
100.3994515100878004
 20
56.9999076562759583
 30
0.0
  0
VERTEX
  5
1C82
  8
0
 10
100.3843044175793011
 20
56.9998979073779211
 30
0.0
  0
VERTEX
  5
1C83
  8
0
 10
100.3693700864357936
 20
56.9998901153870392
 30
0.0
  0
VERTEX
  5
1C84
  8
0
 10
100.3546431969704997
 20
56.9998851242457079
 30
0.0
  0
VERTEX
  5
1C85
  8
0
 10
100.3401184246854001
 20
56.9998837779867387
 30
0.0
  0
VERTEX
  5
1C86
  8
0
 10
100.3257904450827027
 20
56.9998869206428722
 30
0.0
  0
VERTEX
  5
1C87
  8
0
 10
100.3116539336646014
 20
56.9998953962469201
 30
0.0
  0
VERTEX
  5
1C88
  8
0
 10
100.2977035659357057
 20
56.999910048830337
 30
0.0
  0
VERTEX
  5
1C89
  8
0
 10
100.2839355574161004
 20
56.9999309332910826
 30
0.0
  0
VERTEX
  5
1C8A
  8
0
 10
100.2703520671282007
 20
56.9999550589615893
 30
0.0
  0
VERTEX
  5
1C8B
  8
0
 10
100.2569566877212992
 20
56.9999787005565182
 30
0.0
  0
VERTEX
  5
1C8C
  8
0
 10
100.2437530118442055
 20
56.9999981327904806
 30
0.0
  0
VERTEX
  5
1C8D
  8
0
 10
100.2307446321459992
 20
57.0000096303781234
 30
0.0
  0
VERTEX
  5
1C8E
  8
0
 10
100.2179351412757029
 20
57.000009468034051
 30
0.0
  0
VERTEX
  5
1C8F
  8
0
 10
100.2053281245986938
 20
56.9999939421652471
 30
0.0
  0
VERTEX
  5
1C90
  8
0
 10
100.1929262758454939
 20
56.9999620046442672
 30
0.0
  0
VERTEX
  5
1C91
  8
0
 10
100.1807305514886934
 20
56.9999177812448394
 30
0.0
  0
VERTEX
  5
1C92
  8
0
 10
100.1687417076212938
 20
56.999865994511012
 30
0.0
  0
VERTEX
  5
1C93
  8
0
 10
100.1569605003360977
 20
56.99981136698689
 30
0.0
  0
VERTEX
  5
1C94
  8
0
 10
100.1453876857258933
 20
56.9997586212165572
 30
0.0
  0
VERTEX
  5
1C95
  8
0
 10
100.1340240198837961
 20
56.9997124797440975
 30
0.0
  0
VERTEX
  5
1C96
  8
0
 10
100.1228706972508036
 20
56.9996774868899578
 30
0.0
  0
VERTEX
  5
1C97
  8
0
 10
100.1119363427310986
 20
56.9996551658973019
 30
0.0
  0
VERTEX
  5
1C98
  8
0
 10
100.1012357825040056
 20
56.9996445186949998
 30
0.0
  0
VERTEX
  5
1C99
  8
0
 10
100.0907840327369058
 20
56.9996444699666114
 30
0.0
  0
VERTEX
  5
1C9A
  8
0
 10
100.0805961095970957
 20
56.9996539443957104
 30
0.0
  0
VERTEX
  5
1C9B
  8
0
 10
100.0706870292519994
 20
56.9996718666658566
 30
0.0
  0
VERTEX
  5
1C9C
  8
0
 10
100.0610718078689985
 20
56.9996971614606096
 30
0.0
  0
VERTEX
  5
1C9D
  8
0
 10
100.0517588900302002
 20
56.999728772988469
 30
0.0
  0
VERTEX
  5
1C9E
  8
0
 10
100.0427175154183033
 20
56.9997657619402105
 30
0.0
  0
VERTEX
  5
1C9F
  8
0
 10
100.0339024460519965
 20
56.9998072320214106
 30
0.0
  0
VERTEX
  5
1CA0
  8
0
 10
100.0252684208820995
 20
56.9998522870061493
 30
0.0
  0
VERTEX
  5
1CA1
  8
0
 10
100.016770178859602
 20
56.9999000306685772
 30
0.0
  0
VERTEX
  5
1CA2
  8
0
 10
100.0083624589352951
 20
56.9999495667827816
 30
0.0
  0
VERTEX
  5
1CA3
  8
0
 10
100.0000000000600977
 20
56.9999999991228776
 30
0.0
  0
SEQEND
  5
1CA4
  8
0
  0
POLYLINE
  5
151A
  8
0
 66
     1
 10
0.0
 20
0.0
 30
0.0
  0
VERTEX
  5
1CA5
  8
0
 10
116.9448376403784948
 20
42.6893754260956584
 30
0.0
  0
VERTEX
  5
1CA6
  8
0
 10
116.935231606193895
 20
42.6896594068358013
 30
0.0
  0
VERTEX
  5
1CA7
  8
0
 10
116.925627188098801
 20
42.6899433614599104
 30
0.0
  0
VERTEX
  5
1CA8
  8
0
 10
116.9160260021826048
 20
42.6902272638519591
 30
0.0
  0
VERTEX
  5
1CA9
  8
0
 10
116.9064296645346985
 20
42.6905110878959206
 30
0.0
  0
VERTEX
  5
1CAA
  8
0
 10
116.8968397912447017
 20
42.6907948074757613
 30
0.0
  0
VERTEX
  5
1CAB
  8
0
 10
116.8872579984019069
 20
42.6910783964754472
 30
0.0
  0
VERTEX
  5
1CAC
  8
0
 10
116.8776859020959051
 20
42.6913618287789731
 30
0.0
  0
VERTEX
  5
1CAD
  8
0
 10
116.8681251184161027
 20
42.6916450782702768
 30
0.0
  0
VERTEX
  5
1CAE
  8
0
 10
116.858577263451906
 20
42.6919281188333528
 30
0.0
  0
VERTEX
  5
1CAF
  8
0
 10
116.8490439532929059
 20
42.6922109243521604
 30
0.0
  0
VERTEX
  5
1CB0
  8
0
 10
116.8395268040282957
 20
42.6924934687106798
 30
0.0
  0
VERTEX
  5
1CB1
  8
0
 10
116.8300274317477943
 20
42.6927757257928633
 30
0.0
  0
VERTEX
  5
1CB2
  8
0
 10
116.8205474525407936
 20
42.6930576694826982
 30
0.0
  0
VERTEX
  5
1CB3
  8
0
 10
116.8110884824967002
 20
42.6933392736641508
 30
0.0
  0
VERTEX
  5
1CB4
  8
0
 10
116.8016521377050054
 20
42.6936205122211874
 30
0.0
  0
VERTEX
  5
1CB5
  8
0
 10
116.7922400342551015
 20
42.6939013590377812
 30
0.0
  0
VERTEX
  5
1CB6
  8
0
 10
116.7828537882364941
 20
42.6941817879978984
 30
0.0
  0
VERTEX
  5
1CB7
  8
0
 10
116.7734950157386038
 20
42.6944617729855196
 30
0.0
  0
VERTEX
  5
1CB8
  8
0
 10
116.7641653328509932
 20
42.6947412878845967
 30
0.0
  0
VERTEX
  5
1CB9
  8
0
 10
116.754866355663097
 20
42.6950203065791314
 30
0.0
  0
VERTEX
  5
1CBA
  8
0
 10
116.7455997002641936
 20
42.6952988029530616
 30
0.0
  0
VERTEX
  5
1CBB
  8
0
 10
116.7363669827439026
 20
42.6955767508903676
 30
0.0
  0
VERTEX
  5
1CBC
  8
0
 10
116.7271698191917011
 20
42.6958541242750371
 30
0.0
  0
VERTEX
  5
1CBD
  8
0
 10
116.7180098256968961
 20
42.696130896991022
 30
0.0
  0
VERTEX
  5
1CBE
  8
0
 10
116.7088886183489933
 20
42.6964070429223028
 30
0.0
  0
VERTEX
  5
1CBF
  8
0
 10
116.699807813237598
 20
42.6966825359528386
 30
0.0
  0
VERTEX
  5
1CC0
  8
0
 10
116.6907690264521023
 20
42.6969573499666097
 30
0.0
  0
VERTEX
  5
1CC1
  8
0
 10
116.6817764805792024
 20
42.6972313632427927
 30
0.0
  0
VERTEX
  5
1CC2
  8
0
 10
116.6728501776907052
 20
42.6975038752782865
 30
0.0
  0
VERTEX
  5
1CC3
  8
0
 10
116.6640160271261948
 20
42.6977739688949427
 30
0.0
  0
VERTEX
  5
1CC4
  8
0
 10
116.6552999485642061
 20
42.6980407265352682
 30
0.0
  0
VERTEX
  5
1CC5
  8
0
 10
116.6467278616835017
 20
42.6983032306418906
 30
0.0
  0
VERTEX
  5
1CC6
  8
0
 10
116.6383256861626023
 20
42.6985605636573524
 30
0.0
  0
VERTEX
  5
1CC7
  8
0
 10
116.630120698223493
 20
42.6988117610160032
 30
0.0
  0
VERTEX
  5
1CC8
  8
0
 10
116.6221768094245022
 20
42.6990545886302826
 30
0.0
  0
VERTEX
  5
1CC9
  8
0
 10
116.6145978674128969
 20
42.6992854285099028
 30
0.0
  0
VERTEX
  5
1CCA
  8
0
 10
116.6075050386224063
 20
42.6995002291828598
 30
0.0
  0
VERTEX
  5
1CCB
  8
0
 10
116.6011314426320951
 20
42.6996922791498719
 30
0.0
  0
VERTEX
  5
1CCC
  8
0
 10
116.5957810924834064
 20
42.699853038940347
 30
0.0
  0
VERTEX
  5
1CCD
  8
0
 10
116.5921488900722949
 20
42.6999620307918377
 30
0.0
  0
VERTEX
  5
1CCE
  8
0
 10
116.5909018019790011
 20
42.6999994144530604
 30
0.0
  0
SEQEND
  5
1CCF
  8
0
  0
POLYLINE
  5
151B
  8
0
 66
     1
 10
0.0
 20
0.0
 30
0.0
  0
VERTEX
  5
1CD0
  8
0
 10
108.0
 20
45.0405480472046804
 30
0.0
  0
VERTEX
  5
1CD1
  8
0
 10
107.9941349208412049
 20
44.9967387858987991
 30
0.0
  0
VERTEX
  5
1CD2
  8
0
 10
107.9882450599012031
 20
44.952932834156762
 30
0.0
  0
VERTEX
  5
1CD3
  8
0
 10
107.9823056353988022
 20
44.9091335015423567
 30
0.0
  0
VERTEX
  5
1CD4
  8
0
 10
107.9762918655527955
 20
44.8653440976194275
 30
0.0
  0
VERTEX
  5
1CD5
  8
0
 10
107.9701789685818056
 20
44.8215679319517974
 30
0.0
  0
VERTEX
  5
1CD6
  8
0
 10
107.9639421627048961
 20
44.7778083141032965
 30
0.0
  0
VERTEX
  5
1CD7
  8
0
 10
107.9575566661405048
 20
44.7340685536377407
 30
0.0
  0
VERTEX
  5
1CD8
  8
0
 10
107.9509983244805937
 20
44.6903518795146582
 30
0.0
  0
VERTEX
  5
1CD9
  8
0
 10
107.944258535154205
 20
44.6466595226080329
 30
0.0
  0
VERTEX
  5
1CDA
  8
0
 10
107.9373448977017063
 20
44.6029906321596812
 30
0.0
  0
VERTEX
  5
1CDB
  8
0
 10
107.9302657691593055
 20
44.5593442600890413
 30
0.0
  0
VERTEX
  5
1CDC
  8
0
 10
107.9230295065633953
 20
44.5157194583155871
 30
0.0
  0
VERTEX
  5
1CDD
  8
0
 10
107.9156444669503969
 20
44.4721152787587499
 30
0.0
  0
VERTEX
  5
1CDE
  8
0
 10
107.9081190073566034
 20
44.4285307733379966
 30
0.0
  0
VERTEX
  5
1CDF
  8
0
 10
107.9004613631594935
 20
44.3849649974162475
 30
0.0
  0
VERTEX
  5
1CE0
  8
0
 10
107.8926754493245994
 20
44.3414171286437266
 30
0.0
  0
VERTEX
  5
1CE1
  8
0
 10
107.884759794262294
 20
44.2978864971345985
 30
0.0
  0
VERTEX
  5
1CE2
  8
0
 10
107.8767125882388029
 20
44.2543724425740166
 30
0.0
  0
VERTEX
  5
1CE3
  8
0
 10
107.868532021520096
 20
44.2108743046471915
 30
0.0
  0
VERTEX
  5
1CE4
  8
0
 10
107.8602162843725978
 20
44.167391423039291
 30
0.0
  0
VERTEX
  5
1CE5
  8
0
 10
107.8517635670623065
 20
44.123923137435483
 30
0.0
  0
VERTEX
  5
1CE6
  8
0
 10
107.8431721422908964
 20
44.0804688142004935
 30
0.0
  0
VERTEX
  5
1CE7
  8
0
 10
107.8344420846558052
 20
44.0370284028677119
 30
0.0
  0
VERTEX
  5
1CE8
  8
0
 10
107.825575219862003
 20
43.993602419701979
 30
0.0
  0
VERTEX
  5
1CE9
  8
0
 10
107.8165734458894036
 20
43.9501914043593729
 30
0.0
  0
VERTEX
  5
1CEA
  8
0
 10
107.8074386607183044
 20
43.9067958964959928
 30
0.0
  0
VERTEX
  5
1CEB
  8
0
 10
107.7981727623288037
 20
43.8634164357679879
 30
0.0
  0
VERTEX
  5
1CEC
  8
0
 10
107.7887776487010001
 20
43.8200535618314433
 30
0.0
  0
VERTEX
  5
1CED
  8
0
 10
107.7792552615435966
 20
43.776707814750992
 30
0.0
  0
VERTEX
  5
1CEE
  8
0
 10
107.769608129260007
 20
43.7333797400721807
 30
0.0
  0
VERTEX
  5
1CEF
  8
0
 10
107.7598391996326939
 20
43.6900698872584385
 30
0.0
  0
VERTEX
  5
1CF0
  8
0
 10
107.749951429522298
 20
43.6467788058580197
 30
0.0
  0
VERTEX
  5
1CF1
  8
0
 10
107.7399477757896022
 20
43.6035070454191498
 30
0.0
  0
VERTEX
  5
1CF2
  8
0
 10
107.7298311952952048
 20
43.5602551554900614
 30
0.0
  0
VERTEX
  5
1CF3
  8
0
 10
107.7196046448998032
 20
43.5170236856190016
 30
0.0
  0
VERTEX
  5
1CF4
  8
0
 10
107.709270684737703
 20
43.4738132176425083
 30
0.0
  0
VERTEX
  5
1CF5
  8
0
 10
107.6988274352440982
 20
43.4306246947302768
 30
0.0
  0
VERTEX
  5
1CF6
  8
0
 10
107.6882702322554053
 20
43.3874592866817324
 30
0.0
  0
VERTEX
  5
1CF7
  8
0
 10
107.6775943686518957
 20
43.3443181667923909
 30
0.0
  0
VERTEX
  5
1CF8
  8
0
 10
107.6667951373137981
 20
43.3012025083577328
 30
0.0
  0
VERTEX
  5
1CF9
  8
0
 10
107.6558678311211992
 20
43.2581134846732667
 30
0.0
  0
VERTEX
  5
1CFA
  8
0
 10
107.6448114060683992
 20
43.2150514762894531
 30
0.0
  0
VERTEX
  5
1CFB
  8
0
 10
107.633642793649301
 20
43.1720129736268916
 30
0.0
  0
VERTEX
  5
1CFC
  8
0
 10
107.622384430201393
 20
43.1289932757871313
 30
0.0
  0
VERTEX
  5
1CFD
  8
0
 10
107.611058753481899
 20
43.0859876815644469
 30
0.0
  0
VERTEX
  5
1CFE
  8
0
 10
107.599688201248
 20
43.0429914897531773
 30
0.0
  0
VERTEX
  5
1CFF
  8
0
 10
107.5882952112570052
 20
42.9999999991475974
 30
0.0
  0
SEQEND
  5
1D00
  8
0
  0
POLYLINE
  5
151C
  8
0
 66
     1
 10
0.0
 20
0.0
 30
0.0
  0
VERTEX
  5
1D01
  8
0
 10
100.0000000002789022
 20
47.9594519531319392
 30
0.0
  0
VERTEX
  5
1D02
  8
0
 10
100.0072364657338966
 20
48.003488437742412
 30
0.0
  0
VERTEX
  5
1D03
  8
0
 10
100.014507802712302
 20
48.0475201956242088
 30
0.0
  0
VERTEX
  5
1D04
  8
0
 10
100.0218488827375012
 20
48.0915425000487389
 30
0.0
  0
VERTEX
  5
1D05
  8
0
 10
100.0292945773330047
 20
48.1355506242873616
 30
0.0
  0
VERTEX
  5
1D06
  8
0
 10
100.0368797580222946
 20
48.1795398416114224
 30
0.0
  0
VERTEX
  5
1D07
  8
0
 10
100.0446392963286968
 20
48.2235054252923021
 30
0.0
  0
VERTEX
  5
1D08
  8
0
 10
100.0526079630309937
 20
48.2674426581267113
 30
0.0
  0
VERTEX
  5
1D09
  8
0
 10
100.0608066323233061
 20
48.3113481368248827
 30
0.0
  0
VERTEX
  5
1D0A
  8
0
 10
100.0692282188548035
 20
48.3552211016549478
 30
0.0
  0
VERTEX
  5
1D0B
  8
0
 10
100.0778622852061943
 20
48.3990611098209627
 30
0.0
  0
VERTEX
  5
1D0C
  8
0
 10
100.0866983939587982
 20
48.4428677185269834
 30
0.0
  0
VERTEX
  5
1D0D
  8
0
 10
100.0957261076935936
 20
48.4866404849770802
 30
0.0
  0
VERTEX
  5
1D0E
  8
0
 10
100.1049349889917011
 20
48.5303789663753022
 30
0.0
  0
VERTEX
  5
1D0F
  8
0
 10
100.114314996938603
 20
48.574082806810928
 30
0.0
  0
VERTEX
  5
1D10
  8
0
 10
100.123861362010004
 20
48.6177528054819774
 30
0.0
  0
VERTEX
  5
1D11
  8
0
 10
100.1335730588485973
 20
48.6613905820380523
 30
0.0
  0
VERTEX
  5
1D12
  8
0
 10
100.143449141907297
 20
48.7049977736173432
 30
0.0
  0
VERTEX
  5
1D13
  8
0
 10
100.1534886656387044
 20
48.7485760173580402
 30
0.0
  0
VERTEX
  5
1D14
  8
0
 10
100.1636906844957053
 20
48.7921269503983623
 30
0.0
  0
VERTEX
  5
1D15
  8
0
 10
100.174054252893896
 20
48.8356522096982104
 30
0.0
  0
VERTEX
  5
1D16
  8
0
 10
100.1845783269524048
 20
48.8791529614115632
 30
0.0
  0
VERTEX
  5
1D17
  8
0
 10
100.195261551153294
 20
48.9226288790531427
 30
0.0
  0
VERTEX
  5
1D18
  8
0
 10
100.2061025083631023
 20
48.9660793410226418
 30
0.0
  0
VERTEX
  5
1D19
  8
0
 10
100.2170997814486952
 20
49.0095037257197319
 30
0.0
  0
VERTEX
  5
1D1A
  8
0
 10
100.2282519532769953
 20
49.0529014115440702
 30
0.0
  0
VERTEX
  5
1D1B
  8
0
 10
100.2395576067146976
 20
49.0962717768953567
 30
0.0
  0
VERTEX
  5
1D1C
  8
0
 10
100.2510153046153931
 20
49.1396142041738671
 30
0.0
  0
VERTEX
  5
1D1D
  8
0
 10
100.262623110347505
 20
49.1829281756260173
 30
0.0
  0
VERTEX
  5
1D1E
  8
0
 10
100.2743785650057049
 20
49.2262132778996602
 30
0.0
  0
VERTEX
  5
1D1F
  8
0
 10
100.2862791851111979
 20
49.2694691025548792
 30
0.0
  0
VERTEX
  5
1D20
  8
0
 10
100.298322487185203
 20
49.3126952411518005
 30
0.0
  0
VERTEX
  5
1D21
  8
0
 10
100.3105059877485985
 20
49.3558912852505003
 30
0.0
  0
VERTEX
  5
1D22
  8
0
 10
100.3228272033227029
 20
49.3990568264110834
 30
0.0
  0
VERTEX
  5
1D23
  8
0
 10
100.3352842146721997
 20
49.4421913935474109
 30
0.0
  0
VERTEX
  5
1D24
  8
0
 10
100.3478792972955063
 20
49.4852940498450096
 30
0.0
  0
VERTEX
  5
1D25
  8
0
 10
100.3606166164608027
 20
49.528363648674123
 30
0.0
  0
VERTEX
  5
1D26
  8
0
 10
100.3735003465592968
 20
49.5713990423920734
 30
0.0
  0
VERTEX
  5
1D27
  8
0
 10
100.3865346619822958
 20
49.6143990833561475
 30
0.0
  0
VERTEX
  5
1D28
  8
0
 10
100.3997237371214055
 20
49.6573626239236816
 30
0.0
  0
VERTEX
  5
1D29
  8
0
 10
100.4130717463677058
 20
49.7002885164519697
 30
0.0
  0
VERTEX
  5
1D2A
  8
0
 10
100.4265784806559054
 20
49.7431766806019411
 30
0.0
  0
VERTEX
  5
1D2B
  8
0
 10
100.4402253803492044
 20
49.7860315041134598
 30
0.0
  0
VERTEX
  5
1D2C
  8
0
 10
100.4539890845603054
 20
49.8288585437563185
 30
0.0
  0
VERTEX
  5
1D2D
  8
0
 10
100.4678462323854973
 20
49.871663356304289
 30
0.0
  0
VERTEX
  5
1D2E
  8
0
 10
100.4817734629212964
 20
49.9144514985310579
 30
0.0
  0
VERTEX
  5
1D2F
  8
0
 10
100.495747415264205
 20
49.9572285272103969
 30
0.0
  0
VERTEX
  5
1D30
  8
0
 10
100.5097447285105972
 20
49.9999999991160067
 30
0.0
  0
SEQEND
  5
1D31
  8
0
  0
POLYLINE
  5
151D
  8
0
 66
     1
 10
0.0
 20
0.0
 30
0.0
  0
VERTEX
  5
1D32
  8
0
 10
100.5097447285102987
 20
42.9999999991126387
 30
0.0
  0
VERTEX
  5
1D33
  8
0
 10
100.4937431303855959
 20
43.0490546673667325
 30
0.0
  0
VERTEX
  5
1D34
  8
0
 10
100.4777722102707003
 20
43.098116462970637
 30
0.0
  0
VERTEX
  5
1D35
  8
0
 10
100.4618626461757032
 20
43.1471925132742129
 30
0.0
  0
VERTEX
  5
1D36
  8
0
 10
100.4460451161101986
 20
43.1962899456272709
 30
0.0
  0
VERTEX
  5
1D37
  8
0
 10
100.4303502980842069
 20
43.2454158873796572
 30
0.0
  0
VERTEX
  5
1D38
  8
0
 10
100.4148088701075068
 20
43.2945774658812113
 30
0.0
  0
VERTEX
  5
1D39
  8
0
 10
100.3994515101901044
 20
43.3437818084817579
 30
0.0
  0
VERTEX
  5
1D3A
  8
0
 10
100.3843044176819035
 20
43.3930348609460879
 30
0.0
  0
VERTEX
  5
1D3B
  8
0
 10
100.3693700865399023
 20
43.4423363149498414
 30
0.0
  0
VERTEX
  5
1D3C
  8
0
 10
100.3546431970764985
 20
43.4916838007293904
 30
0.0
  0
VERTEX
  5
1D3D
  8
0
 10
100.3401184247936015
 20
43.5410749472519001
 30
0.0
  0
VERTEX
  5
1D3E
  8
0
 10
100.3257904451927942
 20
43.5905073834845282
 30
0.0
  0
VERTEX
  5
1D3F
  8
0
 10
100.3116539337758013
 20
43.6399787383944187
 30
0.0
  0
VERTEX
  5
1D40
  8
0
 10
100.2977035660470051
 20
43.6894866409499727
 30
0.0
  0
VERTEX
  5
1D41
  8
0
 10
100.2839355575245008
 20
43.7390294782770397
 30
0.0
  0
VERTEX
  5
1D42
  8
0
 10
100.2703520672293962
 20
43.7886085635207891
 30
0.0
  0
VERTEX
  5
1D43
  8
0
 10
100.2569566878098044
 20
43.8382259156091578
 30
0.0
  0
VERTEX
  5
1D44
  8
0
 10
100.2437530119142934
 20
43.8878835534700471
 30
0.0
  0
VERTEX
  5
1D45
  8
0
 10
100.2307446321912039
 20
43.9375834960314222
 30
0.0
  0
VERTEX
  5
1D46
  8
0
 10
100.2179351412888053
 20
43.9873277622211702
 30
0.0
  0
VERTEX
  5
1D47
  8
0
 10
100.2053281245719063
 20
44.0371183587062589
 30
0.0
  0
VERTEX
  5
1D48
  8
0
 10
100.1929262757719954
 20
44.0869557912211789
 30
0.0
  0
VERTEX
  5
1D49
  8
0
 10
100.1807305513649027
 20
44.1368376410873822
 30
0.0
  0
VERTEX
  5
1D4A
  8
0
 10
100.1687417074469977
 20
44.1867611523172528
 30
0.0
  0
VERTEX
  5
1D4B
  8
0
 10
100.1569605001147067
 20
44.2367235689231677
 30
0.0
  0
VERTEX
  5
1D4C
  8
0
 10
100.1453876854644989
 20
44.2867221349174898
 30
0.0
  0
VERTEX
  5
1D4D
  8
0
 10
100.1340240195928004
 20
44.3367540943125888
 30
0.0
  0
VERTEX
  5
1D4E
  8
0
 10
100.1228706969442044
 20
44.3868168222366393
 30
0.0
  0
VERTEX
  5
1D4F
  8
0
 10
100.1119363424241016
 20
44.4369099163667727
 30
0.0
  0
VERTEX
  5
1D50
  8
0
 10
100.1012357822096988
 20
44.4870348292625124
 30
0.0
  0
VERTEX
  5
1D51
  8
0
 10
100.0907840324660043
 20
44.5371930703112398
 30
0.0
  0
VERTEX
  5
1D52
  8
0
 10
100.0805961093577992
 20
44.5873861489003218
 30
0.0
  0
VERTEX
  5
1D53
  8
0
 10
100.0706870290501058
 20
44.6376155744171399
 30
0.0
  0
VERTEX
  5
1D54
  8
0
 10
100.0610718077079042
 20
44.6878828562490895
 30
0.0
  0
VERTEX
  5
1D55
  8
0
 10
100.0517588899079016
 20
44.7381887111797383
 30
0.0
  0
VERTEX
  5
1D56
  8
0
 10
100.0427175153275954
 20
44.788529127462553
 30
0.0
  0
VERTEX
  5
1D57
  8
0
 10
100.0339024459866977
 20
44.8388983471906712
 30
0.0
  0
VERTEX
  5
1D58
  8
0
 10
100.0252684208374063
 20
44.8892906096750579
 30
0.0
  0
VERTEX
  5
1D59
  8
0
 10
100.0167701788318055
 20
44.9397001542266423
 30
0.0
  0
VERTEX
  5
1D5A
  8
0
 10
100.0083624589218942
 20
44.9901212201563396
 30
0.0
  0
VERTEX
  5
1D5B
  8
0
 10
100.0000000000598988
 20
45.0405480467751076
 30
0.0
  0
SEQEND
  5
1D5C
  8
0
  0
POLYLINE
  5
151E
  8
0
 66
     1
 10
0.0
 20
0.0
 30
0.0
  0
VERTEX
  5
1D5D
  8
0
 10
107.5882952112516051
 20
56.9999999991970583
 30
0.0
  0
VERTEX
  5
1D5E
  8
0
 10
107.6034495770682042
 20
56.9422380545542381
 30
0.0
  0
VERTEX
  5
1D5F
  8
0
 10
107.6185686975104971
 20
56.8844699678890322
 30
0.0
  0
VERTEX
  5
1D60
  8
0
 10
107.6336173272045045
 20
56.8266895971790618
 30
0.0
  0
VERTEX
  5
1D61
  8
0
 10
107.6485602207759058
 20
56.768890800401941
 30
0.0
  0
VERTEX
  5
1D62
  8
0
 10
107.6633621328504944
 20
56.7110674355352771
 30
0.0
  0
VERTEX
  5
1D63
  8
0
 10
107.6779878180542056
 20
56.6532133605567196
 30
0.0
  0
VERTEX
  5
1D64
  8
0
 10
107.6924020310127048
 20
56.5953224334438829
 30
0.0
  0
VERTEX
  5
1D65
  8
0
 10
107.7065734132568053
 20
56.5373892122975619
 30
0.0
  0
VERTEX
  5
1D66
  8
0
 10
107.7204968022096949
 20
56.4794129737162791
 30
0.0
  0
VERTEX
  5
1D67
  8
0
 10
107.7341778543747068
 20
56.4213949430698918
 30
0.0
  0
VERTEX
  5
1D68
  8
0
 10
107.7476222603753939
 20
56.3633363518740893
 30
0.0
  0
VERTEX
  5
1D69
  8
0
 10
107.7608357108351953
 20
56.3052384316445682
 30
0.0
  0
VERTEX
  5
1D6A
  8
0
 10
107.7738238963772943
 20
56.2471024138970108
 30
0.0
  0
VERTEX
  5
1D6B
  8
0
 10
107.7865925076253006
 20
56.1889295301470781
 30
0.0
  0
VERTEX
  5
1D6C
  8
0
 10
107.7991464447303969
 20
56.1307208897448433
 30
0.0
  0
VERTEX
  5
1D6D
  8
0
 10
107.8114858749652001
 20
56.0724768705848291
 30
0.0
  0
VERTEX
  5
1D6E
  8
0
 10
107.8236092119292948
 20
56.0141975795355407
 30
0.0
  0
VERTEX
  5
1D6F
  8
0
 10
107.8355148663619048
 20
55.9558831230233693
 30
0.0
  0
VERTEX
  5
1D70
  8
0
 10
107.8472012490019978
 20
55.897533607474692
 30
0.0
  0
VERTEX
  5
1D71
  8
0
 10
107.8586667705887976
 20
55.8391491393158788
 30
0.0
  0
VERTEX
  5
1D72
  8
0
 10
107.8699098418614994
 20
55.7807298249733279
 30
0.0
  0
VERTEX
  5
1D73
  8
0
 10
107.8809263899549933
 20
55.7222757294670004
 30
0.0
  0
VERTEX
  5
1D74
  8
0
 10
107.8917023205931969
 20
55.6637867507409112
 30
0.0
  0
VERTEX
  5
1D75
  8
0
 10
107.9022210122084005
 20
55.6052627446042393
 30
0.0
  0
VERTEX
  5
1D76
  8
0
 10
107.9124658432326953
 20
55.5467035668662419
 30
0.0
  0
VERTEX
  5
1D77
  8
0
 10
107.9224201920982011
 20
55.4881090733360978
 30
0.0
  0
VERTEX
  5
1D78
  8
0
 10
107.932067437236995
 20
55.429479119823057
 30
0.0
  0
VERTEX
  5
1D79
  8
0
 10
107.9413909608134929
 20
55.3708135624367088
 30
0.0
  0
VERTEX
  5
1D7A
  8
0
 10
107.9503873277361947
 20
55.3121133183106508
 30
0.0
  0
VERTEX
  5
1D7B
  8
0
 10
107.9590958582155054
 20
55.2533827457739832
 30
0.0
  0
VERTEX
  5
1D7C
  8
0
 10
107.967564524992099
 20
55.1946268995618183
 30
0.0
  0
VERTEX
  5
1D7D
  8
0
 10
107.9758413008064935
 20
55.1358508344092684
 30
0.0
  0
VERTEX
  5
1D7E
  8
0
 10
107.9839741583992065
 20
55.0770596050514101
 30
0.0
  0
VERTEX
  5
1D7F
  8
0
 10
107.9920110705107987
 20
55.0182582662233486
 30
0.0
  0
VERTEX
  5
1D80
  8
0
 10
108.0000000098819015
 20
54.9594518726602033
 30
0.0
  0
SEQEND
  5
1D81
  8
0
  0
POLYLINE
  5
151F
  8
0
 66
     1
 10
0.0
 20
0.0
 30
0.0
  0
VERTEX
  5
1D82
  8
0
 10
100.0000000002789022
 20
54.9594519530649279
 30
0.0
  0
VERTEX
  5
1D83
  8
0
 10
100.0072364657337971
 20
55.0034514832145121
 30
0.0
  0
VERTEX
  5
1D84
  8
0
 10
100.0145078027122025
 20
55.0474463862564676
 30
0.0
  0
VERTEX
  5
1D85
  8
0
 10
100.0218488827374017
 20
55.0914320350831801
 30
0.0
  0
VERTEX
  5
1D86
  8
0
 10
100.0292945773329052
 20
55.1354038025870068
 30
0.0
  0
VERTEX
  5
1D87
  8
0
 10
100.0368797580221951
 20
55.1793570616603475
 30
0.0
  0
VERTEX
  5
1D88
  8
0
 10
100.0446392963284978
 20
55.2232871851955593
 30
0.0
  0
VERTEX
  5
1D89
  8
0
 10
100.0526079630307947
 20
55.2671895601858694
 30
0.0
  0
VERTEX
  5
1D8A
  8
0
 10
100.0608066323232066
 20
55.3110615186759773
 30
0.0
  0
VERTEX
  5
1D8B
  8
0
 10
100.069228218854505
 20
55.3549043061006003
 30
0.0
  0
VERTEX
  5
1D8C
  8
0
 10
100.0778622852059954
 20
55.3987196370704567
 30
0.0
  0
VERTEX
  5
1D8D
  8
0
 10
100.0866983939584998
 20
55.4425092261963215
 30
0.0
  0
VERTEX
  5
1D8E
  8
0
 10
100.0957261076932951
 20
55.4862747880888989
 30
0.0
  0
VERTEX
  5
1D8F
  8
0
 10
100.1049349889914026
 20
55.5300180373589498
 30
0.0
  0
VERTEX
  5
1D90
  8
0
 10
100.1143149969381057
 20
55.5737405320115272
 30
0.0
  0
VERTEX
  5
1D91
  8
0
 10
100.1238613620095066
 20
55.6174417480325403
 30
0.0
  0
VERTEX
  5
1D92
  8
0
 10
100.1335730588480004
 20
55.6611196825897565
 30
0.0
  0
VERTEX
  5
1D93
  8
0
 10
100.1434491419066006
 20
55.7047723013287808
 30
0.0
  0
VERTEX
  5
1D94
  8
0
 10
100.1534886656380934
 20
55.748397569895161
 30
0.0
  0
VERTEX
  5
1D95
  8
0
 10
100.1636906844949948
 20
55.7919934539344666
 30
0.0
  0
VERTEX
  5
1D96
  8
0
 10
100.1740542528931996
 20
55.8355579192663285
 30
0.0
  0
VERTEX
  5
1D97
  8
0
 10
100.1845783269516943
 20
55.8790893914660387
 30
0.0
  0
VERTEX
  5
1D98
  8
0
 10
100.1952615511523987
 20
55.92258775371414
 30
0.0
  0
VERTEX
  5
1D99
  8
0
 10
100.206102508362207
 20
55.9660531773795498
 30
0.0
  0
VERTEX
  5
1D9A
  8
0
 10
100.2170997814478
 20
56.0094858338311923
 30
0.0
  0
VERTEX
  5
1D9B
  8
0
 10
100.2282519532760006
 20
56.052885894437992
 30
0.0
  0
VERTEX
  5
1D9C
  8
0
 10
100.2395576067138023
 20
56.0962535305688732
 30
0.0
  0
VERTEX
  5
1D9D
  8
0
 10
100.2510153046142989
 20
56.1395889256854232
 30
0.0
  0
VERTEX
  5
1D9E
  8
0
 10
100.2626231103463965
 20
56.1828925650552193
 30
0.0
  0
VERTEX
  5
1D9F
  8
0
 10
100.2743785650045965
 20
56.2261652495211806
 30
0.0
  0
VERTEX
  5
1DA0
  8
0
 10
100.2862791851101036
 20
56.2694077947744873
 30
0.0
  0
VERTEX
  5
1DA1
  8
0
 10
100.2983224871839951
 20
56.3126210165063696
 30
0.0
  0
VERTEX
  5
1DA2
  8
0
 10
100.3105059877474048
 20
56.3558057304080293
 30
0.0
  0
VERTEX
  5
1DA3
  8
0
 10
100.322827203321296
 20
56.3989627521706609
 30
0.0
  0
VERTEX
  5
1DA4
  8
0
 10
100.3352842146706934
 20
56.4420926799534399
 30
0.0
  0
VERTEX
  5
1DA5
  8
0
 10
100.3478792972939999
 20
56.4851944947259668
 30
0.0
  0
VERTEX
  5
1DA6
  8
0
 10
100.3606166164591968
 20
56.5282664488977886
 30
0.0
  0
VERTEX
  5
1DA7
  8
0
 10
100.3735003465577051
 20
56.5713067913611525
 30
0.0
  0
VERTEX
  5
1DA8
  8
0
 10
100.3865346619807042
 20
56.6143137710082698
 30
0.0
  0
VERTEX
  5
1DA9
  8
0
 10
100.3997237371197002
 20
56.6572856367313733
 30
0.0
  0
VERTEX
  5
1DAA
  8
0
 10
100.4130717463660005
 20
56.7002206374226816
 30
0.0
  0
VERTEX
  5
1DAB
  8
0
 10
100.4265784806541006
 20
56.7431181814628189
 30
0.0
  0
VERTEX
  5
1DAC
  8
0
 10
100.4402253803473997
 20
56.7859825312266224
 30
0.0
  0
VERTEX
  5
1DAD
  8
0
 10
100.4539890845584011
 20
56.8288192190899508
 30
0.0
  0
VERTEX
  5
1DAE
  8
0
 10
100.467846232383593
 20
56.8716337774328906
 30
0.0
  0
VERTEX
  5
1DAF
  8
0
 10
100.4817734629193069
 20
56.9144317386355567
 30
0.0
  0
VERTEX
  5
1DB0
  8
0
 10
100.4957474152621018
 20
56.9572186350780214
 30
0.0
  0
VERTEX
  5
1DB1
  8
0
 10
100.5097447285084939
 20
56.9999999991403783
 30
0.0
  0
SEQEND
  5
1DB2
  8
0
  0
POLYLINE
  5
1520
  8
0
 66
     1
 10
0.0
 20
0.0
 30
0.0
  0
VERTEX
  5
1DB3
  8
0
 10
100.5097447285105972
 20
49.9999999991159996
 30
0.0
  0
VERTEX
  5
1DB4
  8
0
 10
100.4937431303857949
 20
50.0490401320249632
 30
0.0
  0
VERTEX
  5
1DB5
  8
0
 10
100.4777722102709987
 20
50.0980875602252809
 30
0.0
  0
VERTEX
  5
1DB6
  8
0
 10
100.4618626461758026
 20
50.1471495790083068
 30
0.0
  0
VERTEX
  5
1DB7
  8
0
 10
100.4460451161103975
 20
50.1962334836654023
 30
0.0
  0
VERTEX
  5
1DB8
  8
0
 10
100.4303502980843064
 20
50.2453465694878787
 30
0.0
  0
VERTEX
  5
1DB9
  8
0
 10
100.4148088701077057
 20
50.2944961317671329
 30
0.0
  0
VERTEX
  5
1DBA
  8
0
 10
100.3994515101903033
 20
50.3436894657944904
 30
0.0
  0
VERTEX
  5
1DBB
  8
0
 10
100.3843044176821024
 20
50.3929327693809483
 30
0.0
  0
VERTEX
  5
1DBC
  8
0
 10
100.3693700865400018
 20
50.4422264314115125
 30
0.0
  0
VERTEX
  5
1DBD
  8
0
 10
100.3546431970766974
 20
50.4915689260642324
 30
0.0
  0
VERTEX
  5
1DBE
  8
0
 10
100.3401184247938005
 20
50.5409587263382889
 30
0.0
  0
VERTEX
  5
1DBF
  8
0
 10
100.3257904451929932
 20
50.5903943052328415
 30
0.0
  0
VERTEX
  5
1DC0
  8
0
 10
100.3116539337760003
 20
50.639874135747057
 30
0.0
  0
VERTEX
  5
1DC1
  8
0
 10
100.2977035660471046
 20
50.6893966908800877
 30
0.0
  0
VERTEX
  5
1DC2
  8
0
 10
100.2839355575246998
 20
50.7389604126554516
 30
0.0
  0
VERTEX
  5
1DC3
  8
0
 10
100.2703520672294957
 20
50.7885636235500897
 30
0.0
  0
VERTEX
  5
1DC4
  8
0
 10
100.2569566878100034
 20
50.8382046172052
 30
0.0
  0
VERTEX
  5
1DC5
  8
0
 10
100.2437530119143929
 20
50.8878816872620234
 30
0.0
  0
VERTEX
  5
1DC6
  8
0
 10
100.2307446321913034
 20
50.9375931273617226
 30
0.0
  0
VERTEX
  5
1DC7
  8
0
 10
100.2179351412889048
 20
50.9873372311455171
 30
0.0
  0
VERTEX
  5
1DC8
  8
0
 10
100.2053281245720058
 20
51.03711230168593
 30
0.0
  0
VERTEX
  5
1DC9
  8
0
 10
100.1929262757720949
 20
51.08691779659069
 30
0.0
  0
VERTEX
  5
1DCA
  8
0
 10
100.1807305513649027
 20
51.1367554229611585
 30
0.0
  0
VERTEX
  5
1DCB
  8
0
 10
100.1687417074470972
 20
51.1866271473608876
 30
0.0
  0
VERTEX
  5
1DCC
  8
0
 10
100.1569605001148062
 20
51.2365349363534435
 30
0.0
  0
VERTEX
  5
1DCD
  8
0
 10
100.1453876854645983
 20
51.2864807565023568
 30
0.0
  0
VERTEX
  5
1DCE
  8
0
 10
100.1340240195928004
 20
51.3364665743712081
 30
0.0
  0
VERTEX
  5
1DCF
  8
0
 10
100.1228706969443039
 20
51.3864943094152125
 30
0.0
  0
VERTEX
  5
1DD0
  8
0
 10
100.111936342424201
 20
51.4365650825544733
 30
0.0
  0
VERTEX
  5
1DD1
  8
0
 10
100.1012357822097982
 20
51.4866793482721476
 30
0.0
  0
VERTEX
  5
1DD2
  8
0
 10
100.0907840324661038
 20
51.5368375406338401
 30
0.0
  0
VERTEX
  5
1DD3
  8
0
 10
100.0805961093578986
 20
51.5870400937051414
 30
0.0
  0
VERTEX
  5
1DD4
  8
0
 10
100.0706870290502053
 20
51.6372874415516492
 30
0.0
  0
VERTEX
  5
1DD5
  8
0
 10
100.0610718077080037
 20
51.6875800182389611
 30
0.0
  0
VERTEX
  5
1DD6
  8
0
 10
100.051758889908001
 20
51.7379174847544974
 30
0.0
  0
VERTEX
  5
1DD7
  8
0
 10
100.0427175153276949
 20
51.7882948900417333
 30
0.0
  0
VERTEX
  5
1DD8
  8
0
 10
100.0339024459868966
 20
51.8387055799001288
 30
0.0
  0
VERTEX
  5
1DD9
  8
0
 10
100.0252684208375058
 20
51.8891428974154607
 30
0.0
  0
VERTEX
  5
1DDA
  8
0
 10
100.016770178831905
 20
51.939600185673477
 30
0.0
  0
VERTEX
  5
1DDB
  8
0
 10
100.0083624589219937
 20
51.9900707877599615
 30
0.0
  0
VERTEX
  5
1DDC
  8
0
 10
100.0000000000600977
 20
52.0405480467606765
 30
0.0
  0
SEQEND
  5
1DDD
  8
0
  0
POLYLINE
  5
1521
  8
0
 66
     1
 10
0.0
 20
0.0
 30
0.0
  0
VERTEX
  5
1DDE
  8
0
 10
108.0
 20
52.0405480472046804
 30
0.0
  0
VERTEX
  5
1DDF
  8
0
 10
107.994134920841006
 20
51.9967403252594735
 30
0.0
  0
VERTEX
  5
1DE0
  8
0
 10
107.9882450599008052
 20
51.9529347496685077
 30
0.0
  0
VERTEX
  5
1DE1
  8
0
 10
107.9823056353981059
 20
51.9091334667860735
 30
0.0
  0
VERTEX
  5
1DE2
  8
0
 10
107.9762918655518007
 20
51.8653386229664193
 30
0.0
  0
VERTEX
  5
1DE3
  8
0
 10
107.9701789685805977
 20
51.8215523645638427
 30
0.0
  0
VERTEX
  5
1DE4
  8
0
 10
107.9639421627034039
 20
51.7777768379325565
 30
0.0
  0
VERTEX
  5
1DE5
  8
0
 10
107.9575566661387995
 20
51.7340141894268726
 30
0.0
  0
VERTEX
  5
1DE6
  8
0
 10
107.9509983244786042
 20
51.6902665248276705
 30
0.0
  0
VERTEX
  5
1DE7
  8
0
 10
107.9442585351520023
 20
51.6465349441501331
 30
0.0
  0
VERTEX
  5
1DE8
  8
0
 10
107.9373448976992051
 20
51.602819499589252
 30
0.0
  0
VERTEX
  5
1DE9
  8
0
 10
107.9302657691566054
 20
51.5591201943513866
 30
0.0
  0
VERTEX
  5
1DEA
  8
0
 10
107.9230295065604963
 20
51.5154370316429109
 30
0.0
  0
VERTEX
  5
1DEB
  8
0
 10
107.915644466947299
 20
51.4717700146701702
 30
0.0
  0
VERTEX
  5
1DEC
  8
0
 10
107.9081190073532071
 20
51.4281191466395313
 30
0.0
  0
VERTEX
  5
1DED
  8
0
 10
107.9004613631558982
 20
51.3844844503694205
 30
0.0
  0
VERTEX
  5
1DEE
  8
0
 10
107.8926754493208051
 20
51.3408666451530635
 30
0.0
  0
VERTEX
  5
1DEF
  8
0
 10
107.8847597942582013
 20
51.2972673186266803
 30
0.0
  0
VERTEX
  5
1DF0
  8
0
 10
107.8767125882343976
 20
51.2536881129372901
 30
0.0
  0
VERTEX
  5
1DF1
  8
0
 10
107.8685320215155059
 20
51.2101306702318766
 30
0.0
  0
VERTEX
  5
1DF2
  8
0
 10
107.860216284367695
 20
51.1665966326574306
 30
0.0
  0
VERTEX
  5
1DF3
  8
0
 10
107.8517635670572048
 20
51.1230876423609288
 30
0.0
  0
VERTEX
  5
1DF4
  8
0
 10
107.8431721422855958
 20
51.0796052959856013
 30
0.0
  0
VERTEX
  5
1DF5
  8
0
 10
107.8344420846503056
 20
51.0361501955415733
 30
0.0
  0
VERTEX
  5
1DF6
  8
0
 10
107.825575219856205
 20
50.992721976440528
 30
0.0
  0
VERTEX
  5
1DF7
  8
0
 10
107.8165734458834066
 20
50.9493202341987867
 30
0.0
  0
VERTEX
  5
1DF8
  8
0
 10
107.8074386607119948
 20
50.9059445643326427
 30
0.0
  0
VERTEX
  5
1DF9
  8
0
 10
107.7981727623223946
 20
50.8625945623584101
 30
0.0
  0
VERTEX
  5
1DFA
  8
0
 10
107.7887776486944063
 20
50.8192698237923892
 30
0.0
  0
VERTEX
  5
1DFB
  8
0
 10
107.7792552615366048
 20
50.775969913399031
 30
0.0
  0
VERTEX
  5
1DFC
  8
0
 10
107.7696081292528021
 20
50.7326939833519077
 30
0.0
  0
VERTEX
  5
1DFD
  8
0
 10
107.7598391996253042
 20
50.689440890898112
 30
0.0
  0
VERTEX
  5
1DFE
  8
0
 10
107.7499514295146952
 20
50.6462094869004176
 30
0.0
  0
VERTEX
  5
1DFF
  8
0
 10
107.7399477757818005
 20
50.6029986222216692
 30
0.0
  0
VERTEX
  5
1E00
  8
0
 10
107.7298311952871046
 20
50.5598071477246265
 30
0.0
  0
VERTEX
  5
1E01
  8
0
 10
107.7196046448915041
 20
50.516633914272127
 30
0.0
  0
VERTEX
  5
1E02
  8
0
 10
107.7092706847291055
 20
50.4734778935959127
 30
0.0
  0
VERTEX
  5
1E03
  8
0
 10
107.6988274352353017
 20
50.4303394100517508
 30
0.0
  0
VERTEX
  5
1E04
  8
0
 10
107.6882702322463956
 20
50.3872196363672202
 30
0.0
  0
VERTEX
  5
1E05
  8
0
 10
107.6775943686427013
 20
50.3441197583571878
 30
0.0
  0
VERTEX
  5
1E06
  8
0
 10
107.6667951373043053
 20
50.3010409618364918
 30
0.0
  0
VERTEX
  5
1E07
  8
0
 10
107.6558678311114932
 20
50.2579844326199776
 30
0.0
  0
VERTEX
  5
1E08
  8
0
 10
107.6448114060584942
 20
50.2149506611378911
 30
0.0
  0
VERTEX
  5
1E09
  8
0
 10
107.6336427936390976
 20
50.1719367254542092
 30
0.0
  0
VERTEX
  5
1E0A
  8
0
 10
107.6223844301909054
 20
50.1289386586248611
 30
0.0
  0
VERTEX
  5
1E0B
  8
0
 10
107.6110587534711982
 20
50.0859524934362383
 30
0.0
  0
VERTEX
  5
1E0C
  8
0
 10
107.5996882012371998
 20
50.0429742626747824
 30
0.0
  0
VERTEX
  5
1E0D
  8
0
 10
107.5882952112459066
 20
49.9999999991269135
 30
0.0
  0
SEQEND
  5
1E0E
  8
0
  0
POLYLINE
  5
1522
  8
0
 66
     1
 10
0.0
 20
0.0
 30
0.0
  0
VERTEX
  5
1E0F
  8
0
 10
107.5882952112459066
 20
49.9999999991269206
 30
0.0
  0
VERTEX
  5
1E10
  8
0
 10
107.603449577062193
 20
49.9422645898687918
 30
0.0
  0
VERTEX
  5
1E11
  8
0
 10
107.6185686975043012
 20
49.8845220763498816
 30
0.0
  0
VERTEX
  5
1E12
  8
0
 10
107.6336173271982943
 20
49.8267653543093303
 30
0.0
  0
VERTEX
  5
1E13
  8
0
 10
107.6485602207700936
 20
49.7689873194863281
 30
0.0
  0
VERTEX
  5
1E14
  8
0
 10
107.6633621328456059
 20
49.7111808676200724
 30
0.0
  0
VERTEX
  5
1E15
  8
0
 10
107.677987818050795
 20
49.6533388944497318
 30
0.0
  0
VERTEX
  5
1E16
  8
0
 10
107.6924020310115964
 20
49.5954542957144895
 30
0.0
  0
VERTEX
  5
1E17
  8
0
 10
107.7065734132586954
 20
49.5375208927354009
 30
0.0
  0
VERTEX
  5
1E18
  8
0
 10
107.7204968022151945
 20
49.4795387448156703
 30
0.0
  0
VERTEX
  5
1E19
  8
0
 10
107.7341778543841997
 20
49.4215104875871702
 30
0.0
  0
VERTEX
  5
1E1A
  8
0
 10
107.7476222603889937
 20
49.3634387648067516
 30
0.0
  0
VERTEX
  5
1E1B
  8
0
 10
107.7608357108525041
 20
49.3053262202311871
 30
0.0
  0
VERTEX
  5
1E1C
  8
0
 10
107.7738238963979001
 20
49.2471754976173415
 30
0.0
  0
VERTEX
  5
1E1D
  8
0
 10
107.7865925076482938
 20
49.1889892407219875
 30
0.0
  0
VERTEX
  5
1E1E
  8
0
 10
107.7991464447548964
 20
49.1307698196485916
 30
0.0
  0
VERTEX
  5
1E1F
  8
0
 10
107.811485874989998
 20
49.0725179660261119
 30
0.0
  0
VERTEX
  5
1E20
  8
0
 10
107.8236092119536949
 20
49.014233804379991
 30
0.0
  0
VERTEX
  5
1E21
  8
0
 10
107.8355148663851963
 20
48.9559174582452812
 30
0.0
  0
VERTEX
  5
1E22
  8
0
 10
107.8472012490238967
 20
48.8975690511570491
 30
0.0
  0
VERTEX
  5
1E23
  8
0
 10
107.8586667706090054
 20
48.8391887066503614
 30
0.0
  0
VERTEX
  5
1E24
  8
0
 10
107.869909841879803
 20
48.7807765482602989
 30
0.0
  0
VERTEX
  5
1E25
  8
0
 10
107.8809263899715063
 20
48.7223324409473193
 30
0.0
  0
VERTEX
  5
1E26
  8
0
 10
107.8917023206081041
 20
48.6638552063162919
 30
0.0
  0
VERTEX
  5
1E27
  8
0
 10
107.9022210122217018
 20
48.6053434028490301
 30
0.0
  0
VERTEX
  5
1E28
  8
0
 10
107.9124658432445045
 20
48.5467955890273188
 30
0.0
  0
VERTEX
  5
1E29
  8
0
 10
107.9224201921086035
 20
48.488210323333
 30
0.0
  0
VERTEX
  5
1E2A
  8
0
 10
107.9320674372461042
 20
48.4295861642478584
 30
0.0
  0
VERTEX
  5
1E2B
  8
0
 10
107.9413909608212947
 20
48.370921670677582
 30
0.0
  0
VERTEX
  5
1E2C
  8
0
 10
107.9503873277428028
 20
48.3122168986886606
 30
0.0
  0
VERTEX
  5
1E2D
  8
0
 10
107.959095858221005
 20
48.2534767600561025
 30
0.0
  0
VERTEX
  5
1E2E
  8
0
 10
107.9675645249964049
 20
48.1947071492205268
 30
0.0
  0
VERTEX
  5
1E2F
  8
0
 10
107.9758413008097051
 20
48.1359139606225384
 30
0.0
  0
VERTEX
  5
1E30
  8
0
 10
107.9839741584012955
 20
48.0771030887027493
 30
0.0
  0
VERTEX
  5
1E31
  8
0
 10
107.9920110705117935
 20
48.0182804279017432
 30
0.0
  0
VERTEX
  5
1E32
  8
0
 10
108.0000000098817026
 20
47.9594518726601322
 30
0.0
  0
SEQEND
  5
1E33
  8
0
  0
POLYLINE
  5
1523
  8
0
 66
     1
 10
0.0
 20
0.0
 30
0.0
  0
VERTEX
  5
1E34
  8
0
 10
107.5882952111583961
 20
108.0829037677446962
 30
0.0
  0
VERTEX
  5
1E35
  8
0
 10
107.6034495769747963
 20
108.0495395732460935
 30
0.0
  0
VERTEX
  5
1E36
  8
0
 10
107.6185686974171034
 20
108.016172388197802
 30
0.0
  0
VERTEX
  5
1E37
  8
0
 10
107.6336173271109971
 20
107.9827992220505024
 30
0.0
  0
VERTEX
  5
1E38
  8
0
 10
107.6485602206822989
 20
107.949417084254506
 30
0.0
  0
VERTEX
  5
1E39
  8
0
 10
107.6633621327568022
 20
107.916022984260195
 30
0.0
  0
VERTEX
  5
1E3A
  8
0
 10
107.6779878179603998
 20
107.8826139315181933
 30
0.0
  0
VERTEX
  5
1E3B
  8
0
 10
107.692402030918899
 20
107.849186935478798
 30
0.0
  0
VERTEX
  5
1E3C
  8
0
 10
107.7065734131629
 20
107.8157392796401979
 30
0.0
  0
VERTEX
  5
1E3D
  8
0
 10
107.7204968021157043
 20
107.7822700944513059
 30
0.0
  0
VERTEX
  5
1E3E
  8
0
 10
107.734177854280702
 20
107.7487792731644021
 30
0.0
  0
VERTEX
  5
1E3F
  8
0
 10
107.7476222602812044
 20
107.7152667114373941
 30
0.0
  0
VERTEX
  5
1E40
  8
0
 10
107.7608357107409063
 20
107.6817323049283033
 30
0.0
  0
VERTEX
  5
1E41
  8
0
 10
107.7738238962829058
 20
107.6481759492947958
 30
0.0
  0
VERTEX
  5
1E42
  8
0
 10
107.7865925075308979
 20
107.6145975401947936
 30
0.0
  0
VERTEX
  5
1E43
  8
0
 10
107.7991464446358947
 20
107.5809969902153966
 30
0.0
  0
VERTEX
  5
1E44
  8
0
 10
107.8114858748704989
 20
107.5473743133054967
 30
0.0
  0
VERTEX
  5
1E45
  8
0
 10
107.8236092118344942
 20
107.5137295609715977
 30
0.0
  0
VERTEX
  5
1E46
  8
0
 10
107.8355148662669052
 20
107.4800627847814951
 30
0.0
  0
VERTEX
  5
1E47
  8
0
 10
107.8472012489068987
 20
107.4463740363027
 30
0.0
  0
VERTEX
  5
1E48
  8
0
 10
107.8586667704936986
 20
107.4126633671033062
 30
0.0
  0
VERTEX
  5
1E49
  8
0
 10
107.869909841766102
 20
107.3789308287506969
 30
0.0
  0
VERTEX
  5
1E4A
  8
0
 10
107.8809263898594963
 20
107.3451765742889989
 30
0.0
  0
VERTEX
  5
1E4B
  8
0
 10
107.8917023204976999
 20
107.3114011662206053
 30
0.0
  0
VERTEX
  5
1E4C
  8
0
 10
107.9022210121127046
 20
107.2776052703093939
 30
0.0
  0
VERTEX
  5
1E4D
  8
0
 10
107.9124658431368999
 20
107.2437895523191997
 30
0.0
  0
VERTEX
  5
1E4E
  8
0
 10
107.9224201920023063
 20
107.2099546780135029
 30
0.0
  0
VERTEX
  5
1E4F
  8
0
 10
107.9320674371410007
 20
107.1761013131561953
 30
0.0
  0
VERTEX
  5
1E50
  8
0
 10
107.9413909607172997
 20
107.1422301236132029
 30
0.0
  0
VERTEX
  5
1E51
  8
0
 10
107.950387327639902
 20
107.1083421360289947
 30
0.0
  0
VERTEX
  5
1E52
  8
0
 10
107.9590958581190989
 20
107.0744395471540003
 30
0.0
  0
VERTEX
  5
1E53
  8
0
 10
107.9675645248955931
 20
107.0405247905366934
 30
0.0
  0
VERTEX
  5
1E54
  8
0
 10
107.9758413007099023
 20
107.0066002997255055
 30
0.0
  0
VERTEX
  5
1E55
  8
0
 10
107.9839741583025017
 20
106.9726685082689954
 30
0.0
  0
VERTEX
  5
1E56
  8
0
 10
107.9920110704139944
 20
106.9387318497154951
 30
0.0
  0
VERTEX
  5
1E57
  8
0
 10
108.0000000097849977
 20
106.9047927576136061
 30
0.0
  0
SEQEND
  5
1E58
  8
0
  0
POLYLINE
  5
1524
  8
0
 66
     1
 10
0.0
 20
0.0
 30
0.0
  0
VERTEX
  5
1E59
  8
0
 10
100.0000000001819984
 20
106.9047928039965001
 30
0.0
  0
VERTEX
  5
1E5A
  8
0
 10
100.0072364656368933
 20
106.9301746089045935
 30
0.0
  0
VERTEX
  5
1E5B
  8
0
 10
100.0145078026152987
 20
106.9555537998671042
 30
0.0
  0
VERTEX
  5
1E5C
  8
0
 10
100.0218488826404979
 20
106.9809277629382933
 30
0.0
  0
VERTEX
  5
1E5D
  8
0
 10
100.0292945772360014
 20
107.006293884172706
 30
0.0
  0
VERTEX
  5
1E5E
  8
0
 10
100.036879757925206
 20
107.0316495496247029
 30
0.0
  0
VERTEX
  5
1E5F
  8
0
 10
100.044639296231594
 20
107.0569921453486018
 30
0.0
  0
VERTEX
  5
1E60
  8
0
 10
100.0526079629337062
 20
107.0823190681815049
 30
0.0
  0
VERTEX
  5
1E61
  8
0
 10
100.0608066322260044
 20
107.1076292023244036
 30
0.0
  0
VERTEX
  5
1E62
  8
0
 10
100.0692282187574023
 20
107.1329244245127938
 30
0.0
  0
VERTEX
  5
1E63
  8
0
 10
100.0778622851086936
 20
107.1582069702568987
 30
0.0
  0
VERTEX
  5
1E64
  8
0
 10
100.0866983938612975
 20
107.1834790750671971
 30
0.0
  0
VERTEX
  5
1E65
  8
0
 10
100.0957261075959934
 20
107.2087429744537985
 30
0.0
  0
VERTEX
  5
1E66
  8
0
 10
100.1049349888940014
 20
107.2340009039270967
 30
0.0
  0
VERTEX
  5
1E67
  8
0
 10
100.1143149968409034
 20
107.2592548680014062
 30
0.0
  0
VERTEX
  5
1E68
  8
0
 10
100.1238613619122049
 20
107.2845038001804028
 30
0.0
  0
VERTEX
  5
1E69
  8
0
 10
100.1335730587506987
 20
107.3097444526872977
 30
0.0
  0
VERTEX
  5
1E6A
  8
0
 10
100.1434491418092989
 20
107.3349735312499007
 30
0.0
  0
VERTEX
  5
1E6B
  8
0
 10
100.1534886655407064
 20
107.3601877415957944
 30
0.0
  0
VERTEX
  5
1E6C
  8
0
 10
100.1636906843975936
 20
107.3853837894527032
 30
0.0
  0
VERTEX
  5
1E6D
  8
0
 10
100.174054252795699
 20
107.4105583808520947
 30
0.0
  0
VERTEX
  5
1E6E
  8
0
 10
100.1845783268541936
 20
107.4357090245257069
 30
0.0
  0
VERTEX
  5
1E6F
  8
0
 10
100.1952615510547986
 20
107.4608357740784044
 30
0.0
  0
VERTEX
  5
1E70
  8
0
 10
100.2061025082644932
 20
107.4859391862710964
 30
0.0
  0
VERTEX
  5
1E71
  8
0
 10
100.2170997813501998
 20
107.5110198178648062
 30
0.0
  0
VERTEX
  5
1E72
  8
0
 10
100.2282519531784999
 20
107.5360782256203009
 30
0.0
  0
VERTEX
  5
1E73
  8
0
 10
100.2395576066163017
 20
107.5611149662986037
 30
0.0
  0
VERTEX
  5
1E74
  8
0
 10
100.2510153045171961
 20
107.5861306083142068
 30
0.0
  0
VERTEX
  5
1E75
  8
0
 10
100.2626231102496064
 20
107.6111260109312013
 30
0.0
  0
VERTEX
  5
1E76
  8
0
 10
100.2743785649082042
 20
107.636102337532094
 30
0.0
  0
VERTEX
  5
1E77
  8
0
 10
100.2862791850140951
 20
107.6610607658088981
 30
0.0
  0
VERTEX
  5
1E78
  8
0
 10
100.2983224870884982
 20
107.6860024734535983
 30
0.0
  0
VERTEX
  5
1E79
  8
0
 10
100.3105059876524052
 20
107.7109286381580944
 30
0.0
  0
VERTEX
  5
1E7A
  8
0
 10
100.322827203227007
 20
107.7358404376143
 30
0.0
  0
VERTEX
  5
1E7B
  8
0
 10
100.3352842145770012
 20
107.7607388344986958
 30
0.0
  0
VERTEX
  5
1E7C
  8
0
 10
100.3478792972008051
 20
107.7856231930063018
 30
0.0
  0
VERTEX
  5
1E7D
  8
0
 10
100.3606166163665989
 20
107.8104921572004997
 30
0.0
  0
VERTEX
  5
1E7E
  8
0
 10
100.3735003464656046
 20
107.8353443676680996
 30
0.0
  0
VERTEX
  5
1E7F
  8
0
 10
100.386534661889101
 20
107.8601784649956983
 30
0.0
  0
VERTEX
  5
1E80
  8
0
 10
100.3997237370285944
 20
107.8849930897700062
 30
0.0
  0
VERTEX
  5
1E81
  8
0
 10
100.4130717462751932
 20
107.909786882577805
 30
0.0
  0
VERTEX
  5
1E82
  8
0
 10
100.4265784805637054
 20
107.9345592066595003
 30
0.0
  0
VERTEX
  5
1E83
  8
0
 10
100.4402253802573028
 20
107.9593124505189934
 30
0.0
  0
VERTEX
  5
1E84
  8
0
 10
100.4539890844684038
 20
107.9840497941909945
 30
0.0
  0
VERTEX
  5
1E85
  8
0
 10
100.4678462322936952
 20
108.0087744177130986
 30
0.0
  0
VERTEX
  5
1E86
  8
0
 10
100.4817734628295938
 20
108.0334895011227019
 30
0.0
  0
VERTEX
  5
1E87
  8
0
 10
100.4957474151725023
 20
108.0581982244573993
 30
0.0
  0
VERTEX
  5
1E88
  8
0
 10
100.5097447284188945
 20
108.0829037677546012
 30
0.0
  0
SEQEND
  5
1E89
  8
0
  0
POLYLINE
  5
1525
  8
0
 66
     1
 10
0.0
 20
0.0
 30
0.0
  0
VERTEX
  5
1E8A
  8
0
 10
107.9999999999031957
 20
93.0952071952660845
 30
0.0
  0
VERTEX
  5
1E8B
  8
0
 10
107.9941349207442016
 20
93.0699130177065257
 30
0.0
  0
VERTEX
  5
1E8C
  8
0
 10
107.9882450598040009
 20
93.0446214225038801
 30
0.0
  0
VERTEX
  5
1E8D
  8
0
 10
107.9823056353013015
 20
93.0193349920150752
 30
0.0
  0
VERTEX
  5
1E8E
  8
0
 10
107.9762918654549964
 20
92.9940563085970524
 30
0.0
  0
VERTEX
  5
1E8F
  8
0
 10
107.9701789684836939
 20
92.9687879546066966
 30
0.0
  0
VERTEX
  5
1E90
  8
0
 10
107.9639421626065001
 20
92.9435325124009353
 30
0.0
  0
VERTEX
  5
1E91
  8
0
 10
107.9575566660418957
 20
92.9182925643366957
 30
0.0
  0
VERTEX
  5
1E92
  8
0
 10
107.9509983243817999
 20
92.8930706231221279
 30
0.0
  0
VERTEX
  5
1E93
  8
0
 10
107.944258535055198
 20
92.8678674749539823
 30
0.0
  0
VERTEX
  5
1E94
  8
0
 10
107.9373448976024008
 20
92.8426821073265671
 30
0.0
  0
VERTEX
  5
1E95
  8
0
 10
107.9302657690598011
 20
92.8175134236395536
 30
0.0
  0
VERTEX
  5
1E96
  8
0
 10
107.9230295064637062
 20
92.7923603272926272
 30
0.0
  0
VERTEX
  5
1E97
  8
0
 10
107.9156444668504946
 20
92.7672217216854733
 30
0.0
  0
VERTEX
  5
1E98
  8
0
 10
107.9081190072564027
 20
92.742096510217749
 30
0.0
  0
VERTEX
  5
1E99
  8
0
 10
107.9004613630590939
 20
92.7169835889423695
 30
0.0
  0
VERTEX
  5
1E9A
  8
0
 10
107.8926754492240008
 20
92.6918815930074089
 30
0.0
  0
VERTEX
  5
1E9B
  8
0
 10
107.8847597941613969
 20
92.6667888322731415
 30
0.0
  0
VERTEX
  5
1E9C
  8
0
 10
107.8767125881375932
 20
92.6417035961796529
 30
0.0
  0
VERTEX
  5
1E9D
  8
0
 10
107.8685320214187016
 20
92.6166241741670575
 30
0.0
  0
VERTEX
  5
1E9E
  8
0
 10
107.8602162842709049
 20
92.5915488556755264
 30
0.0
  0
VERTEX
  5
1E9F
  8
0
 10
107.8517635669604005
 20
92.5664759301450744
 30
0.0
  0
VERTEX
  5
1EA0
  8
0
 10
107.8431721421888057
 20
92.5414037440943957
 30
0.0
  0
VERTEX
  5
1EA1
  8
0
 10
107.8344420845535012
 20
92.5163318916789308
 30
0.0
  0
VERTEX
  5
1EA2
  8
0
 10
107.8255752197594006
 20
92.4912611795250825
 30
0.0
  0
VERTEX
  5
1EA3
  8
0
 10
107.8165734457865028
 20
92.4661924643028357
 30
0.0
  0
VERTEX
  5
1EA4
  8
0
 10
107.8074386606152046
 20
92.4411266026821608
 30
0.0
  0
VERTEX
  5
1EA5
  8
0
 10
107.798172762225505
 20
92.4160644513330283
 30
0.0
  0
VERTEX
  5
1EA6
  8
0
 10
107.7887776485975024
 20
92.3910068669253945
 30
0.0
  0
VERTEX
  5
1EA7
  8
0
 10
107.7792552614399
 20
92.3659547243555323
 30
0.0
  0
VERTEX
  5
1EA8
  8
0
 10
107.7696081291560972
 20
92.3409091430580418
 30
0.0
  0
VERTEX
  5
1EA9
  8
0
 10
107.7598391995285994
 20
92.3158714172673172
 30
0.0
  0
VERTEX
  5
1EAA
  8
0
 10
107.7499514294180045
 20
92.2908428450016913
 30
0.0
  0
VERTEX
  5
1EAB
  8
0
 10
107.7399477756849961
 20
92.2658247242794545
 30
0.0
  0
VERTEX
  5
1EAC
  8
0
 10
107.7298311951903997
 20
92.2408183531189252
 30
0.0
  0
VERTEX
  5
1EAD
  8
0
 10
107.7196046447947992
 20
92.2158250295384079
 30
0.0
  0
VERTEX
  5
1EAE
  8
0
 10
107.7092706846324006
 20
92.1908460190558969
 30
0.0
  0
VERTEX
  5
1EAF
  8
0
 10
107.6988274351384973
 20
92.1658822234829671
 30
0.0
  0
VERTEX
  5
1EB0
  8
0
 10
107.6882702321496055
 20
92.1409343165130963
 30
0.0
  0
VERTEX
  5
1EB1
  8
0
 10
107.6775943685458969
 20
92.1160029683207
 30
0.0
  0
VERTEX
  5
1EB2
  8
0
 10
107.6667951372075009
 20
92.091088849080208
 30
0.0
  0
VERTEX
  5
1EB3
  8
0
 10
107.655867831014703
 20
92.0661926289660641
 30
0.0
  0
VERTEX
  5
1EB4
  8
0
 10
107.6448114059616046
 20
92.0413144642500214
 30
0.0
  0
VERTEX
  5
1EB5
  8
0
 10
107.6336427935421938
 20
92.0164519893994424
 30
0.0
  0
VERTEX
  5
1EB6
  8
0
 10
107.622384430094101
 20
91.9916020666005494
 30
0.0
  0
VERTEX
  5
1EB7
  8
0
 10
107.6110587533743939
 20
91.9667615578404138
 30
0.0
  0
VERTEX
  5
1EB8
  8
0
 10
107.599688201140296
 20
91.9419273251061355
 30
0.0
  0
VERTEX
  5
1EB9
  8
0
 10
107.5882952111490027
 20
91.9170962303847432
 30
0.0
  0
SEQEND
  5
1EBA
  8
0
  0
POLYLINE
  5
1526
  8
0
 66
     1
 10
0.0
 20
0.0
 30
0.0
  0
VERTEX
  5
1EBB
  8
0
 10
100.509744728413807
 20
91.9170962304039989
 30
0.0
  0
VERTEX
  5
1EBC
  8
0
 10
100.4937431302890047
 20
91.9454263483109173
 30
0.0
  0
VERTEX
  5
1EBD
  8
0
 10
100.4777722101740949
 20
91.9737604842341057
 30
0.0
  0
VERTEX
  5
1EBE
  8
0
 10
100.4618626460789983
 20
92.0021026561898054
 30
0.0
  0
VERTEX
  5
1EBF
  8
0
 10
100.4460451160134937
 20
92.0304568821942865
 30
0.0
  0
VERTEX
  5
1EC0
  8
0
 10
100.430350297987502
 20
92.0588271802638189
 30
0.0
  0
VERTEX
  5
1EC1
  8
0
 10
100.4148088700108019
 20
92.0872175684146868
 30
0.0
  0
VERTEX
  5
1EC2
  8
0
 10
100.3994515100933995
 20
92.1156320646631031
 30
0.0
  0
VERTEX
  5
1EC3
  8
0
 10
100.3843044175852981
 20
92.1440739562790583
 30
0.0
  0
VERTEX
  5
1EC4
  8
0
 10
100.3693700864431975
 20
92.1725426627173903
 30
0.0
  0
VERTEX
  5
1EC5
  8
0
 10
100.3546431969797936
 20
92.2010363285444612
 30
0.0
  0
VERTEX
  5
1EC6
  8
0
 10
100.3401184246968967
 20
92.229553097541725
 30
0.0
  0
VERTEX
  5
1EC7
  8
0
 10
100.3257904450961036
 20
92.2580911134906074
 30
0.0
  0
VERTEX
  5
1EC8
  8
0
 10
100.3116539336791959
 20
92.2866485201725482
 30
0.0
  0
VERTEX
  5
1EC9
  8
0
 10
100.2977035659503002
 20
92.315223461370465
 30
0.0
  0
VERTEX
  5
1ECA
  8
0
 10
100.283935557427796
 20
92.3438149741958085
 30
0.0
  0
VERTEX
  5
1ECB
  8
0
 10
100.2703520671327055
 20
92.3724255434564299
 30
0.0
  0
VERTEX
  5
1ECC
  8
0
 10
100.2569566877130995
 20
92.4010584855761863
 30
0.0
  0
VERTEX
  5
1ECD
  8
0
 10
100.2437530118176028
 20
92.4297171169789493
 30
0.0
  0
VERTEX
  5
1ECE
  8
0
 10
100.230744632094499
 20
92.4584047540886047
 30
0.0
  0
VERTEX
  5
1ECF
  8
0
 10
100.2179351411921004
 20
92.4871247133289955
 30
0.0
  0
VERTEX
  5
1ED0
  8
0
 10
100.2053281244752014
 20
92.5158802915210856
 30
0.0
  0
VERTEX
  5
1ED1
  8
0
 10
100.1929262756753047
 20
92.5446723857871234
 30
0.0
  0
VERTEX
  5
1ED2
  8
0
 10
100.1807305512680983
 20
92.5734972176822168
 30
0.0
  0
VERTEX
  5
1ED3
  8
0
 10
100.1687417073501933
 20
92.6023504694699824
 30
0.0
  0
VERTEX
  5
1ED4
  8
0
 10
100.1569605000180019
 20
92.6312278234140365
 30
0.0
  0
VERTEX
  5
1ED5
  8
0
 10
100.145387685367794
 20
92.6601249617779956
 30
0.0
  0
VERTEX
  5
1ED6
  8
0
 10
100.1340240194959961
 20
92.6890375668254336
 30
0.0
  0
VERTEX
  5
1ED7
  8
0
 10
100.1228706968474
 20
92.7179614994174557
 30
0.0
  0
VERTEX
  5
1ED8
  8
0
 10
100.1119363423273967
 20
92.7468956478281115
 30
0.0
  0
VERTEX
  5
1ED9
  8
0
 10
100.1012357821129939
 20
92.7758414269326863
 30
0.0
  0
VERTEX
  5
1EDA
  8
0
 10
100.0907840323692
 20
92.804800329013716
 30
0.0
  0
VERTEX
  5
1EDB
  8
0
 10
100.0805961092609948
 20
92.8337738463536937
 30
0.0
  0
VERTEX
  5
1EDC
  8
0
 10
100.070687028953401
 20
92.8627634712352261
 30
0.0
  0
VERTEX
  5
1EDD
  8
0
 10
100.0610718076110999
 20
92.8917706959407639
 30
0.0
  0
VERTEX
  5
1EDE
  8
0
 10
100.0517588898111967
 20
92.9207965438697556
 30
0.0
  0
VERTEX
  5
1EDF
  8
0
 10
100.0427175152309047
 20
92.9498392411500731
 30
0.0
  0
VERTEX
  5
1EE0
  8
0
 10
100.033902445890007
 20
92.978895980928101
 30
0.0
  0
VERTEX
  5
1EE1
  8
0
 10
100.0252684207407015
 20
93.0079639547042802
 30
0.0
  0
VERTEX
  5
1EE2
  8
0
 10
100.0167701787351007
 20
93.03704035397908
 30
0.0
  0
VERTEX
  5
1EE3
  8
0
 10
100.0083624588252036
 20
93.0661223702529554
 30
0.0
  0
VERTEX
  5
1EE4
  8
0
 10
99.9999999999632792
 20
93.0952071950263758
 30
0.0
  0
SEQEND
  5
1EE5
  8
0
  0
POLYLINE
  5
1527
  8
0
 66
     1
 10
0.0
 20
0.0
 30
0.0
  0
VERTEX
  5
1EE6
  8
0
 10
100.0000000001820979
 20
94.7804371511304993
 30
0.0
  0
VERTEX
  5
1EE7
  8
0
 10
100.007236465637007
 20
94.8058829630425635
 30
0.0
  0
VERTEX
  5
1EE8
  8
0
 10
100.0145078026153982
 20
94.8313259884603497
 30
0.0
  0
VERTEX
  5
1EE9
  8
0
 10
100.0218488826405974
 20
94.8567634408895657
 30
0.0
  0
VERTEX
  5
1EEA
  8
0
 10
100.0292945772361008
 20
94.8821925338360188
 30
0.0
  0
VERTEX
  5
1EEB
  8
0
 10
100.0368797579253055
 20
94.9076104808053742
 30
0.0
  0
VERTEX
  5
1EEC
  8
0
 10
100.0446392962316935
 20
94.9330144953033681
 30
0.0
  0
VERTEX
  5
1EED
  8
0
 10
100.0526079629340046
 20
94.9584017936935538
 30
0.0
  0
VERTEX
  5
1EEE
  8
0
 10
100.0608066322264023
 20
94.9837699865401248
 30
0.0
  0
VERTEX
  5
1EEF
  8
0
 10
100.0692282187577007
 20
95.009117477528207
 30
0.0
  0
VERTEX
  5
1EF0
  8
0
 10
100.0778622851091058
 20
95.0344427654301001
 30
0.0
  0
VERTEX
  5
1EF1
  8
0
 10
100.0866983938616954
 20
95.0597443490181462
 30
0.0
  0
VERTEX
  5
1EF2
  8
0
 10
100.0957261075964055
 20
95.0850207270646308
 30
0.0
  0
VERTEX
  5
1EF3
  8
0
 10
100.1049349888944988
 20
95.1102703983418962
 30
0.0
  0
VERTEX
  5
1EF4
  8
0
 10
100.1143149968413013
 20
95.1354920523649668
 30
0.0
  0
VERTEX
  5
1EF5
  8
0
 10
100.1238613619126028
 20
95.1606869145079344
 30
0.0
  0
VERTEX
  5
1EF6
  8
0
 10
100.1335730587511961
 20
95.1858580113167818
 30
0.0
  0
VERTEX
  5
1EF7
  8
0
 10
100.1434491418097963
 20
95.2110084077309153
 30
0.0
  0
VERTEX
  5
1EF8
  8
0
 10
100.1534886655412038
 20
95.2361411686898265
 30
0.0
  0
VERTEX
  5
1EF9
  8
0
 10
100.1636906843982047
 20
95.2612593591328505
 30
0.0
  0
VERTEX
  5
1EFA
  8
0
 10
100.1740542527962958
 20
95.2863660436932065
 30
0.0
  0
VERTEX
  5
1EFB
  8
0
 10
100.1845783268549042
 20
95.3114634779239083
 30
0.0
  0
VERTEX
  5
1EFC
  8
0
 10
100.1952615510555944
 20
95.3365513522780788
 30
0.0
  0
VERTEX
  5
1EFD
  8
0
 10
100.2061025082653032
 20
95.3616288500535774
 30
0.0
  0
VERTEX
  5
1EFE
  8
0
 10
100.2170997813508961
 20
95.3866951545482635
 30
0.0
  0
VERTEX
  5
1EFF
  8
0
 10
100.2282519531791962
 20
95.4117494490600251
 30
0.0
  0
VERTEX
  5
1F00
  8
0
 10
100.239557606616799
 20
95.4367909168867641
 30
0.0
  0
VERTEX
  5
1F01
  8
0
 10
100.251015304517594
 20
95.4618187389641122
 30
0.0
  0
VERTEX
  5
1F02
  8
0
 10
100.2626231102496064
 20
95.4868320372723787
 30
0.0
  0
VERTEX
  5
1F03
  8
0
 10
100.2743785649078063
 20
95.511829872146734
 30
0.0
  0
VERTEX
  5
1F04
  8
0
 10
100.2862791850132993
 20
95.5368113010218849
 30
0.0
  0
VERTEX
  5
1F05
  8
0
 10
100.2983224870871055
 20
95.5617753813325095
 30
0.0
  0
VERTEX
  5
1F06
  8
0
 10
100.310505987650501
 20
95.5867211705133002
 30
0.0
  0
VERTEX
  5
1F07
  8
0
 10
100.3228272032245059
 20
95.6116477259989352
 30
0.0
  0
VERTEX
  5
1F08
  8
0
 10
100.3352842145739032
 20
95.636554158478674
 30
0.0
  0
VERTEX
  5
1F09
  8
0
 10
100.3478792971971956
 20
95.6614399745497934
 30
0.0
  0
VERTEX
  5
1F0A
  8
0
 10
100.3606166163624067
 20
95.6863048591700931
 30
0.0
  0
VERTEX
  5
1F0B
  8
0
 10
100.3735003464608013
 20
95.7111484981585079
 30
0.0
  0
VERTEX
  5
1F0C
  8
0
 10
100.3865346618838998
 20
95.7359705773339442
 30
0.0
  0
VERTEX
  5
1F0D
  8
0
 10
100.3997237370227964
 20
95.7607707825153085
 30
0.0
  0
VERTEX
  5
1F0E
  8
0
 10
100.4130717462690967
 20
95.7855487995215356
 30
0.0
  0
VERTEX
  5
1F0F
  8
0
 10
100.4265784805572963
 20
95.810304877156625
 30
0.0
  0
VERTEX
  5
1F10
  8
0
 10
100.4402253802505953
 20
95.8350416210629419
 30
0.0
  0
VERTEX
  5
1F11
  8
0
 10
100.4539890844614973
 20
95.859762253526867
 30
0.0
  0
VERTEX
  5
1F12
  8
0
 10
100.4678462322867034
 20
95.8844699968368843
 30
0.0
  0
VERTEX
  5
1F13
  8
0
 10
100.4817734628224031
 20
95.9091680732814353
 30
0.0
  0
VERTEX
  5
1F14
  8
0
 10
100.4957474151652974
 20
95.9338597051490467
 30
0.0
  0
VERTEX
  5
1F15
  8
0
 10
100.5097447284116043
 20
95.958548114728174
 30
0.0
  0
SEQEND
  5
1F16
  8
0
  0
POLYLINE
  5
1528
  8
0
 66
     1
 10
0.0
 20
0.0
 30
0.0
  0
VERTEX
  5
1F17
  8
0
 10
107.9999999999031957
 20
105.2195628482482022
 30
0.0
  0
VERTEX
  5
1F18
  8
0
 10
107.9941349207444006
 20
105.1942713369418954
 30
0.0
  0
VERTEX
  5
1F19
  8
0
 10
107.9882450598043988
 20
105.168980393254401
 30
0.0
  0
VERTEX
  5
1F1A
  8
0
 10
107.9823056353019979
 20
105.1436905848047019
 30
0.0
  0
VERTEX
  5
1F1B
  8
0
 10
107.9762918654560053
 20
105.1184024792114968
 30
0.0
  0
VERTEX
  5
1F1C
  8
0
 10
107.9701789684850013
 20
105.0931166440937972
 30
0.0
  0
VERTEX
  5
1F1D
  8
0
 10
107.9639421626080065
 20
105.0678336470704011
 30
0.0
  0
VERTEX
  5
1F1E
  8
0
 10
107.9575566660437005
 20
105.0425540557601067
 30
0.0
  0
VERTEX
  5
1F1F
  8
0
 10
107.9509983243837041
 20
105.0172784374688035
 30
0.0
  0
VERTEX
  5
1F20
  8
0
 10
107.9442585350574006
 20
104.9920073517389056
 30
0.0
  0
VERTEX
  5
1F21
  8
0
 10
107.9373448976048024
 20
104.9667413500256998
 30
0.0
  0
VERTEX
  5
1F22
  8
0
 10
107.9302657690625011
 20
104.9414809834059952
 30
0.0
  0
VERTEX
  5
1F23
  8
0
 10
107.9230295064666052
 20
104.9162268029567997
 30
0.0
  0
VERTEX
  5
1F24
  8
0
 10
107.9156444668536068
 20
104.890979359755093
 30
0.0
  0
VERTEX
  5
1F25
  8
0
 10
107.9081190072597991
 20
104.8657392048776984
 30
0.0
  0
VERTEX
  5
1F26
  8
0
 10
107.9004613630627034
 20
104.8405069100597018
 30
0.0
  0
VERTEX
  5
1F27
  8
0
 10
107.8926754492277951
 20
104.8152837806530044
 30
0.0
  0
VERTEX
  5
1F28
  8
0
 10
107.8847597941656034
 20
104.7900720366610017
 30
0.0
  0
VERTEX
  5
1F29
  8
0
 10
107.8767125881419986
 20
104.7648739555045978
 30
0.0
  0
VERTEX
  5
1F2A
  8
0
 10
107.8685320214234054
 20
104.7396918146047966
 30
0.0
  0
VERTEX
  5
1F2B
  8
0
 10
107.8602162842757934
 20
104.7145278913824029
 30
0.0
  0
VERTEX
  5
1F2C
  8
0
 10
107.8517635669655022
 20
104.6893844632585058
 30
0.0
  0
VERTEX
  5
1F2D
  8
0
 10
107.8431721421942058
 20
104.6642637397072946
 30
0.0
  0
VERTEX
  5
1F2E
  8
0
 10
107.8344420845591003
 20
104.6391664450072057
 30
0.0
  0
VERTEX
  5
1F2F
  8
0
 10
107.8255752197651987
 20
104.6140918601022065
 30
0.0
  0
VERTEX
  5
1F30
  8
0
 10
107.8165734457925993
 20
104.5890392063641059
 30
0.0
  0
VERTEX
  5
1F31
  8
0
 10
107.8074386606215
 20
104.5640077051649968
 30
0.0
  0
VERTEX
  5
1F32
  8
0
 10
107.7981727622319994
 20
104.5389965778765031
 30
0.0
  0
VERTEX
  5
1F33
  8
0
 10
107.7887776486041957
 20
104.5140050458705048
 30
0.0
  0
VERTEX
  5
1F34
  8
0
 10
107.7792552614468065
 20
104.489032294774006
 30
0.0
  0
VERTEX
  5
1F35
  8
0
 10
107.7696081291632026
 20
104.4640770306303068
 30
0.0
  0
VERTEX
  5
1F36
  8
0
 10
107.7598391995359037
 20
104.4391376166691998
 30
0.0
  0
VERTEX
  5
1F37
  8
0
 10
107.7499514294254936
 20
104.4142124086994983
 30
0.0
  0
VERTEX
  5
1F38
  8
0
 10
107.7399477756927979
 20
104.3892997625301007
 30
0.0
  0
VERTEX
  5
1F39
  8
0
 10
107.7298311951984005
 20
104.3643980339699056
 30
0.0
  0
VERTEX
  5
1F3A
  8
0
 10
107.7196046448029989
 20
104.3395055788274988
 30
0.0
  0
VERTEX
  5
1F3B
  8
0
 10
107.7092706846408987
 20
104.3146208738377965
 30
0.0
  0
VERTEX
  5
1F3C
  8
0
 10
107.6988274351472938
 20
104.2897437489950931
 30
0.0
  0
VERTEX
  5
1F3D
  8
0
 10
107.6882702321587004
 20
104.264874883064607
 30
0.0
  0
VERTEX
  5
1F3E
  8
0
 10
107.6775943685551056
 20
104.2400149679049974
 30
0.0
  0
VERTEX
  5
1F3F
  8
0
 10
107.6667951372169938
 20
104.2151646953746962
 30
0.0
  0
VERTEX
  5
1F40
  8
0
 10
107.6558678310244943
 20
104.1903247573324052
 30
0.0
  0
VERTEX
  5
1F41
  8
0
 10
107.6448114059716943
 20
104.1654955003672001
 30
0.0
  0
VERTEX
  5
1F42
  8
0
 10
107.6336427935524966
 20
104.1406755767744983
 30
0.0
  0
VERTEX
  5
1F43
  8
0
 10
107.6223844301046029
 20
104.1158631199870968
 30
0.0
  0
VERTEX
  5
1F44
  8
0
 10
107.6110587533851941
 20
104.0910562633034999
 30
0.0
  0
VERTEX
  5
1F45
  8
0
 10
107.5996882011513947
 20
104.0662531400223969
 30
0.0
  0
VERTEX
  5
1F46
  8
0
 10
107.5882952111603998
 20
104.0414518834426048
 30
0.0
  0
SEQEND
  5
1F47
  8
0
  0
POLYLINE
  5
1529
  8
0
 66
     1
 10
0.0
 20
0.0
 30
0.0
  0
VERTEX
  5
1F48
  8
0
 10
100.5097447284135939
 20
104.041451883390593
 30
0.0
  0
VERTEX
  5
1F49
  8
0
 10
100.4937431302888058
 20
104.069756825341301
 30
0.0
  0
VERTEX
  5
1F4A
  8
0
 10
100.4777722101739954
 20
104.0980660761915004
 30
0.0
  0
VERTEX
  5
1F4B
  8
0
 10
100.4618626460788988
 20
104.1263839448407964
 30
0.0
  0
VERTEX
  5
1F4C
  8
0
 10
100.4460451160133942
 20
104.1547147401884956
 30
0.0
  0
VERTEX
  5
1F4D
  8
0
 10
100.4303502979874025
 20
104.1830627711343027
 30
0.0
  0
VERTEX
  5
1F4E
  8
0
 10
100.4148088700108019
 20
104.2114323465776948
 30
0.0
  0
VERTEX
  5
1F4F
  8
0
 10
100.3994515100933995
 20
104.2398277754179929
 30
0.0
  0
VERTEX
  5
1F50
  8
0
 10
100.3843044175851986
 20
104.2682527814822038
 30
0.0
  0
VERTEX
  5
1F51
  8
0
 10
100.369370086443098
 20
104.2967079918271054
 30
0.0
  0
VERTEX
  5
1F52
  8
0
 10
100.3546431969797936
 20
104.3251930127690059
 30
0.0
  0
VERTEX
  5
1F53
  8
0
 10
100.3401184246968967
 20
104.3537074499954969
 30
0.0
  0
VERTEX
  5
1F54
  8
0
 10
100.3257904450960041
 20
104.382250909194596
 30
0.0
  0
VERTEX
  5
1F55
  8
0
 10
100.311653933678997
 20
104.4108229960538949
 30
0.0
  0
VERTEX
  5
1F56
  8
0
 10
100.2977035659502008
 20
104.4394233162605019
 30
0.0
  0
VERTEX
  5
1F57
  8
0
 10
100.2839355574276965
 20
104.468051002011407
 30
0.0
  0
VERTEX
  5
1F58
  8
0
 10
100.2703520671326061
 20
104.496703358125103
 30
0.0
  0
VERTEX
  5
1F59
  8
0
 10
100.2569566877130001
 20
104.5253772486396997
 30
0.0
  0
VERTEX
  5
1F5A
  8
0
 10
100.2437530118175033
 20
104.5540695375930937
 30
0.0
  0
VERTEX
  5
1F5B
  8
0
 10
100.2307446320943995
 20
104.582777089023395
 30
0.0
  0
VERTEX
  5
1F5C
  8
0
 10
100.217935141192001
 20
104.6114967669685001
 30
0.0
  0
VERTEX
  5
1F5D
  8
0
 10
100.205328124475102
 20
104.6402254534356047
 30
0.0
  0
VERTEX
  5
1F5E
  8
0
 10
100.1929262756751058
 20
104.6689622301382059
 30
0.0
  0
VERTEX
  5
1F5F
  8
0
 10
100.1807305512680983
 20
104.6977104646917951
 30
0.0
  0
VERTEX
  5
1F60
  8
0
 10
100.1687417073501933
 20
104.7264740190586991
 30
0.0
  0
VERTEX
  5
1F61
  8
0
 10
100.1569605000179024
 20
104.7552567552009037
 30
0.0
  0
VERTEX
  5
1F62
  8
0
 10
100.145387685367794
 20
104.7840625350808068
 30
0.0
  0
VERTEX
  5
1F63
  8
0
 10
100.1340240194959961
 20
104.8128952206603941
 30
0.0
  0
VERTEX
  5
1F64
  8
0
 10
100.1228706968473006
 20
104.8417585438063071
 30
0.0
  0
VERTEX
  5
1F65
  8
0
 10
100.1119363423272972
 20
104.8706540311268043
 30
0.0
  0
VERTEX
  5
1F66
  8
0
 10
100.1012357821128944
 20
104.8995813687780014
 30
0.0
  0
VERTEX
  5
1F67
  8
0
 10
100.0907840323692
 20
104.9285401865306966
 30
0.0
  0
VERTEX
  5
1F68
  8
0
 10
100.0805961092608953
 20
104.9575301141553041
 30
0.0
  0
VERTEX
  5
1F69
  8
0
 10
100.070687028953202
 20
104.9865507814223946
 30
0.0
  0
VERTEX
  5
1F6A
  8
0
 10
100.0610718076110999
 20
105.0156018181025956
 30
0.0
  0
VERTEX
  5
1F6B
  8
0
 10
100.0517588898111967
 20
105.044682418902795
 30
0.0
  0
VERTEX
  5
1F6C
  8
0
 10
100.0427175152309047
 20
105.073789183018107
 30
0.0
  0
VERTEX
  5
1F6D
  8
0
 10
100.033902445890007
 20
105.1029177511688033
 30
0.0
  0
VERTEX
  5
1F6E
  8
0
 10
100.0252684207407015
 20
105.1320637625477019
 30
0.0
  0
VERTEX
  5
1F6F
  8
0
 10
100.0167701787351007
 20
105.161222856347905
 30
0.0
  0
VERTEX
  5
1F70
  8
0
 10
100.0083624588252036
 20
105.1903906717621027
 30
0.0
  0
VERTEX
  5
1F71
  8
0
 10
99.9999999999632792
 20
105.2195628479833971
 30
0.0
  0
SEQEND
  5
1F72
  8
0
  0
POLYLINE
  5
152A
  8
0
 66
     1
 10
0.0
 20
0.0
 30
0.0
  0
VERTEX
  5
1F73
  8
0
 10
107.5882952111603004
 20
104.0414518834426048
 30
0.0
  0
VERTEX
  5
1F74
  8
0
 10
107.6034495769880976
 20
103.9747694550787998
 30
0.0
  0
VERTEX
  5
1F75
  8
0
 10
107.618568697441404
 20
103.9080793789697026
 30
0.0
  0
VERTEX
  5
1F76
  8
0
 10
107.6336173271457994
 20
103.8413740073700069
 30
0.0
  0
VERTEX
  5
1F77
  8
0
 10
107.6485602207266936
 20
103.7746456925341931
 30
0.0
  0
VERTEX
  5
1F78
  8
0
 10
107.663362132809695
 20
103.707886786717097
 30
0.0
  0
VERTEX
  5
1F79
  8
0
 10
107.677987818020199
 20
103.641089642173398
 30
0.0
  0
VERTEX
  5
1F7A
  8
0
 10
107.6924020309838994
 20
103.574246611157605
 30
0.0
  0
VERTEX
  5
1F7B
  8
0
 10
107.7065734132313963
 20
103.5073509845258997
 30
0.0
  0
VERTEX
  5
1F7C
  8
0
 10
107.7204968021862044
 20
103.4404023788609948
 30
0.0
  0
VERTEX
  5
1F7D
  8
0
 10
107.7341778543517989
 20
103.3734030233138981
 30
0.0
  0
VERTEX
  5
1F7E
  8
0
 10
107.747622260351605
 20
103.3063551552741046
 30
0.0
  0
VERTEX
  5
1F7F
  8
0
 10
107.7608357108091042
 20
103.2392610121317063
 30
0.0
  0
VERTEX
  5
1F80
  8
0
 10
107.7738238963475936
 20
103.1721228312763969
 30
0.0
  0
VERTEX
  5
1F81
  8
0
 10
107.7865925075906972
 20
103.104942850098297
 30
0.0
  0
VERTEX
  5
1F82
  8
0
 10
107.7991464446898959
 20
103.0377230774608961
 30
0.0
  0
VERTEX
  5
1F83
  8
0
 10
107.8114858749189011
 20
102.9704641539481003
 30
0.0
  0
VERTEX
  5
1F84
  8
0
 10
107.8236092118786047
 20
102.9031662131554015
 30
0.0
  0
VERTEX
  5
1F85
  8
0
 10
107.8355148663090972
 20
102.8358293878510068
 30
0.0
  0
VERTEX
  5
1F86
  8
0
 10
107.8472012489504976
 20
102.7684538108032939
 30
0.0
  0
VERTEX
  5
1F87
  8
0
 10
107.858666770542996
 20
102.7010396147804983
 30
0.0
  0
VERTEX
  5
1F88
  8
0
 10
107.8699098418267965
 20
102.6335869325509975
 30
0.0
  0
VERTEX
  5
1F89
  8
0
 10
107.880926389939205
 20
102.5660957236891022
 30
0.0
  0
VERTEX
  5
1F8A
  8
0
 10
107.8917023206037982
 20
102.4985652489257006
 30
0.0
  0
VERTEX
  5
1F8B
  8
0
 10
107.9022210122498961
 20
102.4309945927509062
 30
0.0
  0
VERTEX
  5
1F8C
  8
0
 10
107.9124658433065065
 20
102.363382839654804
 30
0.0
  0
VERTEX
  5
1F8D
  8
0
 10
107.9224201922025941
 20
102.2957290741276069
 30
0.0
  0
VERTEX
  5
1F8E
  8
0
 10
107.9320674373673938
 20
102.2280323806593003
 30
0.0
  0
VERTEX
  5
1F8F
  8
0
 10
107.9413909609618969
 20
102.1602918441581949
 30
0.0
  0
VERTEX
  5
1F90
  8
0
 10
107.9503873278874977
 20
102.0925080265006955
 30
0.0
  0
VERTEX
  5
1F91
  8
0
 10
107.959095858352299
 20
102.024686279783694
 30
0.0
  0
VERTEX
  5
1F92
  8
0
 10
107.9675645250999025
 20
101.9568329255172046
 30
0.0
  0
VERTEX
  5
1F93
  8
0
 10
107.9758413008736966
 20
101.8889542852110992
 30
0.0
  0
VERTEX
  5
1F94
  8
0
 10
107.9839741584171975
 20
101.8210566803751931
 30
0.0
  0
VERTEX
  5
1F95
  8
0
 10
107.9920110704736942
 20
101.7531464325194008
 30
0.0
  0
VERTEX
  5
1F96
  8
0
 10
108.0000000097868025
 20
101.6852298631537934
 30
0.0
  0
SEQEND
  5
1F97
  8
0
  0
POLYLINE
  5
152B
  8
0
 66
     1
 10
0.0
 20
0.0
 30
0.0
  0
VERTEX
  5
1F98
  8
0
 10
100.0000000001819984
 20
101.6852299560517991
 30
0.0
  0
VERTEX
  5
1F99
  8
0
 10
100.0072364656376038
 20
101.7360575728717009
 30
0.0
  0
VERTEX
  5
1F9A
  8
0
 10
100.0145078026168051
 20
101.7868797892517989
 30
0.0
  0
VERTEX
  5
1F9B
  8
0
 10
100.021848882642999
 20
101.8376912047520051
 30
0.0
  0
VERTEX
  5
1F9C
  8
0
 10
100.0292945772397957
 20
101.8884864189326009
 30
0.0
  0
VERTEX
  5
1F9D
  8
0
 10
100.0368797579305067
 20
101.9392600313535979
 30
0.0
  0
VERTEX
  5
1F9E
  8
0
 10
100.0446392962388984
 20
101.990006641575107
 30
0.0
  0
VERTEX
  5
1F9F
  8
0
 10
100.0526079629434975
 20
102.040720862797798
 30
0.0
  0
VERTEX
  5
1FA0
  8
0
 10
100.0608066322384957
 20
102.0913991897867987
 30
0.0
  0
VERTEX
  5
1FA1
  8
0
 10
100.0692282187722952
 20
102.1420419029628022
 30
0.0
  0
VERTEX
  5
1FA2
  8
0
 10
100.0778622851260025
 20
102.1926497366084021
 30
0.0
  0
VERTEX
  5
1FA3
  8
0
 10
100.0866983938805959
 20
102.2432234250062066
 30
0.0
  0
VERTEX
  5
1FA4
  8
0
 10
100.0957261076168976
 20
102.2937637024389943
 30
0.0
  0
VERTEX
  5
1FA5
  8
0
 10
100.1049349889159998
 20
102.3442713031893021
 30
0.0
  0
VERTEX
  5
1FA6
  8
0
 10
100.1143149968632002
 20
102.3947469212865968
 30
0.0
  0
VERTEX
  5
1FA7
  8
0
 10
100.1238613619344022
 20
102.4451907156085042
 30
0.0
  0
VERTEX
  5
1FA8
  8
0
 10
100.1335730587722992
 20
102.4956024649243034
 30
0.0
  0
VERTEX
  5
1FA9
  8
0
 10
100.1434491418299046
 20
102.5459819399011963
 30
0.0
  0
VERTEX
  5
1FAA
  8
0
 10
100.1534886655597063
 20
102.5963289112062995
 30
0.0
  0
VERTEX
  5
1FAB
  8
0
 10
100.1636906844147035
 20
102.6466431495066018
 30
0.0
  0
VERTEX
  5
1FAC
  8
0
 10
100.1740542528105067
 20
102.6969244254668041
 30
0.0
  0
VERTEX
  5
1FAD
  8
0
 10
100.1845783268664007
 20
102.7471725033717007
 30
0.0
  0
VERTEX
  5
1FAE
  8
0
 10
100.1952615510644051
 20
102.7973871272790944
 30
0.0
  0
VERTEX
  5
1FAF
  8
0
 10
100.2061025082712007
 20
102.8475680372478962
 30
0.0
  0
VERTEX
  5
1FB0
  8
0
 10
100.2170997813539941
 20
102.8977149733368037
 30
0.0
  0
VERTEX
  5
1FB1
  8
0
 10
100.2282519531795941
 20
102.9478276756044011
 30
0.0
  0
VERTEX
  5
1FB2
  8
0
 10
100.2395576066148948
 20
102.9979058841095991
 30
0.0
  0
VERTEX
  5
1FB3
  8
0
 10
100.2510153045137002
 20
103.047949348202593
 30
0.0
  0
VERTEX
  5
1FB4
  8
0
 10
100.2626231102443057
 20
103.0979580491275982
 30
0.0
  0
VERTEX
  5
1FB5
  8
0
 10
100.2743785649014967
 20
103.1479322106024057
 30
0.0
  0
VERTEX
  5
1FB6
  8
0
 10
100.286279185006407
 20
103.1978720677535932
 30
0.0
  0
VERTEX
  5
1FB7
  8
0
 10
100.2983224870800001
 20
103.2477778557080939
 30
0.0
  0
VERTEX
  5
1FB8
  8
0
 10
100.3105059876433955
 20
103.2976498095924001
 30
0.0
  0
VERTEX
  5
1FB9
  8
0
 10
100.3228272032177983
 20
103.3474881645332033
 30
0.0
  0
VERTEX
  5
1FBA
  8
0
 10
100.3352842145675936
 20
103.3972929938961016
 30
0.0
  0
VERTEX
  5
1FBB
  8
0
 10
100.3478792971912981
 20
103.4470631684737043
 30
0.0
  0
VERTEX
  5
1FBC
  8
0
 10
100.3606166163570066
 20
103.4967970172870935
 30
0.0
  0
VERTEX
  5
1FBD
  8
0
 10
100.3735003464557991
 20
103.5464928667419997
 30
0.0
  0
VERTEX
  5
1FBE
  8
0
 10
100.3865346618792955
 20
103.5961490432438978
 30
0.0
  0
VERTEX
  5
1FBF
  8
0
 10
100.3997237370185047
 20
103.6457638731987032
 30
0.0
  0
VERTEX
  5
1FC0
  8
0
 10
100.413071746265004
 20
103.6953356830118054
 30
0.0
  0
VERTEX
  5
1FC1
  8
0
 10
100.4265784805534025
 20
103.7448640847278938
 30
0.0
  0
VERTEX
  5
1FC2
  8
0
 10
100.4402253802472984
 20
103.7943540724929932
 30
0.0
  0
VERTEX
  5
1FC3
  8
0
 10
100.4539890844590957
 20
103.8438120486282941
 30
0.0
  0
VERTEX
  5
1FC4
  8
0
 10
100.4678462322850976
 20
103.893244415459705
 30
0.0
  0
VERTEX
  5
1FC5
  8
0
 10
100.4817734628220052
 20
103.9426575753133051
 30
0.0
  0
VERTEX
  5
1FC6
  8
0
 10
100.4957474151659937
 20
103.9920579305149033
 30
0.0
  0
VERTEX
  5
1FC7
  8
0
 10
100.5097447284135939
 20
104.041451883390593
 30
0.0
  0
SEQEND
  5
1FC8
  8
0
  0
POLYLINE
  5
152C
  8
0
 66
     1
 10
0.0
 20
0.0
 30
0.0
  0
VERTEX
  5
1FC9
  8
0
 10
100.5097447284116043
 20
95.958548114728174
 30
0.0
  0
VERTEX
  5
1FCA
  8
0
 10
100.4937431302656989
 20
96.015183174579235
 30
0.0
  0
VERTEX
  5
1FCB
  8
0
 10
100.4777722101305955
 20
96.0718265613462989
 30
0.0
  0
VERTEX
  5
1FCC
  8
0
 10
100.4618626460167974
 20
96.1284866019454256
 30
0.0
  0
VERTEX
  5
1FCD
  8
0
 10
100.4460451159353056
 20
96.1851716232926321
 30
0.0
  0
VERTEX
  5
1FCE
  8
0
 10
100.4303502978965952
 20
96.2418899523039215
 30
0.0
  0
VERTEX
  5
1FCF
  8
0
 10
100.4148088699115959
 20
96.2986499158953535
 30
0.0
  0
VERTEX
  5
1FD0
  8
0
 10
100.3994515099909961
 20
96.355459840982931
 30
0.0
  0
VERTEX
  5
1FD1
  8
0
 10
100.3843044174823973
 20
96.412326738662685
 30
0.0
  0
VERTEX
  5
1FD2
  8
0
 10
100.3693700863390035
 20
96.4692506554452933
 30
0.0
  0
VERTEX
  5
1FD3
  8
0
 10
100.3546431968735959
 20
96.5262293422133695
 30
0.0
  0
VERTEX
  5
1FD4
  8
0
 10
100.3401184245885958
 20
96.5832605484363143
 30
0.0
  0
VERTEX
  5
1FD5
  8
0
 10
100.3257904449858984
 20
96.6403420235834147
 30
0.0
  0
VERTEX
  5
1FD6
  8
0
 10
100.3116539335676975
 20
96.6974715171240149
 30
0.0
  0
VERTEX
  5
1FD7
  8
0
 10
100.2977035658389013
 20
96.7546467785280981
 30
0.0
  0
VERTEX
  5
1FD8
  8
0
 10
100.2839355573191966
 20
96.8118659771046879
 30
0.0
  0
VERTEX
  5
1FD9
  8
0
 10
100.2703520670313964
 20
96.8691289024804831
 30
0.0
  0
VERTEX
  5
1FDA
  8
0
 10
100.2569566876243954
 20
96.926435735117451
 30
0.0
  0
VERTEX
  5
1FDB
  8
0
 10
100.2437530117473017
 20
96.9837866554775303
 30
0.0
  0
VERTEX
  5
1FDC
  8
0
 10
100.2307446320490953
 20
97.0411818440227023
 30
0.0
  0
VERTEX
  5
1FDD
  8
0
 10
100.2179351411788986
 20
97.0986214812148916
 30
0.0
  0
VERTEX
  5
1FDE
  8
0
 10
100.2053281245018042
 20
97.1561057458823569
 30
0.0
  0
VERTEX
  5
1FDF
  8
0
 10
100.1929262757487038
 20
97.2136346168604888
 30
0.0
  0
VERTEX
  5
1FE0
  8
0
 10
100.1807305513919033
 20
97.2712076833193606
 30
0.0
  0
VERTEX
  5
1FE1
  8
0
 10
100.1687417075245037
 20
97.3288244894840631
 30
0.0
  0
VERTEX
  5
1FE2
  8
0
 10
100.1569605002391938
 20
97.3864845795797152
 30
0.0
  0
VERTEX
  5
1FE3
  8
0
 10
100.1453876856291032
 20
97.4441874978313649
 30
0.0
  0
VERTEX
  5
1FE4
  8
0
 10
100.1340240197869065
 20
97.501932788464174
 30
0.0
  0
VERTEX
  5
1FE5
  8
0
 10
100.1228706971538998
 20
97.5597200442049513
 30
0.0
  0
VERTEX
  5
1FE6
  8
0
 10
100.1119363426342943
 20
97.617549679935891
 30
0.0
  0
VERTEX
  5
1FE7
  8
0
 10
100.1012357824071017
 20
97.6754227966890767
 30
0.0
  0
VERTEX
  5
1FE8
  8
0
 10
100.090784032640002
 20
97.7333405165181262
 30
0.0
  0
VERTEX
  5
1FE9
  8
0
 10
100.0805961095003056
 20
97.7913039614767143
 30
0.0
  0
VERTEX
  5
1FEA
  8
0
 10
100.0706870291550956
 20
97.8493142536184024
 30
0.0
  0
VERTEX
  5
1FEB
  8
0
 10
100.0610718077719952
 20
97.9073725149968936
 30
0.0
  0
VERTEX
  5
1FEC
  8
0
 10
100.0517588899332964
 20
97.9654789637192636
 30
0.0
  0
VERTEX
  5
1FED
  8
0
 10
100.0427175153214989
 20
98.0236284251094503
 30
0.0
  0
VERTEX
  5
1FEE
  8
0
 10
100.0339024459551069
 20
98.0818137330337549
 30
0.0
  0
VERTEX
  5
1FEF
  8
0
 10
100.0252684207851956
 20
98.1400277181853227
 30
0.0
  0
VERTEX
  5
1FF0
  8
0
 10
100.0167701787627976
 20
98.1982632112573555
 30
0.0
  0
VERTEX
  5
1FF1
  8
0
 10
100.0083624588384055
 20
98.2565130429430411
 30
0.0
  0
VERTEX
  5
1FF2
  8
0
 10
99.9999999999632792
 20
98.3147700439354963
 30
0.0
  0
SEQEND
  5
1FF3
  8
0
  0
POLYLINE
  5
152D
  8
0
 66
     1
 10
0.0
 20
0.0
 30
0.0
  0
VERTEX
  5
1FF4
  8
0
 10
107.9999999999031957
 20
98.3147700444394701
 30
0.0
  0
VERTEX
  5
1FF5
  8
0
 10
107.9941349145828013
 20
98.2641843562645647
 30
0.0
  0
VERTEX
  5
1FF6
  8
0
 10
107.9882450478043978
 20
98.2136018180321173
 30
0.0
  0
VERTEX
  5
1FF7
  8
0
 10
107.9823056181101038
 20
98.1630255796845432
 30
0.0
  0
VERTEX
  5
1FF8
  8
0
 10
107.9762918440418957
 20
98.1124587911643431
 30
0.0
  0
VERTEX
  5
1FF9
  8
0
 10
107.9701789441420061
 20
98.0619046024139038
 30
0.0
  0
VERTEX
  5
1FFA
  8
0
 10
107.9639421369521983
 20
98.0113661633756976
 30
0.0
  0
VERTEX
  5
1FFB
  8
0
 10
107.9575566410148042
 20
97.960846623992154
 30
0.0
  0
VERTEX
  5
1FFC
  8
0
 10
107.9509983018034944
 20
97.9103490642928449
 30
0.0
  0
VERTEX
  5
1FFD
  8
0
 10
107.9442585141876947
 20
97.8598748303016635
 30
0.0
  0
VERTEX
  5
1FFE
  8
0
 10
107.9373448773651063
 20
97.8094234610014297
 30
0.0
  0
VERTEX
  5
1FFF
  8
0
 10
107.9302657485219044
 20
97.7589944108470945
 30
0.0
  0
VERTEX
  5
2000
  8
0
 10
107.9230294848444061
 20
97.708587134293694
 30
0.0
  0
VERTEX
  5
2001
  8
0
 10
107.9156444435189997
 20
97.6582010857961649
 30
0.0
  0
VERTEX
  5
2002
  8
0
 10
107.9081189817318034
 20
97.607835719809529
 30
0.0
  0
VERTEX
  5
2003
  8
0
 10
107.9004613350944055
 20
97.557490504090751
 30
0.0
  0
VERTEX
  5
2004
  8
0
 10
107.8926754193750952
 20
97.5071653790489847
 30
0.0
  0
VERTEX
  5
2005
  8
0
 10
107.8847597631025934
 20
97.4568608745339304
 30
0.0
  0
VERTEX
  5
2006
  8
0
 10
107.876712556483298
 20
97.4065775574124757
 30
0.0
  0
VERTEX
  5
2007
  8
0
 10
107.868531989723806
 20
97.3563159945515366
 30
0.0
  0
VERTEX
  5
2008
  8
0
 10
107.8602162530304014
 20
97.3060767528180151
 30
0.0
  0
VERTEX
  5
2009
  8
0
 10
107.8517635366096954
 20
97.2558603990788413
 30
0.0
  0
VERTEX
  5
200A
  8
0
 10
107.8431721130701959
 20
97.2056674893371735
 30
0.0
  0
VERTEX
  5
200B
  8
0
 10
107.8344420567792952
 20
97.1554983420559637
 30
0.0
  0
VERTEX
  5
200C
  8
0
 10
107.8255751934034947
 20
97.1053530448103004
 30
0.0
  0
VERTEX
  5
200D
  8
0
 10
107.8165734209173934
 20
97.055231675642446
 30
0.0
  0
VERTEX
  5
200E
  8
0
 10
107.8074386372955047
 20
97.0051343125945351
 30
0.0
  0
VERTEX
  5
200F
  8
0
 10
107.7981727405122001
 20
96.9550610337088159
 30
0.0
  0
VERTEX
  5
2010
  8
0
 10
107.7887776285422063
 20
96.9050119170274655
 30
0.0
  0
VERTEX
  5
2011
  8
0
 10
107.7792552430779978
 20
96.8549870230780243
 30
0.0
  0
VERTEX
  5
2012
  8
0
 10
107.769608112473307
 20
96.8049861773551612
 30
0.0
  0
VERTEX
  5
2013
  8
0
 10
107.7598391844878023
 20
96.7550090373278522
 30
0.0
  0
VERTEX
  5
2014
  8
0
 10
107.7499514159627978
 20
96.7050552568267392
 30
0.0
  0
VERTEX
  5
2015
  8
0
 10
107.7399477637397069
 20
96.6551244896824073
 30
0.0
  0
VERTEX
  5
2016
  8
0
 10
107.7298311846598011
 20
96.6052163897254985
 30
0.0
  0
VERTEX
  5
2017
  8
0
 10
107.7196046355642949
 20
96.5553306107866263
 30
0.0
  0
VERTEX
  5
2018
  8
0
 10
107.7092706766083978
 20
96.5054668951128747
 30
0.0
  0
VERTEX
  5
2019
  8
0
 10
107.6988274283347948
 20
96.4556259744866793
 30
0.0
  0
VERTEX
  5
201A
  8
0
 10
107.6882702265715039
 20
96.4058092013693653
 30
0.0
  0
VERTEX
  5
201B
  8
0
 10
107.6775943641810045
 20
96.3560179377986543
 30
0.0
  0
VERTEX
  5
201C
  8
0
 10
107.6667951340258043
 20
96.3062535458122539
 30
0.0
  0
VERTEX
  5
201D
  8
0
 10
107.6558678289685957
 20
96.2565173874479569
 30
0.0
  0
VERTEX
  5
201E
  8
0
 10
107.6448114048571938
 20
96.2068099656015505
 30
0.0
  0
VERTEX
  5
201F
  8
0
 10
107.6336427930528004
 20
96.1571275670675334
 30
0.0
  0
VERTEX
  5
2020
  8
0
 10
107.6223844299576058
 20
96.1074651874499466
 30
0.0
  0
VERTEX
  5
2021
  8
0
 10
107.6110587533945022
 20
96.0578178220196435
 30
0.0
  0
VERTEX
  5
2022
  8
0
 10
107.5996882011859981
 20
96.0081804660475768
 30
0.0
  0
VERTEX
  5
2023
  8
0
 10
107.5882952111548008
 20
95.9585481148046
 30
0.0
  0
SEQEND
  5
2024
  8
0
  0
POLYLINE
  5
152E
  8
0
 66
     1
 10
0.0
 20
0.0
 30
0.0
  0
VERTEX
  5
2025
  8
0
 10
107.5882952111548008
 20
95.9585481148046142
 30
0.0
  0
VERTEX
  5
2026
  8
0
 10
107.6034495769713004
 20
95.925229880936584
 30
0.0
  0
VERTEX
  5
2027
  8
0
 10
107.6185686974135933
 20
95.8919069898728367
 30
0.0
  0
VERTEX
  5
2028
  8
0
 10
107.6336173271076007
 20
95.8585747844177263
 30
0.0
  0
VERTEX
  5
2029
  8
0
 10
107.648560220679002
 20
95.8252286073754647
 30
0.0
  0
VERTEX
  5
202A
  8
0
 10
107.6633621327536048
 20
95.7918638015504058
 30
0.0
  0
VERTEX
  5
202B
  8
0
 10
107.6779878179573018
 20
95.7584757097468753
 30
0.0
  0
VERTEX
  5
202C
  8
0
 10
107.692402030915801
 20
95.7250596747691134
 30
0.0
  0
VERTEX
  5
202D
  8
0
 10
107.7065734131599015
 20
95.6916117039750844
 30
0.0
  0
VERTEX
  5
202E
  8
0
 10
107.7204968021128053
 20
95.6581322834985599
 30
0.0
  0
VERTEX
  5
202F
  8
0
 10
107.7341778542779025
 20
95.6246237492379549
 30
0.0
  0
VERTEX
  5
2030
  8
0
 10
107.7476222602786038
 20
95.5910884429251553
 30
0.0
  0
VERTEX
  5
2031
  8
0
 10
107.7608357107383057
 20
95.5575287062922456
 30
0.0
  0
VERTEX
  5
2032
  8
0
 10
107.7738238962804047
 20
95.5239468810711401
 30
0.0
  0
VERTEX
  5
2033
  8
0
 10
107.7865925075284963
 20
95.4903453089937955
 30
0.0
  0
VERTEX
  5
2034
  8
0
 10
107.7991464446336067
 20
95.4567260863367437
 30
0.0
  0
VERTEX
  5
2035
  8
0
 10
107.8114858748682963
 20
95.4230898397347715
 30
0.0
  0
VERTEX
  5
2036
  8
0
 10
107.8236092118324052
 20
95.389436651276597
 30
0.0
  0
VERTEX
  5
2037
  8
0
 10
107.8355148662650009
 20
95.3557666021625465
 30
0.0
  0
VERTEX
  5
2038
  8
0
 10
107.847201248905094
 20
95.3220797735931455
 30
0.0
  0
VERTEX
  5
2039
  8
0
 10
107.8586667704919932
 20
95.2883762467687347
 30
0.0
  0
VERTEX
  5
203A
  8
0
 10
107.8699098417645956
 20
95.2546561028897258
 30
0.0
  0
VERTEX
  5
203B
  8
0
 10
107.8809263898581037
 20
95.2209191484864022
 30
0.0
  0
VERTEX
  5
203C
  8
0
 10
107.8917023204964067
 20
95.1871640817872446
 30
0.0
  0
VERTEX
  5
203D
  8
0
 10
107.9022210121114966
 20
95.153389321519029
 30
0.0
  0
VERTEX
  5
203E
  8
0
 10
107.9124658431358057
 20
95.1195932864085449
 30
0.0
  0
VERTEX
  5
203F
  8
0
 10
107.9224201920013968
 20
95.0857743951825256
 30
0.0
  0
VERTEX
  5
2040
  8
0
 10
107.9320674371402049
 20
95.0519310665678034
 30
0.0
  0
VERTEX
  5
2041
  8
0
 10
107.9413909607166033
 20
95.018061719607104
 30
0.0
  0
VERTEX
  5
2042
  8
0
 10
107.9503873276393051
 20
94.9841658895331591
 30
0.0
  0
VERTEX
  5
2043
  8
0
 10
107.959095858118701
 20
94.9502467316927437
 30
0.0
  0
VERTEX
  5
2044
  8
0
 10
107.9675645248952947
 20
94.9163081340469716
 30
0.0
  0
VERTEX
  5
2045
  8
0
 10
107.9758413007097033
 20
94.8823539845568433
 30
0.0
  0
VERTEX
  5
2046
  8
0
 10
107.9839741583024022
 20
94.8483881711835295
 30
0.0
  0
VERTEX
  5
2047
  8
0
 10
107.9920110704139944
 20
94.8144145818880162
 30
0.0
  0
VERTEX
  5
2048
  8
0
 10
108.0000000097849977
 20
94.7804371046314458
 30
0.0
  0
SEQEND
  5
2049
  8
0
  0
POLYLINE
  5
152F
  8
0
 66
     1
 10
0.0
 20
0.0
 30
0.0
  0
VERTEX
  5
204A
  8
0
 10
129.9999999999002114
 20
94.4999978475565854
 30
0.0
  0
VERTEX
  5
204B
  8
0
 10
129.9995245538844983
 20
94.5003443517402815
 30
0.0
  0
VERTEX
  5
204C
  8
0
 10
129.9989790305735085
 20
94.5007440823270457
 30
0.0
  0
VERTEX
  5
204D
  8
0
 10
129.9982933526717943
 20
94.5012502657199462
 30
0.0
  0
VERTEX
  5
204E
  8
0
 10
129.9973974428841927
 20
94.501916128321966
 30
0.0
  0
VERTEX
  5
204F
  8
0
 10
129.9962212239153985
 20
94.5027948965362725
 30
0.0
  0
VERTEX
  5
2050
  8
0
 10
129.9947035339666002
 20
94.503933403643984
 30
0.0
  0
VERTEX
  5
2051
  8
0
 10
129.9928439611722979
 20
94.5053349203808324
 30
0.0
  0
VERTEX
  5
2052
  8
0
 10
129.9906674327540941
 20
94.5069845473367991
 30
0.0
  0
VERTEX
  5
2053
  8
0
 10
129.9881989601288126
 20
94.5088673247274045
 30
0.0
  0
VERTEX
  5
2054
  8
0
 10
129.9854635547129078
 20
94.5109682927681263
 30
0.0
  0
VERTEX
  5
2055
  8
0
 10
129.9824857169010102
 20
94.5132728786285554
 30
0.0
  0
VERTEX
  5
2056
  8
0
 10
129.9792782217961928
 20
94.5157753880557152
 30
0.0
  0
VERTEX
  5
2057
  8
0
 10
129.9758421348649051
 20
94.5184789935200627
 30
0.0
  0
VERTEX
  5
2058
  8
0
 10
129.9721780136823099
 20
94.5213872520753853
 30
0.0
  0
VERTEX
  5
2059
  8
0
 10
129.9682864158239113
 20
94.5245037207755274
 30
0.0
  0
VERTEX
  5
205A
  8
0
 10
129.9641678993430105
 20
94.5278319563688854
 30
0.0
  0
VERTEX
  5
205B
  8
0
 10
129.9598243903691923
 20
94.5313746425465666
 30
0.0
  0
VERTEX
  5
205C
  8
0
 10
129.955262180473909
 20
94.5351316771289305
 30
0.0
  0
VERTEX
  5
205D
  8
0
 10
129.95048843007811
 20
94.5391024034672682
 30
0.0
  0
VERTEX
  5
205E
  8
0
 10
129.9455102996030007
 20
94.543286164912999
 30
0.0
  0
VERTEX
  5
205F
  8
0
 10
129.9403349494697011
 20
94.5476823048174282
 30
0.0
  0
VERTEX
  5
2060
  8
0
 10
129.9349694905963872
 20
94.5522902282635584
 30
0.0
  0
VERTEX
  5
2061
  8
0
 10
129.9294203050390024
 20
94.5571102492521192
 30
0.0
  0
VERTEX
  5
2062
  8
0
 10
129.9236932197705983
 20
94.5621433739918587
 30
0.0
  0
VERTEX
  5
2063
  8
0
 10
129.9177940478278117
 20
94.5673906260708179
 30
0.0
  0
VERTEX
  5
2064
  8
0
 10
129.9117286022471944
 20
94.5728530290770948
 30
0.0
  0
VERTEX
  5
2065
  8
0
 10
129.9055026964921922
 20
94.5785316066085784
 30
0.0
  0
VERTEX
  5
2066
  8
0
 10
129.8991223728878879
 20
94.5844273875327275
 30
0.0
  0
VERTEX
  5
2067
  8
0
 10
129.8925942792604076
 20
94.5905414146586736
 30
0.0
  0
VERTEX
  5
2068
  8
0
 10
129.8859251624272986
 20
94.596874733074813
 30
0.0
  0
VERTEX
  5
2069
  8
0
 10
129.8791217692063071
 20
94.6034283878695987
 30
0.0
  0
VERTEX
  5
206A
  8
0
 10
129.8721908464150943
 20
94.6102034241313845
 30
0.0
  0
VERTEX
  5
206B
  8
0
 10
129.8651392159349029
 20
94.6172009656783928
 30
0.0
  0
VERTEX
  5
206C
  8
0
 10
129.8579743771913968
 20
94.6244228469646629
 30
0.0
  0
VERTEX
  5
206D
  8
0
 10
129.85070418900969
 20
94.6318712793971741
 30
0.0
  0
VERTEX
  5
206E
  8
0
 10
129.8433365135147994
 20
94.6395484778435048
 30
0.0
  0
VERTEX
  5
206F
  8
0
 10
129.8358792128310881
 20
94.6474566571712757
 30
0.0
  0
VERTEX
  5
2070
  8
0
 10
129.8283401305070868
 20
94.6555979780068242
 30
0.0
  0
VERTEX
  5
2071
  8
0
 10
129.8207265845354073
 20
94.6639730664098238
 30
0.0
  0
VERTEX
  5
2072
  8
0
 10
129.8130453061405944
 20
94.6725808351410762
 30
0.0
  0
VERTEX
  5
2073
  8
0
 10
129.8053029956822115
 20
94.6814201068375354
 30
0.0
  0
VERTEX
  5
2074
  8
0
 10
129.797506353519509
 20
94.6904897041361551
 30
0.0
  0
VERTEX
  5
2075
  8
0
 10
129.7896620909195917
 20
94.6997884640401821
 30
0.0
  0
VERTEX
  5
2076
  8
0
 10
129.7817776644344008
 20
94.7093162051580748
 30
0.0
  0
VERTEX
  5
2077
  8
0
 10
129.77386174130271
 20
94.7190743406780911
 30
0.0
  0
VERTEX
  5
2078
  8
0
 10
129.7659230996758879
 20
94.7290644298700073
 30
0.0
  0
VERTEX
  5
2079
  8
0
 10
129.7579705177051892
 20
94.7392880320036284
 30
0.0
  0
VERTEX
  5
207A
  8
0
 10
129.7500127730961026
 20
94.7497467051548767
 30
0.0
  0
VERTEX
  5
207B
  8
0
 10
129.7420584069730864
 20
94.760441374012899
 30
0.0
  0
VERTEX
  5
207C
  8
0
 10
129.7341153355102961
 20
94.7713712901159511
 30
0.0
  0
VERTEX
  5
207D
  8
0
 10
129.7261913728816012
 20
94.7825354319226818
 30
0.0
  0
VERTEX
  5
207E
  8
0
 10
129.7182943332610989
 20
94.7939327778917544
 30
0.0
  0
VERTEX
  5
207F
  8
0
 10
129.7104320308226875
 20
94.8055623064818604
 30
0.0
  0
VERTEX
  5
2080
  8
0
 10
129.7026122992880914
 20
94.817422920150463
 30
0.0
  0
VERTEX
  5
2081
  8
0
 10
129.6948430851327032
 20
94.8295130829664146
 30
0.0
  0
VERTEX
  5
2082
  8
0
 10
129.6871323751736895
 20
94.8418311021497544
 30
0.0
  0
VERTEX
  5
2083
  8
0
 10
129.6794881562792909
 20
94.8543752847224368
 30
0.0
  0
VERTEX
  5
2084
  8
0
 10
129.6719184153174922
 20
94.8671439377062455
 30
0.0
  0
VERTEX
  5
2085
  8
0
 10
129.6644310228369079
 20
94.8801352790896857
 30
0.0
  0
VERTEX
  5
2086
  8
0
 10
129.6570311746341133
 20
94.8933454795518116
 30
0.0
  0
VERTEX
  5
2087
  8
0
 10
129.6497213920868035
 20
94.9067686627171838
 30
0.0
  0
VERTEX
  5
2088
  8
0
 10
129.6425040803198954
 20
94.9203988632279732
 30
0.0
  0
VERTEX
  5
2089
  8
0
 10
129.6353816444581071
 20
94.9342301157263222
 30
0.0
  0
VERTEX
  5
208A
  8
0
 10
129.6283564896262135
 20
94.9482564548543877
 30
0.0
  0
VERTEX
  5
208B
  8
0
 10
129.6214328298443093
 20
94.9624732730925274
 30
0.0
  0
VERTEX
  5
208C
  8
0
 10
129.6146228576924955
 20
94.9768819519870249
 30
0.0
  0
VERTEX
  5
208D
  8
0
 10
129.6079409648205001
 20
94.9914855238047124
 30
0.0
  0
VERTEX
  5
208E
  8
0
 10
129.6014015429470021
 20
95.0062870208641641
 30
0.0
  0
VERTEX
  5
208F
  8
0
 10
129.59501898379051
 20
95.0212894754839397
 30
0.0
  0
VERTEX
  5
2090
  8
0
 10
129.5888076230282024
 20
95.0364958813780447
 30
0.0
  0
VERTEX
  5
2091
  8
0
 10
129.5827773670575027
 20
95.0519061811277481
 30
0.0
  0
VERTEX
  5
2092
  8
0
 10
129.5769305610751871
 20
95.0675151087404373
 30
0.0
  0
VERTEX
  5
2093
  8
0
 10
129.5712688111281068
 20
95.0833168890562916
 30
0.0
  0
VERTEX
  5
2094
  8
0
 10
129.5657937232629138
 20
95.0993057469154337
 30
0.0
  0
VERTEX
  5
2095
  8
0
 10
129.5605069035266013
 20
95.1154759071580429
 30
0.0
  0
VERTEX
  5
2096
  8
0
 10
129.5554099579659066
 20
95.1318215946242844
 30
0.0
  0
VERTEX
  5
2097
  8
0
 10
129.5505045151149943
 20
95.1483370411727236
 30
0.0
  0
VERTEX
  5
2098
  8
0
 10
129.5457932656827893
 20
95.1650168101714371
 30
0.0
  0
VERTEX
  5
2099
  8
0
 10
129.5412803999982998
 20
95.1818559330268954
 30
0.0
  0
VERTEX
  5
209A
  8
0
 10
129.5369702216428891
 20
95.1988494764920858
 30
0.0
  0
VERTEX
  5
209B
  8
0
 10
129.5328670341978068
 20
95.2159925073199105
 30
0.0
  0
VERTEX
  5
209C
  8
0
 10
129.5289751412443877
 20
95.2332800922633851
 30
0.0
  0
VERTEX
  5
209D
  8
0
 10
129.5252988463639099
 20
95.2507072980754828
 30
0.0
  0
VERTEX
  5
209E
  8
0
 10
129.5218424531377082
 20
95.2682691915091056
 30
0.0
  0
VERTEX
  5
209F
  8
0
 10
129.51861026514689
 20
95.2859608393172834
 30
0.0
  0
VERTEX
  5
20A0
  8
0
 10
129.5156065859729893
 20
95.3037773082529327
 30
0.0
  0
VERTEX
  5
20A1
  8
0
 10
129.5128357191971133
 20
95.3217136650690264
 30
0.0
  0
VERTEX
  5
20A2
  8
0
 10
129.5103019684005972
 20
95.3397649765185236
 30
0.0
  0
VERTEX
  5
20A3
  8
0
 10
129.508009637164804
 20
95.357926309354383
 30
0.0
  0
VERTEX
  5
20A4
  8
0
 10
129.5059630290708128
 20
95.3761927303296062
 30
0.0
  0
VERTEX
  5
20A5
  8
0
 10
129.5041664477001859
 20
95.3945593061971095
 30
0.0
  0
VERTEX
  5
20A6
  8
0
 10
129.5026275950899048
 20
95.4130225865155523
 30
0.0
  0
VERTEX
  5
20A7
  8
0
 10
129.5013795413084097
 20
95.4315901893584453
 30
0.0
  0
VERTEX
  5
20A8
  8
0
 10
129.5004646154893919
 20
95.4502738190411861
 30
0.0
  0
VERTEX
  5
20A9
  8
0
 10
129.4998923222937037
 20
95.4690715475727387
 30
0.0
  0
VERTEX
  5
20AA
  8
0
 10
129.4996469506361905
 20
95.4879709737241029
 30
0.0
  0
VERTEX
  5
20AB
  8
0
 10
129.4997121463111966
 20
95.5069594291490205
 30
0.0
  0
VERTEX
  5
20AC
  8
0
 10
129.5000715936197935
 20
95.526024270650467
 30
0.0
  0
VERTEX
  5
20AD
  8
0
 10
129.5007139454208129
 20
95.5451561000127185
 30
0.0
  0
VERTEX
  5
20AE
  8
0
 10
129.5016376751798077
 20
95.5643519328911566
 30
0.0
  0
VERTEX
  5
20AF
  8
0
 10
129.5028424089144892
 20
95.583609537676665
 30
0.0
  0
VERTEX
  5
20B0
  8
0
 10
129.5043277729052988
 20
95.6029266826332531
 30
0.0
  0
VERTEX
  5
20B1
  8
0
 10
129.5060951542606915
 20
95.6223002838471245
 30
0.0
  0
VERTEX
  5
20B2
  8
0
 10
129.5081518978956865
 20
95.6417243740398391
 30
0.0
  0
VERTEX
  5
20B3
  8
0
 10
129.5105066075502123
 20
95.6611923767068077
 30
0.0
  0
VERTEX
  5
20B4
  8
0
 10
129.513167886964311
 20
95.6806977153434275
 30
0.0
  0
VERTEX
  5
20B5
  8
0
 10
129.5161443398779113
 20
95.700233813445081
 30
0.0
  0
VERTEX
  5
20B6
  8
0
 10
129.5194445700311974
 20
95.7197940945071934
 30
0.0
  0
VERTEX
  5
20B7
  8
0
 10
129.5230771811640125
 20
95.7393719820251334
 30
0.0
  0
VERTEX
  5
20B8
  8
0
 10
129.5270506262145886
 20
95.758960888857743
 30
0.0
  0
VERTEX
  5
20B9
  8
0
 10
129.5313679004744927
 20
95.7785538429160397
 30
0.0
  0
VERTEX
  5
20BA
  8
0
 10
129.5360251352259127
 20
95.7981433879675421
 30
0.0
  0
VERTEX
  5
20BB
  8
0
 10
129.5410180250341057
 20
95.817722036976491
 30
0.0
  0
VERTEX
  5
20BC
  8
0
 10
129.5463422644639024
 20
95.8372823029070844
 30
0.0
  0
VERTEX
  5
20BD
  8
0
 10
129.5519935480801905
 20
95.8568166987235344
 30
0.0
  0
VERTEX
  5
20BE
  8
0
 10
129.5579681819531004
 20
95.8763173050113977
 30
0.0
  0
VERTEX
  5
20BF
  8
0
 10
129.5642677314125137
 20
95.8957724836752732
 30
0.0
  0
VERTEX
  5
20C0
  8
0
 10
129.5708964432324137
 20
95.9151687006429228
 30
0.0
  0
VERTEX
  5
20C1
  8
0
 10
129.5778585855684923
 20
95.9344924067238765
 30
0.0
  0
VERTEX
  5
20C2
  8
0
 10
129.5851580913233079
 20
95.9537303647697541
 30
0.0
  0
VERTEX
  5
20C3
  8
0
 10
129.5927943091168117
 20
95.9728736045285871
 30
0.0
  0
VERTEX
  5
20C4
  8
0
 10
129.6007632672888121
 20
95.9919162461538207
 30
0.0
  0
VERTEX
  5
20C5
  8
0
 10
129.6090609200020936
 20
96.010852478840377
 30
0.0
  0
VERTEX
  5
20C6
  8
0
 10
129.6176825653097069
 20
96.0296753559836702
 30
0.0
  0
VERTEX
  5
20C7
  8
0
 10
129.6266172503407006
 20
96.0483671099302541
 30
0.0
  0
VERTEX
  5
20C8
  8
0
 10
129.6358505593040036
 20
96.066903978324433
 30
0.0
  0
VERTEX
  5
20C9
  8
0
 10
129.6453680396328991
 20
96.085262135147687
 30
0.0
  0
VERTEX
  5
20CA
  8
0
 10
129.6551552387608126
 20
96.1034177543814252
 30
0.0
  0
VERTEX
  5
20CB
  8
0
 10
129.6651977041209989
 20
96.1213470100070566
 30
0.0
  0
VERTEX
  5
20CC
  8
0
 10
129.6754809831467128
 20
96.1390260760060329
 30
0.0
  0
VERTEX
  5
20CD
  8
0
 10
129.6859906232712945
 20
96.1564311263597915
 30
0.0
  0
VERTEX
  5
20CE
  8
0
 10
129.6967121719279135
 20
96.1735383350497415
 30
0.0
  0
VERTEX
  5
20CF
  8
0
 10
129.7076306730484134
 20
96.1903240001178688
 30
0.0
  0
VERTEX
  5
20D0
  8
0
 10
129.7187214940288129
 20
96.2067668038611856
 30
0.0
  0
VERTEX
  5
20D1
  8
0
 10
129.7299512783957027
 20
96.2228475780990067
 30
0.0
  0
VERTEX
  5
20D2
  8
0
 10
129.7412863573497077
 20
96.238547231606475
 30
0.0
  0
VERTEX
  5
20D3
  8
0
 10
129.7526930620911116
 20
96.2538466731587334
 30
0.0
  0
VERTEX
  5
20D4
  8
0
 10
129.7641377238203972
 20
96.2687268115309251
 30
0.0
  0
VERTEX
  5
20D5
  8
0
 10
129.7755866737377914
 20
96.2831685554982215
 30
0.0
  0
VERTEX
  5
20D6
  8
0
 10
129.7870062430438054
 20
96.2971528138357513
 30
0.0
  0
VERTEX
  5
20D7
  8
0
 10
129.7983627687065109
 20
96.3106605256488422
 30
0.0
  0
VERTEX
  5
20D8
  8
0
 10
129.8096234645688014
 20
96.3236772411362807
 30
0.0
  0
VERTEX
  5
20D9
  8
0
 10
129.8207573534139101
 20
96.3361980229112049
 30
0.0
  0
VERTEX
  5
20DA
  8
0
 10
129.8317336814488101
 20
96.3482191084712412
 30
0.0
  0
VERTEX
  5
20DB
  8
0
 10
129.842521694880304
 20
96.3597367353138736
 30
0.0
  0
VERTEX
  5
20DC
  8
0
 10
129.8530906399153082
 20
96.3707471409367145
 30
0.0
  0
VERTEX
  5
20DD
  8
0
 10
129.8634097627607105
 20
96.3812465628372763
 30
0.0
  0
VERTEX
  5
20DE
  8
0
 10
129.8734483096231997
 20
96.3912312385131145
 30
0.0
  0
VERTEX
  5
20DF
  8
0
 10
129.8831756164017008
 20
96.4006974767026321
 30
0.0
  0
VERTEX
  5
20E0
  8
0
 10
129.8925689008204927
 20
96.409647846551394
 30
0.0
  0
VERTEX
  5
20E1
  8
0
 10
129.9016193049309891
 20
96.4180959770740316
 30
0.0
  0
VERTEX
  5
20E2
  8
0
 10
129.9103193930741895
 20
96.4260566269865222
 30
0.0
  0
VERTEX
  5
20E3
  8
0
 10
129.9186617295906103
 20
96.433544555004886
 30
0.0
  0
VERTEX
  5
20E4
  8
0
 10
129.9266388788209952
 20
96.4405745198451001
 30
0.0
  0
VERTEX
  5
20E5
  8
0
 10
129.9342434051060877
 20
96.4471612802231704
 30
0.0
  0
VERTEX
  5
20E6
  8
0
 10
129.9414678727866033
 20
96.4533195948550741
 30
0.0
  0
VERTEX
  5
20E7
  8
0
 10
129.9483047987303053
 20
96.4590641355290472
 30
0.0
  0
VERTEX
  5
20E8
  8
0
 10
129.9547435685373955
 20
96.4644038403742883
 30
0.0
  0
VERTEX
  5
20E9
  8
0
 10
129.9607685442933018
 20
96.4693384489688128
 30
0.0
  0
VERTEX
  5
20EA
  8
0
 10
129.9663636354478911
 20
96.4738668720709569
 30
0.0
  0
VERTEX
  5
20EB
  8
0
 10
129.9715127514512005
 20
96.4779880204390139
 30
0.0
  0
VERTEX
  5
20EC
  8
0
 10
129.976199801753296
 20
96.481700804831334
 30
0.0
  0
VERTEX
  5
20ED
  8
0
 10
129.9804086958041012
 20
96.4850041360062249
 30
0.0
  0
VERTEX
  5
20EE
  8
0
 10
129.9841233430535965
 20
96.4878969247219942
 30
0.0
  0
VERTEX
  5
20EF
  8
0
 10
129.9873277584264883
 20
96.4903781495848136
 30
0.0
  0
VERTEX
  5
20F0
  8
0
 10
129.9900285086762892
 20
96.4924612959457164
 30
0.0
  0
VERTEX
  5
20F1
  8
0
 10
129.9922825708999881
 20
96.4941922762367454
 30
0.0
  0
VERTEX
  5
20F2
  8
0
 10
129.994153757672791
 20
96.4956213998964358
 30
0.0
  0
VERTEX
  5
20F3
  8
0
 10
129.9957058815697906
 20
96.4967989763633653
 30
0.0
  0
VERTEX
  5
20F4
  8
0
 10
129.9970027551661929
 20
96.4977753150760833
 30
0.0
  0
VERTEX
  5
20F5
  8
0
 10
129.9981081910370904
 20
96.4986007254731675
 30
0.0
  0
VERTEX
  5
20F6
  8
0
 10
129.9990860017576892
 20
96.4993255169931246
 30
0.0
  0
VERTEX
  5
20F7
  8
0
 10
129.9999999999031957
 20
96.4999999990745323
 30
0.0
  0
SEQEND
  5
20F8
  8
0
  0
POLYLINE
  5
1530
  8
0
 66
     1
 10
0.0
 20
0.0
 30
0.0
  0
VERTEX
  5
20F9
  8
0
 10
129.9999999999031957
 20
98.9999999990748165
 30
0.0
  0
VERTEX
  5
20FA
  8
0
 10
129.9995018852110036
 20
99.0003546688601546
 30
0.0
  0
VERTEX
  5
20FB
  8
0
 10
129.9989071321643053
 20
99.0007814661677656
 30
0.0
  0
VERTEX
  5
20FC
  8
0
 10
129.9981191024089071
 20
99.0013525185200081
 30
0.0
  0
VERTEX
  5
20FD
  8
0
 10
129.9970411575905018
 20
99.0021399534391833
 30
0.0
  0
VERTEX
  5
20FE
  8
0
 10
129.9955777984623921
 20
99.0032151040455943
 30
0.0
  0
VERTEX
  5
20FF
  8
0
 10
129.9936842398963108
 20
99.0046139359546231
 30
0.0
  0
VERTEX
  5
2100
  8
0
 10
129.9913855589014986
 20
99.0063236936449726
 30
0.0
  0
VERTEX
  5
2101
  8
0
 10
129.9887119248004126
 20
99.0083280702684334
 30
0.0
  0
VERTEX
  5
2102
  8
0
 10
129.9856935069155099
 20
99.0106107589769948
 30
0.0
  0
VERTEX
  5
2103
  8
0
 10
129.9823586501977104
 20
99.0131568371712945
 30
0.0
  0
VERTEX
  5
2104
  8
0
 10
129.978717244466992
 20
99.0159653851534216
 30
0.0
  0
VERTEX
  5
2105
  8
0
 10
129.9747684620448922
 20
99.0190436151687834
 30
0.0
  0
VERTEX
  5
2106
  8
0
 10
129.9705113431793961
 20
99.0223988396738832
 30
0.0
  0
VERTEX
  5
2107
  8
0
 10
129.9659449281184038
 20
99.0260383711252956
 30
0.0
  0
VERTEX
  5
2108
  8
0
 10
129.9610700091421904
 20
99.0299684810871952
 30
0.0
  0
VERTEX
  5
2109
  8
0
 10
129.9558944665683953
 20
99.0341912300804381
 30
0.0
  0
VERTEX
  5
210A
  8
0
 10
129.950427972928594
 20
99.0387076138613764
 30
0.0
  0
VERTEX
  5
210B
  8
0
 10
129.9446802007541919
 20
99.0435186281862485
 30
0.0
  0
VERTEX
  5
210C
  8
0
 10
129.9386608211603971
 20
99.048625272301976
 30
0.0
  0
VERTEX
  5
210D
  8
0
 10
129.9323793465335939
 20
99.0540289365742552
 30
0.0
  0
VERTEX
  5
210E
  8
0
 10
129.9258449875813994
 20
99.0597317547286451
 30
0.0
  0
VERTEX
  5
210F
  8
0
 10
129.9190669212532896
 20
99.065735943672891
 30
0.0
  0
VERTEX
  5
2110
  8
0
 10
129.9120543244987971
 20
99.0720437203146531
 30
0.0
  0
VERTEX
  5
2111
  8
0
 10
129.9048164215886914
 20
99.0786572784813586
 30
0.0
  0
VERTEX
  5
2112
  8
0
 10
129.8973635445346986
 20
99.0855782717158604
 30
0.0
  0
VERTEX
  5
2113
  8
0
 10
129.8897071439488116
 20
99.0928078079800656
 30
0.0
  0
VERTEX
  5
2114
  8
0
 10
129.8818587199359058
 20
99.100346971096215
 30
0.0
  0
VERTEX
  5
2115
  8
0
 10
129.8738297726009989
 20
99.1081968448867201
 30
0.0
  0
VERTEX
  5
2116
  8
0
 10
129.8656318655633868
 20
99.1163584396842623
 30
0.0
  0
VERTEX
  5
2117
  8
0
 10
129.8572771898583085
 20
99.1248320398671439
 30
0.0
  0
VERTEX
  5
2118
  8
0
 10
129.8487782941816135
 20
99.1336175159806885
 30
0.0
  0
VERTEX
  5
2119
  8
0
 10
129.8401477313906867
 20
99.1427147337552128
 30
0.0
  0
VERTEX
  5
211A
  8
0
 10
129.8313980543427988
 20
99.1521235589210477
 30
0.0
  0
VERTEX
  5
211B
  8
0
 10
129.8225419798150995
 20
99.1618437790587564
 30
0.0
  0
VERTEX
  5
211C
  8
0
 10
129.8135931007522004
 20
99.1718747640306759
 30
0.0
  0
VERTEX
  5
211D
  8
0
 10
129.8045653016345113
 20
99.1822157447077331
 30
0.0
  0
VERTEX
  5
211E
  8
0
 10
129.795472467139291
 20
99.1928659518669207
 30
0.0
  0
VERTEX
  5
211F
  8
0
 10
129.7863284818803891
 20
99.2038246161028354
 30
0.0
  0
VERTEX
  5
2120
  8
0
 10
129.7771469022912072
 20
99.2150900291940729
 30
0.0
  0
VERTEX
  5
2121
  8
0
 10
129.7679401923294051
 20
99.2266573577021944
 30
0.0
  0
VERTEX
  5
2122
  8
0
 10
129.7587205889099096
 20
99.2385211186947913
 30
0.0
  0
VERTEX
  5
2123
  8
0
 10
129.7495003289481019
 20
99.2506758292393556
 30
0.0
  0
VERTEX
  5
2124
  8
0
 10
129.7402916492472968
 20
99.2631160078516217
 30
0.0
  0
VERTEX
  5
2125
  8
0
 10
129.7311067514343108
 20
99.2758366287749254
 30
0.0
  0
VERTEX
  5
2126
  8
0
 10
129.7219577520851885
 20
99.2888337681284554
 30
0.0
  0
VERTEX
  5
2127
  8
0
 10
129.7128567551758067
 20
99.302103665268703
 30
0.0
  0
VERTEX
  5
2128
  8
0
 10
129.7038158646824115
 20
99.3156425595521881
 30
0.0
  0
VERTEX
  5
2129
  8
0
 10
129.6948471887324104
 20
99.3294466924235309
 30
0.0
  0
VERTEX
  5
212A
  8
0
 10
129.6859643292837916
 20
99.3435130566899005
 30
0.0
  0
VERTEX
  5
212B
  8
0
 10
129.6771845896691104
 20
99.3578405068655997
 30
0.0
  0
VERTEX
  5
212C
  8
0
 10
129.6685258366194091
 20
99.3724281808416663
 30
0.0
  0
VERTEX
  5
212D
  8
0
 10
129.6600059368660141
 20
99.3872752165091384
 30
0.0
  0
VERTEX
  5
212E
  8
0
 10
129.6516427571399959
 20
99.4023807517590114
 30
0.0
  0
VERTEX
  5
212F
  8
0
 10
129.6434535243919015
 20
99.4177434206453512
 30
0.0
  0
VERTEX
  5
2130
  8
0
 10
129.6354455236908905
 20
99.433354027843194
 30
0.0
  0
VERTEX
  5
2131
  8
0
 10
129.6276181936734133
 20
99.4491971988450842
 30
0.0
  0
VERTEX
  5
2132
  8
0
 10
129.6199707596587984
 20
99.4652573911532158
 30
0.0
  0
VERTEX
  5
2133
  8
0
 10
129.6125024469664027
 20
99.4815190622696406
 30
0.0
  0
VERTEX
  5
2134
  8
0
 10
129.6052124809154975
 20
99.4979666696965666
 30
0.0
  0
VERTEX
  5
2135
  8
0
 10
129.5981000868252977
 20
99.514584670936074
 30
0.0
  0
VERTEX
  5
2136
  8
0
 10
129.5911676134176105
 20
99.5313604406924952
 30
0.0
  0
VERTEX
  5
2137
  8
0
 10
129.5844321214578088
 20
99.548295094455753
 30
0.0
  0
VERTEX
  5
2138
  8
0
 10
129.5779149994110924
 20
99.5653937897102566
 30
0.0
  0
VERTEX
  5
2139
  8
0
 10
129.5716375375359064
 20
99.5826616101766859
 30
0.0
  0
VERTEX
  5
213A
  8
0
 10
129.5656129382564927
 20
99.6000975558576442
 30
0.0
  0
VERTEX
  5
213B
  8
0
 10
129.5598404373164954
 20
99.6176901209327639
 30
0.0
  0
VERTEX
  5
213C
  8
0
 10
129.5543178847256058
 20
99.6354267572244368
 30
0.0
  0
VERTEX
  5
213D
  8
0
 10
129.5490431304936862
 20
99.6532949165550264
 30
0.0
  0
VERTEX
  5
213E
  8
0
 10
129.544015136591014
 20
99.6712832747575135
 30
0.0
  0
VERTEX
  5
213F
  8
0
 10
129.5392377460314037
 20
99.6893858805617725
 30
0.0
  0
VERTEX
  5
2140
  8
0
 10
129.53471614073419
 20
99.7075982565218908
 30
0.0
  0
VERTEX
  5
2141
  8
0
 10
129.530455502654803
 20
99.7259159252318881
 30
0.0
  0
VERTEX
  5
2142
  8
0
 10
129.5264610137485874
 20
99.7443344092857842
 30
0.0
  0
VERTEX
  5
2143
  8
0
 10
129.5227378558257101
 20
99.7628492311156521
 30
0.0
  0
VERTEX
  5
2144
  8
0
 10
129.5192904755299992
 20
99.781455095583496
 30
0.0
  0
VERTEX
  5
2145
  8
0
 10
129.5161208753063136
 20
99.8001439893825903
 30
0.0
  0
VERTEX
  5
2146
  8
0
 10
129.513230550288597
 20
99.8189073350317102
 30
0.0
  0
VERTEX
  5
2147
  8
0
 10
129.5106209956113048
 20
99.8377365550496165
 30
0.0
  0
VERTEX
  5
2148
  8
0
 10
129.5082937064086082
 20
99.8566230719551271
 30
0.0
  0
VERTEX
  5
2149
  8
0
 10
129.5062501778147066
 20
99.8755583082670029
 30
0.0
  0
VERTEX
  5
214A
  8
0
 10
129.5044919049637997
 20
99.8945336865040048
 30
0.0
  0
VERTEX
  5
214B
  8
0
 10
129.503020382990286
 20
99.9135406291849648
 30
0.0
  0
VERTEX
  5
214C
  8
0
 10
129.5018371070281944
 20
99.9325705588286439
 30
0.0
  0
VERTEX
  5
214D
  8
0
 10
129.5009435722120088
 20
99.9516148979538031
 30
0.0
  0
VERTEX
  5
214E
  8
0
 10
129.5003412165141015
 20
99.9706651616352815
 30
0.0
  0
VERTEX
  5
214F
  8
0
 10
129.5000277432378937
 20
99.9897189156724409
 30
0.0
  0
VERTEX
  5
2150
  8
0
 10
129.4999987392438925
 20
100.0087791813497944
 30
0.0
  0
VERTEX
  5
2151
  8
0
 10
129.500259587913888
 20
100.0278385348248946
 30
0.0
  0
VERTEX
  5
2152
  8
0
 10
129.5008173791825072
 20
100.0468876836407048
 30
0.0
  0
VERTEX
  5
2153
  8
0
 10
129.5016781689226093
 20
100.0659178308122961
 30
0.0
  0
VERTEX
  5
2154
  8
0
 10
129.5028400349497133
 20
100.0849240020536968
 30
0.0
  0
VERTEX
  5
2155
  8
0
 10
129.5042973435755016
 20
100.1039030014518971
 30
0.0
  0
VERTEX
  5
2156
  8
0
 10
129.5060444404907969
 20
100.1228516429742967
 30
0.0
  0
VERTEX
  5
2157
  8
0
 10
129.5080758337381042
 20
100.1417665294232933
 30
0.0
  0
VERTEX
  5
2158
  8
0
 10
129.5103881814052897
 20
100.1606414671075953
 30
0.0
  0
VERTEX
  5
2159
  8
0
 10
129.5129796645881015
 20
100.1794682814100952
 30
0.0
  0
VERTEX
  5
215A
  8
0
 10
129.515848496632799
 20
100.198238755765999
 30
0.0
  0
VERTEX
  5
215B
  8
0
 10
129.5189928908858974
 20
100.2169446736104987
 30
0.0
  0
VERTEX
  5
215C
  8
0
 10
129.5224110606937984
 20
100.2355778183788004
 30
0.0
  0
VERTEX
  5
215D
  8
0
 10
129.5261012194031878
 20
100.2541299735059965
 30
0.0
  0
VERTEX
  5
215E
  8
0
 10
129.5300615803602113
 20
100.2725929224274068
 30
0.0
  0
VERTEX
  5
215F
  8
0
 10
129.5342903569116118
 20
100.2909584485781949
 30
0.0
  0
VERTEX
  5
2160
  8
0
 10
129.5387857624035917
 20
100.3092183353935951
 30
0.0
  0
VERTEX
  5
2161
  8
0
 10
129.5435460101828085
 20
100.3273643663086006
 30
0.0
  0
VERTEX
  5
2162
  8
0
 10
129.5485693135956922
 20
100.3453883247587015
 30
0.0
  0
VERTEX
  5
2163
  8
0
 10
129.5538533727713002
 20
100.3632821655488954
 30
0.0
  0
VERTEX
  5
2164
  8
0
 10
129.5593925187471029
 20
100.3810389684692979
 30
0.0
  0
VERTEX
  5
2165
  8
0
 10
129.5651797237887877
 20
100.3986522670219017
 30
0.0
  0
VERTEX
  5
2166
  8
0
 10
129.5712079564009116
 20
100.4161155959644987
 30
0.0
  0
VERTEX
  5
2167
  8
0
 10
129.5774701850880035
 20
100.4334224900548946
 30
0.0
  0
VERTEX
  5
2168
  8
0
 10
129.5839593783545922
 20
100.4505664840508956
 30
0.0
  0
VERTEX
  5
2169
  8
0
 10
129.5906685047052065
 20
100.4675411127106059
 30
0.0
  0
VERTEX
  5
216A
  8
0
 10
129.5975905326444035
 20
100.4843399107916042
 30
0.0
  0
VERTEX
  5
216B
  8
0
 10
129.6047184306765132
 20
100.5009564130518953
 30
0.0
  0
VERTEX
  5
216C
  8
0
 10
129.6120451208726081
 20
100.5173841091405933
 30
0.0
  0
VERTEX
  5
216D
  8
0
 10
129.6195627950295943
 20
100.5336157792690983
 30
0.0
  0
VERTEX
  5
216E
  8
0
 10
129.6272630640553984
 20
100.5496436393341071
 30
0.0
  0
VERTEX
  5
216F
  8
0
 10
129.6351375227930873
 20
100.565459889625501
 30
0.0
  0
VERTEX
  5
2170
  8
0
 10
129.6431777660856142
 20
100.5810567304332039
 30
0.0
  0
VERTEX
  5
2171
  8
0
 10
129.65137538877579
 20
100.5964263620472963
 30
0.0
  0
VERTEX
  5
2172
  8
0
 10
129.6597219857067103
 20
100.6115609847574035
 30
0.0
  0
VERTEX
  5
2173
  8
0
 10
129.66820915162711
 20
100.6264527989179953
 30
0.0
  0
VERTEX
  5
2174
  8
0
 10
129.6768276524259136
 20
100.6410945725806982
 30
0.0
  0
VERTEX
  5
2175
  8
0
 10
129.685565406625102
 20
100.6554810239972966
 30
0.0
  0
VERTEX
  5
2176
  8
0
 10
129.6944097217975127
 20
100.6696072898668035
 30
0.0
  0
VERTEX
  5
2177
  8
0
 10
129.7033479055162104
 20
100.6834685068881043
 30
0.0
  0
VERTEX
  5
2178
  8
0
 10
129.7123672653540041
 20
100.6970598117600986
 30
0.0
  0
VERTEX
  5
2179
  8
0
 10
129.7214551088839016
 20
100.7103763411816999
 30
0.0
  0
VERTEX
  5
217A
  8
0
 10
129.730598743678911
 20
100.7234132318518931
 30
0.0
  0
VERTEX
  5
217B
  8
0
 10
129.7397854050531123
 20
100.7361657879835946
 30
0.0
  0
VERTEX
  5
217C
  8
0
 10
129.7490018400164047
 20
100.7486304457998045
 30
0.0
  0
VERTEX
  5
217D
  8
0
 10
129.7582345934162902
 20
100.7608041101862
 30
0.0
  0
VERTEX
  5
217E
  8
0
 10
129.7674702094541885
 20
100.7726836875259977
 30
0.0
  0
VERTEX
  5
217F
  8
0
 10
129.776695232331889
 20
100.7842660842023008
 30
0.0
  0
VERTEX
  5
2180
  8
0
 10
129.7858962062508112
 20
100.7955482065978998
 30
0.0
  0
VERTEX
  5
2181
  8
0
 10
129.7950596754124888
 20
100.8065269610958978
 30
0.0
  0
VERTEX
  5
2182
  8
0
 10
129.8041721840187108
 20
100.8171992540794975
 30
0.0
  0
VERTEX
  5
2183
  8
0
 10
129.8132202762708118
 20
100.8275619919316028
 30
0.0
  0
VERTEX
  5
2184
  8
0
 10
129.8221904490025054
 20
100.8376124609841042
 30
0.0
  0
VERTEX
  5
2185
  8
0
 10
129.8310689575837955
 20
100.8473498844005007
 30
0.0
  0
VERTEX
  5
2186
  8
0
 10
129.8398419806399033
 20
100.8567741009321992
 30
0.0
  0
VERTEX
  5
2187
  8
0
 10
129.8484956967641892
 20
100.8658849495855065
 30
0.0
  0
VERTEX
  5
2188
  8
0
 10
129.8570162845498999
 20
100.8746822693667013
 30
0.0
  0
VERTEX
  5
2189
  8
0
 10
129.8653899225903956
 20
100.8831658992824032
 30
0.0
  0
VERTEX
  5
218A
  8
0
 10
129.8736027894790936
 20
100.8913356783387059
 30
0.0
  0
VERTEX
  5
218B
  8
0
 10
129.8816410638092123
 20
100.8991914455421011
 30
0.0
  0
VERTEX
  5
218C
  8
0
 10
129.8894909252697971
 20
100.906733040546996
 30
0.0
  0
VERTEX
  5
218D
  8
0
 10
129.8971402322488018
 20
100.9139612959007053
 30
0.0
  0
VERTEX
  5
218E
  8
0
 10
129.9045819063090903
 20
100.9208800388446008
 30
0.0
  0
VERTEX
  5
218F
  8
0
 10
129.911809819801789
 20
100.9274936589789036
 30
0.0
  0
VERTEX
  5
2190
  8
0
 10
129.9188178450775126
 20
100.9338065459034937
 30
0.0
  0
VERTEX
  5
2191
  8
0
 10
129.9255998544873023
 20
100.9398230892182937
 30
0.0
  0
VERTEX
  5
2192
  8
0
 10
129.9321497203818012
 20
100.945547678523198
 30
0.0
  0
VERTEX
  5
2193
  8
0
 10
129.9384613151119083
 20
100.9509847034182002
 30
0.0
  0
VERTEX
  5
2194
  8
0
 10
129.9445285110284942
 20
100.956138553503294
 30
0.0
  0
VERTEX
  5
2195
  8
0
 10
129.9503451038486901
 20
100.9610135536092059
 30
0.0
  0
VERTEX
  5
2196
  8
0
 10
129.9558997017390141
 20
100.9656096441545969
 30
0.0
  0
VERTEX
  5
2197
  8
0
 10
129.9611725135100073
 20
100.9699196665939951
 30
0.0
  0
VERTEX
  5
2198
  8
0
 10
129.9661429818395106
 20
100.9739358148617043
 30
0.0
  0
VERTEX
  5
2199
  8
0
 10
129.9707905494049101
 20
100.9776502828922986
 30
0.0
  0
VERTEX
  5
219A
  8
0
 10
129.9750946588841884
 20
100.9810552646200961
 30
0.0
  0
VERTEX
  5
219B
  8
0
 10
129.9790347529547887
 20
100.9841429539797986
 30
0.0
  0
VERTEX
  5
219C
  8
0
 10
129.9825902742944947
 20
100.9869055449055963
 30
0.0
  0
VERTEX
  5
219D
  8
0
 10
129.9857406655812042
 20
100.9893352313322055
 30
0.0
  0
VERTEX
  5
219E
  8
0
 10
129.9884679308310069
 20
100.9914259308150974
 30
0.0
  0
VERTEX
  5
219F
  8
0
 10
129.9907923397294098
 20
100.9931973113141055
 30
0.0
  0
VERTEX
  5
21A0
  8
0
 10
129.9927635885221093
 20
100.9946888430265943
 30
0.0
  0
VERTEX
  5
21A1
  8
0
 10
129.9944321286525906
 20
100.9959405043505001
 30
0.0
  0
VERTEX
  5
21A2
  8
0
 10
129.9958484115647934
 20
100.996992273683901
 30
0.0
  0
VERTEX
  5
21A3
  8
0
 10
129.9970628887022031
 20
100.9978841294249037
 30
0.0
  0
VERTEX
  5
21A4
  8
0
 10
129.9981260115085888
 20
100.9986560499716006
 30
0.0
  0
VERTEX
  5
21A5
  8
0
 10
129.9990882314276064
 20
100.9993480137220985
 30
0.0
  0
VERTEX
  5
21A6
  8
0
 10
129.9999999999029114
 20
100.9999999990746034
 30
0.0
  0
SEQEND
  5
21A7
  8
0
  0
POLYLINE
  5
1531
  8
0
 66
     1
 10
0.0
 20
0.0
 30
0.0
  0
VERTEX
  5
21A8
  8
0
 10
129.9999999999027978
 20
103.4999999990751007
 30
0.0
  0
VERTEX
  5
21A9
  8
0
 10
129.9994806950126929
 20
103.5003884310334996
 30
0.0
  0
VERTEX
  5
21AA
  8
0
 10
129.9988503903580011
 20
103.500861500798095
 30
0.0
  0
VERTEX
  5
21AB
  8
0
 10
129.9979980861737943
 20
103.5015038461751971
 30
0.0
  0
VERTEX
  5
21AC
  8
0
 10
129.9968127826955993
 20
103.5024001049710023
 30
0.0
  0
VERTEX
  5
21AD
  8
0
 10
129.9951854028689127
 20
103.5036335303537953
 30
0.0
  0
VERTEX
  5
21AE
  8
0
 10
129.9930667882559874
 20
103.5052442251607943
 30
0.0
  0
VERTEX
  5
21AF
  8
0
 10
129.9904779844684128
 20
103.5072217348540988
 30
0.0
  0
VERTEX
  5
21B0
  8
0
 10
129.9874440331120127
 20
103.5095527271843991
 30
0.0
  0
VERTEX
  5
21B1
  8
0
 10
129.9839899757924968
 20
103.512223869902698
 30
0.0
  0
VERTEX
  5
21B2
  8
0
 10
129.9801369923480081
 20
103.515225233020999
 30
0.0
  0
VERTEX
  5
21B3
  8
0
 10
129.975884517981001
 20
103.5185660438231992
 30
0.0
  0
VERTEX
  5
21B4
  8
0
 10
129.9712243835307959
 20
103.5222622291240953
 30
0.0
  0
VERTEX
  5
21B5
  8
0
 10
129.9661484118165049
 20
103.5263297228041068
 30
0.0
  0
VERTEX
  5
21B6
  8
0
 10
129.9606485516449936
 20
103.5307844076581034
 30
0.0
  0
VERTEX
  5
21B7
  8
0
 10
129.9547225773185062
 20
103.5356398043777943
 30
0.0
  0
VERTEX
  5
21B8
  8
0
 10
129.9483764159215866
 20
103.5409061278894995
 30
0.0
  0
VERTEX
  5
21B9
  8
0
 10
129.9416166025307859
 20
103.5465933465928998
 30
0.0
  0
VERTEX
  5
21BA
  8
0
 10
129.9344496722223994
 20
103.5527114288876049
 30
0.0
  0
VERTEX
  5
21BB
  8
0
 10
129.9268827607064054
 20
103.5592704877406049
 30
0.0
  0
VERTEX
  5
21BC
  8
0
 10
129.9189261455020983
 20
103.566281392323603
 30
0.0
  0
VERTEX
  5
21BD
  8
0
 10
129.9105911279771135
 20
103.573755258239899
 30
0.0
  0
VERTEX
  5
21BE
  8
0
 10
129.9018890100599037
 20
103.5817032012271994
 30
0.0
  0
VERTEX
  5
21BF
  8
0
 10
129.8928313192774056
 20
103.5901362229845972
 30
0.0
  0
VERTEX
  5
21C0
  8
0
 10
129.8834346583334991
 20
103.5990627597309981
 30
0.0
  0
VERTEX
  5
21C1
  8
0
 10
129.8737206427946091
 20
103.6084887137053983
 30
0.0
  0
VERTEX
  5
21C2
  8
0
 10
129.8637111013619005
 20
103.6184198794077957
 30
0.0
  0
VERTEX
  5
21C3
  8
0
 10
129.8534278660708878
 20
103.6288620476770035
 30
0.0
  0
VERTEX
  5
21C4
  8
0
 10
129.8428948702870116
 20
103.6398187016655044
 30
0.0
  0
VERTEX
  5
21C5
  8
0
 10
129.8321417411117125
 20
103.6512870716511969
 30
0.0
  0
VERTEX
  5
21C6
  8
0
 10
129.8211990606531003
 20
103.6632633391208032
 30
0.0
  0
VERTEX
  5
21C7
  8
0
 10
129.8100974110195125
 20
103.6757436855611019
 30
0.0
  0
VERTEX
  5
21C8
  8
0
 10
129.7988676987264114
 20
103.6887235473596007
 30
0.0
  0
VERTEX
  5
21C9
  8
0
 10
129.7875437042677049
 20
103.7021917599444976
 30
0.0
  0
VERTEX
  5
21CA
  8
0
 10
129.7761607095837917
 20
103.716133710218898
 30
0.0
  0
VERTEX
  5
21CB
  8
0
 10
129.7647540096847081
 20
103.7305347550677936
 30
0.0
  0
VERTEX
  5
21CC
  8
0
 10
129.7533588698277924
 20
103.745380217089803
 30
0.0
  0
VERTEX
  5
21CD
  8
0
 10
129.74200753169319
 20
103.7606519346077931
 30
0.0
  0
VERTEX
  5
21CE
  8
0
 10
129.7307266517678954
 20
103.7763253097420062
 30
0.0
  0
VERTEX
  5
21CF
  8
0
 10
129.7195422831607061
 20
103.7923750492986983
 30
0.0
  0
VERTEX
  5
21D0
  8
0
 10
129.7084804789803059
 20
103.8087758600837986
 30
0.0
  0
VERTEX
  5
21D1
  8
0
 10
129.6975672421964134
 20
103.825502736810904
 30
0.0
  0
VERTEX
  5
21D2
  8
0
 10
129.6868278278975026
 20
103.8425349686278025
 30
0.0
  0
VERTEX
  5
21D3
  8
0
 10
129.6762869166537087
 20
103.8598551436507051
 30
0.0
  0
VERTEX
  5
21D4
  8
0
 10
129.6659691743253973
 20
103.8774459344594021
 30
0.0
  0
VERTEX
  5
21D5
  8
0
 10
129.6558992667729058
 20
103.8952900136335984
 30
0.0
  0
VERTEX
  5
21D6
  8
0
 10
129.6461012873816117
 20
103.9133699406480957
 30
0.0
  0
VERTEX
  5
21D7
  8
0
 10
129.6365892025777953
 20
103.931666274179193
 30
0.0
  0
VERTEX
  5
21D8
  8
0
 10
129.6273682985437858
 20
103.9501578579339025
 30
0.0
  0
VERTEX
  5
21D9
  8
0
 10
129.6184435804865984
 20
103.9688234801065931
 30
0.0
  0
VERTEX
  5
21DA
  8
0
 10
129.6098200536131912
 20
103.9876419288916054
 30
0.0
  0
VERTEX
  5
21DB
  8
0
 10
129.6015027231306078
 20
104.006591992483294
 30
0.0
  0
VERTEX
  5
21DC
  8
0
 10
129.5934966118479963
 20
104.0256525733644963
 30
0.0
  0
VERTEX
  5
21DD
  8
0
 10
129.5858075268909886
 20
104.0448076664853971
 30
0.0
  0
VERTEX
  5
21DE
  8
0
 10
129.5784423562130883
 20
104.0640482844746941
 30
0.0
  0
VERTEX
  5
21DF
  8
0
 10
129.571408066590493
 20
104.0833659517466998
 30
0.0
  0
VERTEX
  5
21E0
  8
0
 10
129.5647116151884859
 20
104.1027521924049069
 30
0.0
  0
VERTEX
  5
21E1
  8
0
 10
129.5583576395032139
 20
104.122198455582506
 30
0.0
  0
VERTEX
  5
21E2
  8
0
 10
129.5523454555871012
 20
104.141696018427794
 30
0.0
  0
VERTEX
  5
21E3
  8
0
 10
129.5466736362888867
 20
104.1612361340690995
 30
0.0
  0
VERTEX
  5
21E4
  8
0
 10
129.541340754457309
 20
104.1808100556345948
 30
0.0
  0
VERTEX
  5
21E5
  8
0
 10
129.5363453266793101
 20
104.2004090511988039
 30
0.0
  0
VERTEX
  5
21E6
  8
0
 10
129.5316850156129078
 20
104.220024615682604
 30
0.0
  0
VERTEX
  5
21E7
  8
0
 10
129.5273568203245986
 20
104.2396484202909051
 30
0.0
  0
VERTEX
  5
21E8
  8
0
 10
129.5233577224466899
 20
104.2592721408598067
 30
0.0
  0
VERTEX
  5
21E9
  8
0
 10
129.5196847036114889
 20
104.2788874532253942
 30
0.0
  0
VERTEX
  5
21EA
  8
0
 10
129.5163347454515019
 20
104.2984860332237957
 30
0.0
  0
VERTEX
  5
21EB
  8
0
 10
129.5133048295988942
 20
104.3180595566911961
 30
0.0
  0
VERTEX
  5
21EC
  8
0
 10
129.5105919376860868
 20
104.3375996994636949
 30
0.0
  0
VERTEX
  5
21ED
  8
0
 10
129.5081930513453869
 20
104.3570981373775055
 30
0.0
  0
VERTEX
  5
21EE
  8
0
 10
129.506105152209301
 20
104.376546546268699
 30
0.0
  0
VERTEX
  5
21EF
  8
0
 10
129.5043252260975919
 20
104.3959366132836948
 30
0.0
  0
VERTEX
  5
21F0
  8
0
 10
129.5028510573023937
 20
104.4152621821236977
 30
0.0
  0
VERTEX
  5
21F1
  8
0
 10
129.5016821696252123
 20
104.4345217946477931
 30
0.0
  0
VERTEX
  5
21F2
  8
0
 10
129.5008183158618067
 20
104.4537146111948971
 30
0.0
  0
VERTEX
  5
21F3
  8
0
 10
129.5002587708621036
 20
104.4728392768821976
 30
0.0
  0
VERTEX
  5
21F4
  8
0
 10
129.499999400923997
 20
104.4918907624356024
 30
0.0
  0
VERTEX
  5
21F5
  8
0
 10
129.5000345917439972
 20
104.5108624425046031
 30
0.0
  0
VERTEX
  5
21F6
  8
0
 10
129.5003586238871947
 20
104.529747797769403
 30
0.0
  0
VERTEX
  5
21F7
  8
0
 10
129.5009626506056861
 20
104.5485438601115931
 30
0.0
  0
VERTEX
  5
21F8
  8
0
 10
129.5018341385274141
 20
104.5672518477371966
 30
0.0
  0
VERTEX
  5
21F9
  8
0
 10
129.5029603467154118
 20
104.585873216828702
 30
0.0
  0
VERTEX
  5
21FA
  8
0
 10
129.5043325595341912
 20
104.6044069611057949
 30
0.0
  0
VERTEX
  5
21FB
  8
0
 10
129.5059535381417959
 20
104.6228450534037933
 30
0.0
  0
VERTEX
  5
21FC
  8
0
 10
129.5078280756750928
 20
104.6411782235023935
 30
0.0
  0
VERTEX
  5
21FD
  8
0
 10
129.5099609652714037
 20
104.6593972011813065
 30
0.0
  0
VERTEX
  5
21FE
  8
0
 10
129.5123570000677091
 20
104.6774927162203994
 30
0.0
  0
VERTEX
  5
21FF
  8
0
 10
129.5150209732011035
 20
104.6954554983994967
 30
0.0
  0
VERTEX
  5
2200
  8
0
 10
129.5179576778087096
 20
104.7132762774983945
 30
0.0
  0
VERTEX
  5
2201
  8
0
 10
129.5211714834597956
 20
104.7309460229174931
 30
0.0
  0
VERTEX
  5
2202
  8
0
 10
129.5246553873743096
 20
104.7484621376206064
 30
0.0
  0
VERTEX
  5
2203
  8
0
 10
129.5283900274318114
 20
104.7658290164952035
 30
0.0
  0
VERTEX
  5
2204
  8
0
 10
129.5323554201171987
 20
104.7830514059643008
 30
0.0
  0
VERTEX
  5
2205
  8
0
 10
129.5365315819151988
 20
104.8001340524507015
 30
0.0
  0
VERTEX
  5
2206
  8
0
 10
129.5408986878858002
 20
104.8170816059993058
 30
0.0
  0
VERTEX
  5
2207
  8
0
 10
129.5454450421518118
 20
104.8338937760252065
 30
0.0
  0
VERTEX
  5
2208
  8
0
 10
129.5501708109154038
 20
104.8505630624842979
 30
0.0
  0
VERTEX
  5
2209
  8
0
 10
129.5550770991430909
 20
104.8670813947763065
 30
0.0
  0
VERTEX
  5
220A
  8
0
 10
129.5601650118011889
 20
104.8834407023009021
 30
0.0
  0
VERTEX
  5
220B
  8
0
 10
129.5654356538560137
 20
104.899632914457797
 30
0.0
  0
VERTEX
  5
220C
  8
0
 10
129.5708901302741083
 20
104.9156499606469026
 30
0.0
  0
VERTEX
  5
220D
  8
0
 10
129.5765295460217885
 20
104.9314837702677039
 30
0.0
  0
VERTEX
  5
220E
  8
0
 10
129.5823550060653986
 20
104.9471262727201974
 30
0.0
  0
VERTEX
  5
220F
  8
0
 10
129.5883668125437111
 20
104.962569945436897
 30
0.0
  0
VERTEX
  5
2210
  8
0
 10
129.5945581062480869
 20
104.9778121543887011
 30
0.0
  0
VERTEX
  5
2211
  8
0
 10
129.6009182656574978
 20
104.9928528338071061
 30
0.0
  0
VERTEX
  5
2212
  8
0
 10
129.6074366358490977
 20
105.007691940725195
 30
0.0
  0
VERTEX
  5
2213
  8
0
 10
129.6141025619000118
 20
105.0223294321753968
 30
0.0
  0
VERTEX
  5
2214
  8
0
 10
129.6209053888873086
 20
105.0367652651906951
 30
0.0
  0
VERTEX
  5
2215
  8
0
 10
129.6278344618879999
 20
105.0509993968038032
 30
0.0
  0
VERTEX
  5
2216
  8
0
 10
129.6348791274675136
 20
105.0650317830863969
 30
0.0
  0
VERTEX
  5
2217
  8
0
 10
129.6420298085035938
 20
105.0788616850962001
 30
0.0
  0
VERTEX
  5
2218
  8
0
 10
129.6492799004905976
 20
105.0924864443643969
 30
0.0
  0
VERTEX
  5
2219
  8
0
 10
129.6566233077855088
 20
105.1059030738308024
 30
0.0
  0
VERTEX
  5
221A
  8
0
 10
129.6640539347451977
 20
105.1191085864356012
 30
0.0
  0
VERTEX
  5
221B
  8
0
 10
129.6715656857267049
 20
105.1320999951186934
 30
0.0
  0
VERTEX
  5
221C
  8
0
 10
129.6791524650869007
 20
105.1448743128200931
 30
0.0
  0
VERTEX
  5
221D
  8
0
 10
129.6868081771825985
 20
105.1574285524798995
 30
0.0
  0
VERTEX
  5
221E
  8
0
 10
129.6945267263710093
 20
105.1697597270380982
 30
0.0
  0
VERTEX
  5
221F
  8
0
 10
129.7023020108993876
 20
105.1818648565466958
 30
0.0
  0
VERTEX
  5
2220
  8
0
 10
129.7101272760041013
 20
105.1937417212339057
 30
0.0
  0
VERTEX
  5
2221
  8
0
 10
129.7179945425953065
 20
105.2053895265773065
 30
0.0
  0
VERTEX
  5
2222
  8
0
 10
129.7258956968572079
 20
105.2168076348895056
 30
0.0
  0
VERTEX
  5
2223
  8
0
 10
129.7338226249742945
 20
105.2279954084832951
 30
0.0
  0
VERTEX
  5
2224
  8
0
 10
129.7417672131309132
 20
105.2389522096714956
 30
0.0
  0
VERTEX
  5
2225
  8
0
 10
129.7497213475114961
 20
105.2496774007668989
 30
0.0
  0
VERTEX
  5
2226
  8
0
 10
129.7576769143003048
 20
105.2601703440821979
 30
0.0
  0
VERTEX
  5
2227
  8
0
 10
129.7656257996819988
 20
105.2704304019301986
 30
0.0
  0
VERTEX
  5
2228
  8
0
 10
129.7735598975102107
 20
105.2804569507904944
 30
0.0
  0
VERTEX
  5
2229
  8
0
 10
129.7814713877673967
 20
105.2902498956525932
 30
0.0
  0
VERTEX
  5
222A
  8
0
 10
129.7893528153109912
 20
105.2998098154714057
 30
0.0
  0
VERTEX
  5
222B
  8
0
 10
129.7971967487100073
 20
105.3091373329995974
 30
0.0
  0
VERTEX
  5
222C
  8
0
 10
129.8049957565337138
 20
105.3182330709900043
 30
0.0
  0
VERTEX
  5
222D
  8
0
 10
129.8127424073510952
 20
105.3270976521954054
 30
0.0
  0
VERTEX
  5
222E
  8
0
 10
129.8204292697313917
 20
105.3357316993686936
 30
0.0
  0
VERTEX
  5
222F
  8
0
 10
129.8280489122435881
 20
105.3441358352625059
 30
0.0
  0
VERTEX
  5
2230
  8
0
 10
129.8355939034570099
 20
105.3523106826297067
 30
0.0
  0
VERTEX
  5
2231
  8
0
 10
129.8430568104012082
 20
105.3602568638784049
 30
0.0
  0
VERTEX
  5
2232
  8
0
 10
129.8504300828132045
 20
105.3679749751513981
 30
0.0
  0
VERTEX
  5
2233
  8
0
 10
129.8577059726285086
 20
105.3754655682981962
 30
0.0
  0
VERTEX
  5
2234
  8
0
 10
129.86487671274989
 20
105.382729190906403
 30
0.0
  0
VERTEX
  5
2235
  8
0
 10
129.8719345360800901
 20
105.3897663905632953
 30
0.0
  0
VERTEX
  5
2236
  8
0
 10
129.8788716755217081
 20
105.3965777148565053
 30
0.0
  0
VERTEX
  5
2237
  8
0
 10
129.8856803639775137
 20
105.4031637113734945
 30
0.0
  0
VERTEX
  5
2238
  8
0
 10
129.8923528343501914
 20
105.4095249277016961
 30
0.0
  0
VERTEX
  5
2239
  8
0
 10
129.8988813195425109
 20
105.4156619114286997
 30
0.0
  0
VERTEX
  5
223A
  8
0
 10
129.9052580524569862
 20
105.4215752101418957
 30
0.0
  0
VERTEX
  5
223B
  8
0
 10
129.9114760321463962
 20
105.4272657163815978
 30
0.0
  0
VERTEX
  5
223C
  8
0
 10
129.917531320538103
 20
105.4327357017226063
 30
0.0
  0
VERTEX
  5
223D
  8
0
 10
129.9234207448471921
 20
105.437987782304404
 30
0.0
  0
VERTEX
  5
223E
  8
0
 10
129.9291411322888905
 20
105.4430245742664027
 30
0.0
  0
VERTEX
  5
223F
  8
0
 10
129.9346893100783973
 20
105.4478486937482984
 30
0.0
  0
VERTEX
  5
2240
  8
0
 10
129.9400621054309966
 20
105.4524627568893038
 30
0.0
  0
VERTEX
  5
2241
  8
0
 10
129.9452563455618872
 20
105.4568693798291008
 30
0.0
  0
VERTEX
  5
2242
  8
0
 10
129.9502688576862965
 20
105.4610711787071011
 30
0.0
  0
VERTEX
  5
2243
  8
0
 10
129.9550964690193098
 20
105.4650707696629013
 30
0.0
  0
VERTEX
  5
2244
  8
0
 10
129.9597351752512111
 20
105.4688701444551953
 30
0.0
  0
VERTEX
  5
2245
  8
0
 10
129.9641726967086868
 20
105.4724650809873054
 30
0.0
  0
VERTEX
  5
2246
  8
0
 10
129.9683920087616968
 20
105.4758477942400958
 30
0.0
  0
VERTEX
  5
2247
  8
0
 10
129.9723760305595022
 20
105.4790104569789975
 30
0.0
  0
VERTEX
  5
2248
  8
0
 10
129.9761076812515057
 20
105.4819452419698962
 30
0.0
  0
VERTEX
  5
2249
  8
0
 10
129.9795698799871104
 20
105.4846443219782941
 30
0.0
  0
VERTEX
  5
224A
  8
0
 10
129.9827455459154919
 20
105.4870998697699065
 30
0.0
  0
VERTEX
  5
224B
  8
0
 10
129.9856175981861099
 20
105.4893040581102071
 30
0.0
  0
VERTEX
  5
224C
  8
0
 10
129.9881689559483959
 20
105.4912490597649963
 30
0.0
  0
VERTEX
  5
224D
  8
0
 10
129.9903850506271965
 20
105.4929287723929008
 30
0.0
  0
VERTEX
  5
224E
  8
0
 10
129.9922832543275888
 20
105.4943590236723026
 30
0.0
  0
VERTEX
  5
224F
  8
0
 10
129.9939029240115929
 20
105.4955707357738959
 30
0.0
  0
VERTEX
  5
2250
  8
0
 10
129.9952838502530881
 20
105.4965951285804948
 30
0.0
  0
VERTEX
  5
2251
  8
0
 10
129.9964658236256128
 20
105.4974634219745013
 30
0.0
  0
VERTEX
  5
2252
  8
0
 10
129.9974886347031884
 20
105.4982068358383032
 30
0.0
  0
VERTEX
  5
2253
  8
0
 10
129.9983920740594101
 20
105.4988565900547002
 30
0.0
  0
VERTEX
  5
2254
  8
0
 10
129.9992159322681005
 20
105.4994439045058954
 30
0.0
  0
VERTEX
  5
2255
  8
0
 10
129.9999999999029114
 20
105.4999999990747028
 30
0.0
  0
SEQEND
  5
2256
  8
0
  0
ENDSEC
  0
EOF
