  0
SECTION
  2
HEADER
  9
$ACADVER
  1
AC1009
  9
$INSBASE
 10
0.0
 20
0.0
 30
0.0
  9
$EXTMIN
 10
0.0
 20
-1.4802182810368341
 30
0.0
  9
$EXTMAX
 10
196.5
 20
166.5000000010743122
 30
0.0
  9
$LIMMIN
 10
0.0
 20
0.0
  9
$LIMMAX
 10
385.0
 20
270.0
  9
$ORTHOMODE
 70
     1
  9
$REGENMODE
 70
     1
  9
$FILLMODE
 70
     1
  9
$QTEXTMODE
 70
     0
  9
$MIRRTEXT
 70
     0
  9
$DRAGMODE
 70
     2
  9
$LTSCALE
 40
10.0
  9
$OSMODE
 70
    37
  9
$ATTMODE
 70
     1
  9
$TEXTSIZE
 40
4.000000000000048
  9
$TRACEWID
 40
0.05
  9
$TEXTSTYLE
  7
STANDARD
  9
$CLAYER
  8
0
  9
$CELTYPE
  6
BYLAYER
  9
$CECOLOR
 62
   256
  9
$DIMSCALE
 40
1.0
  9
$DIMASZ
 40
3.0
  9
$DIMEXO
 40
2.0
  9
$DIMDLI
 40
0.38
  9
$DIMRND
 40
0.0
  9
$DIMDLE
 40
0.0
  9
$DIMEXE
 40
2.0
  9
$DIMTP
 40
0.0
  9
$DIMTM
 40
0.0
  9
$DIMTXT
 40
3.0
  9
$DIMCEN
 40
0.0
  9
$DIMTSZ
 40
0.0
  9
$DIMTOL
 70
     0
  9
$DIMLIM
 70
     0
  9
$DIMTIH
 70
     0
  9
$DIMTOH
 70
     0
  9
$DIMSE1
 70
     0
  9
$DIMSE2
 70
     0
  9
$DIMTAD
 70
     1
  9
$DIMZIN
 70
     0
  9
$DIMBLK
  1

  9
$DIMASO
 70
     1
  9
$DIMSHO
 70
     0
  9
$DIMPOST
  1

  9
$DIMAPOST
  1

  9
$DIMALT
 70
     0
  9
$DIMALTD
 70
     2
  9
$DIMALTF
 40
25.3999999999999986
  9
$DIMLFAC
 40
1.0
  9
$DIMTOFL
 70
     1
  9
$DIMTVP
 40
1.6000000000000001
  9
$DIMTIX
 70
     1
  9
$DIMSOXD
 70
     0
  9
$DIMSAH
 70
     0
  9
$DIMBLK1
  1

  9
$DIMBLK2
  1

  9
$DIMSTYLE
  2
STANDARD
  9
$DIMCLRD
 70
     0
  9
$DIMCLRE
 70
     0
  9
$DIMCLRT
 70
     0
  9
$DIMTFAC
 40
1.0
  9
$DIMGAP
 40
1.0
  9
$LUNITS
 70
     2
  9
$LUPREC
 70
     4
  9
$SKETCHINC
 40
0.1
  9
$FILLETRAD
 40
0.0
  9
$AUNITS
 70
     0
  9
$AUPREC
 70
     4
  9
$MENU
  1
E:\r13\win\SUPPORT\ACAD
  9
$ELEVATION
 40
0.0
  9
$PELEVATION
 40
0.0
  9
$THICKNESS
 40
0.0
  9
$LIMCHECK
 70
     0
  9
$BLIPMODE
 70
     0
  9
$CHAMFERA
 40
0.0
  9
$CHAMFERB
 40
0.0
  9
$SKPOLY
 70
     0
  9
$TDCREATE
 40
2450280.5982060190290213
  9
$TDUPDATE
 40
2460580.5719444439746439
  9
$TDINDWG
 40
0.3276543287
  9
$TDUSRTIMER
 40
0.3276543287
  9
$USRTIMER
 70
     1
  9
$ANGBASE
 50
0.0
  9
$ANGDIR
 70
     0
  9
$PDMODE
 70
     0
  9
$PDSIZE
 40
0.0
  9
$PLINEWID
 40
0.0
  9
$COORDS
 70
     1
  9
$SPLFRAME
 70
     0
  9
$SPLINETYPE
 70
     6
  9
$SPLINESEGS
 70
     8
  9
$ATTDIA
 70
     1
  9
$ATTREQ
 70
     1
  9
$HANDLING
 70
     1
  9
$HANDSEED
  5
2D5D
  9
$SURFTAB1
 70
     6
  9
$SURFTAB2
 70
     6
  9
$SURFTYPE
 70
     6
  9
$SURFU
 70
     6
  9
$SURFV
 70
     6
  9
$UCSNAME
  2

  9
$UCSORG
 10
0.0
 20
0.0
 30
0.0
  9
$UCSXDIR
 10
1.0
 20
0.0
 30
0.0
  9
$UCSYDIR
 10
0.0
 20
1.0
 30
0.0
  9
$PUCSNAME
  2

  9
$PUCSORG
 10
0.0
 20
0.0
 30
0.0
  9
$PUCSXDIR
 10
1.0
 20
0.0
 30
0.0
  9
$PUCSYDIR
 10
0.0
 20
1.0
 30
0.0
  9
$USERI1
 70
     3
  9
$USERI2
 70
     1
  9
$USERI3
 70
     1
  9
$USERI4
 70
     0
  9
$USERI5
 70
     0
  9
$USERR1
 40
1.0
  9
$USERR2
 40
3.0
  9
$USERR3
 40
3.0
  9
$USERR4
 40
3.0
  9
$USERR5
 40
10.0
  9
$WORLDVIEW
 70
     1
  9
$SHADEDGE
 70
     3
  9
$SHADEDIF
 70
    70
  9
$TILEMODE
 70
     1
  9
$MAXACTVP
 70
    16
  9
$PLIMCHECK
 70
     0
  9
$PEXTMIN
 10
1.0000000000000000E+20
 20
1.0000000000000000E+20
 30
1.0000000000000000E+20
  9
$PEXTMAX
 10
-1.0000000000000000E+20
 20
-1.0000000000000000E+20
 30
-1.0000000000000000E+20
  9
$PLIMMIN
 10
0.0
 20
0.0
  9
$PLIMMAX
 10
12.0
 20
9.0
  9
$UNITMODE
 70
     0
  9
$VISRETAIN
 70
     0
  9
$PLINEGEN
 70
     0
  9
$PSLTSCALE
 70
     0
  0
ENDSEC
  0
SECTION
  2
TABLES
  0
TABLE
  2
VPORT
 70
     1
  0
VPORT
  2
*ACTIVE
 70
     0
 10
0.0
 20
0.0
 11
1.0
 21
1.0
 12
199.62438423645321
 22
85.0
 13
0.0
 23
0.0
 14
5.0
 24
5.0
 15
10.0
 25
10.0
 16
0.0
 26
0.0
 36
1.0
 17
0.0
 27
0.0
 37
0.0
 40
170.0
 41
2.3485221674876842
 42
50.0
 43
0.0
 44
0.0
 50
0.0
 51
0.0
 71
     0
 72
   500
 73
     1
 74
     0
 75
     0
 76
     0
 77
     0
 78
     2
  0
ENDTAB
  0
TABLE
  2
LTYPE
 70
     3
  0
LTYPE
  2
CONTINUOUS
 70
     0
  3
Solid Line
 72
    65
 73
     0
 40
0.0
  0
LTYPE
  2
CENTER
 70
     0
  3
____ _ ____ _ ____ _ ____ _ ____ _ ____ _ ____
 72
    65
 73
     4
 40
2.0
 49
1.25
 49
-0.25
 49
0.25
 49
-0.25
  0
LTYPE
  2
HIDDEN
 70
     0
  3
Hidden __ __ __ __ __ __ __ __ __ __ __ __ __ __
 72
    65
 73
     2
 40
1.905
 49
1.27
 49
-0.635
  0
ENDTAB
  0
TABLE
  2
LAYER
 70
     4
  0
LAYER
  2
0
 70
     0
 62
     7
  6
CONTINUOUS
  0
LAYER
  2
1
 70
     0
 62
     1
  6
CENTER
  0
LAYER
  2
3
 70
     0
 62
     3
  6
CONTINUOUS
  0
LAYER
  2
2
 70
     0
 62
     2
  6
HIDDEN
  0
ENDTAB
  0
TABLE
  2
STYLE
 70
     2
  0
STYLE
  2
STANDARD
 70
     0
 40
0.0
 41
1.0
 50
0.0
 71
     0
 42
4.000000000000048
  3
SIMPLEX
  4
BIGFONT
  0
STYLE
  2
STANDARD1
 70
     0
 40
0.0
 41
1.0
 50
0.0
 71
     0
 42
3.0
  3
txt
  4

  0
ENDTAB
  0
TABLE
  2
VIEW
 70
     0
  0
ENDTAB
  0
TABLE
  2
UCS
 70
     0
  0
ENDTAB
  0
TABLE
  2
APPID
 70
     6
  0
APPID
  2
ACAD
 70
     0
  0
APPID
  2
ACAD_MLEADERVER
 70
     0
  0
APPID
  2
ACAD_NAV_VCDISPLAY
 70
     0
  0
APPID
  2
ACAD_EXEMPT_FROM_CAD_STANDARDS
 70
     0
  0
APPID
  2
ACAD_DSTYLE_DIMRADIAL_EXTENSION
 70
     0
  0
APPID
  2
ACAD_TC
 70
     0
  0
ENDTAB
  0
TABLE
  2
DIMSTYLE
 70
     1
  0
DIMSTYLE
  2
STANDARD
 70
     0
  3

  4

  5

  6

  7

 40
1.0
 41
0.18
 42
0.0625
 43
0.38
 44
0.18
 45
0.0
 46
0.0
 47
0.0
 48
0.0
140
0.18
141
0.09
142
0.0
143
25.3999999999999986
144
1.0
145
0.0
146
1.0
147
0.09
 71
     0
 72
     0
 73
     1
 74
     1
 75
     0
 76
     0
 77
     0
 78
     0
170
     0
171
     2
172
     0
173
     0
174
     0
175
     0
176
     0
177
     0
178
     0
  0
ENDTAB
  0
ENDSEC
  0
SECTION
  2
BLOCKS
  0
BLOCK
  8
0
  2
$MODEL_SPACE
 70
     0
 10
0.0
 20
0.0
 30
0.0
  3
$MODEL_SPACE
  1

  0
ENDBLK
  5
175
  8
0
  0
BLOCK
 67
     1
  8
0
  2
$PAPER_SPACE
 70
     0
 10
0.0
 20
0.0
 30
0.0
  3
$PAPER_SPACE
  1

  0
ENDBLK
  5
173
 67
     1
  8
0
  0
ENDSEC
  0
SECTION
  2
ENTITIES
  0
TEXT
  5
2BE
  8
0
 62
     3
 10
0.0
 20
0.0
 30
0.0
 40
5.0
  1
NDX20LW-S-SUS
  7
STANDARD1
  0
LINE
  5
218E
  8
0
 10
89.6552540378430081
 20
82.6708316702727046
 30
0.0
 11
90.866025403784775
 21
84.7679491924332069
 31
0.0
  0
LINE
  5
218F
  8
0
 10
82.3447459621559119
 20
117.3291683297287022
 30
0.0
 11
80.9999999999994884
 21
115.0000000000007958
 31
0.0
  0
LINE
  5
2190
  8
0
 10
81.1339745962158645
 20
84.7679491924307058
 30
0.0
 11
82.3447459621557556
 21
82.6708316702732731
 31
0.0
  0
ARC
  5
2191
  8
0
 10
82.0000000000003411
 20
85.2679491924307058
 30
0.0
 40
1.0
 50
180.0
 51
209.9999999999994884
  0
LINE
  5
2192
  8
0
 10
90.9999999999994884
 20
115.0000000000008953
 30
0.0
 11
89.6552540378432354
 21
117.3291683297285033
 31
0.0
  0
LINE
  5
2193
  8
0
 10
133.6999999999995907
 20
83.5000000000010232
 30
0.0
 11
134.0000000000005969
 21
83.5000000000010232
 31
0.0
  0
LINE
  5
2194
  8
0
 10
134.0000000000005116
 20
116.5000000000008953
 30
0.0
 11
133.6999999999995055
 21
116.5000000000008953
 31
0.0
  0
LINE
  5
2195
  8
0
 10
133.6999999999995055
 20
116.5000000000008953
 30
0.0
 11
124.7119965959025052
 21
109.943912702906303
 31
0.0
  0
LINE
  5
2196
  8
0
 10
124.7119965959025052
 20
90.056087297095587
 30
0.0
 11
133.6999999999995907
 21
83.5000000000010232
 31
0.0
  0
ARC
  5
2197
  8
0
 10
134.0000000000005969
 20
85.9999999999989768
 30
0.0
 40
2.4999999999979758
 50
270.0000000000017053
 51
323.1301023541789732
  0
ARC
  5
2198
  8
0
 10
134.0000000000005116
 20
114.000000000002899
 30
0.0
 40
2.499999999998022
 50
36.8698976458214602
 51
90.0
  0
LINE
  5
2199
  8
0
 10
135.9999999999996021
 20
84.5000000000010232
 30
0.0
 11
140.9999999583984902
 21
84.5000000000010232
 31
0.0
  0
LINE
  5
219A
  8
0
 10
141.000000000000199
 20
115.5000000000009948
 30
0.0
 11
135.9999999999994884
 21
115.5000000000008953
 31
0.0
  0
ARC
  5
219B
  8
0
 10
141.0000000000011937
 20
85.4999999999994316
 30
0.0
 40
0.9999999999984368
 50
269.9999976163422843
 51
0.0000000000911929
  0
ARC
  5
219C
  8
0
 10
141.0000000000009948
 20
114.5000000000026006
 30
0.0
 40
0.9999999999984652
 50
359.9999999999349143
 51
90.0000000000455884
  0
LINE
  5
219D
  8
0
 10
74.7334999999995944
 20
90.0000000000007958
 30
0.0
 11
80.9999999999996447
 21
90.0000000000007958
 31
0.0
  0
LINE
  5
219E
  8
0
 10
90.9999999999996447
 20
90.0000000000008953
 30
0.0
 11
99.9999999999996021
 21
90.0000000000008953
 31
0.0
  0
LINE
  5
219F
  8
0
 10
99.9999999999995026
 20
110.0000000000008953
 30
0.0
 11
90.9999999999996021
 21
110.0000000000008953
 31
0.0
  0
LINE
  5
21A0
  8
0
 10
80.9999999999996021
 20
110.0000000000007958
 30
0.0
 11
74.7334999999995233
 21
110.0000000000007958
 31
0.0
  0
LINE
  5
21A1
  8
0
 10
74.7334999999995233
 20
110.0000000000007958
 30
0.0
 11
71.9999999999994884
 21
108.4665000000008064
 31
0.0
  0
LINE
  5
21A2
  8
0
 10
71.9999999999996021
 20
91.5335000000007852
 30
0.0
 11
74.7334999999995944
 21
90.0000000000007958
 31
0.0
  0
LINE
  5
21A3
  8
0
 10
124.7119965959025052
 20
109.943912702906303
 30
0.0
 11
112.7995126616147985
 21
109.5279195973628958
 31
0.0
  0
LINE
  5
21A4
  8
0
 10
112.7995126616147985
 20
90.4720804026388663
 30
0.0
 11
124.7119965959025052
 21
90.056087297095587
 31
0.0
  0
LINE
  5
21A5
  8
0
 10
112.7995126616147985
 20
109.5279195973628958
 30
0.0
 11
111.9999999999995026
 21
108.7000000000008981
 31
0.0
  0
LINE
  5
21A6
  8
0
 10
111.9999999999996021
 20
91.3000000000009777
 30
0.0
 11
112.799512661614898
 21
90.4720804026388663
 31
0.0
  0
ARC
  5
21A7
  8
0
 10
71.7999999999989882
 20
94.9000000000002046
 30
0.0
 40
0.2000000000005571
 50
0.0000000001302755
 51
89.9999999998452864
  0
ARC
  5
21A8
  8
0
 10
71.7999999999989882
 20
105.1000000000013017
 30
0.0
 40
0.2000000000005571
 50
270.0000000001629132
 51
359.9999999998697149
  0
LINE
  5
21A9
  8
0
 10
64.7999999999995566
 20
105.0000000000007958
 30
0.0
 11
62.7590655579024883
 21
103.8216659504576995
 31
0.0
  0
LINE
  5
21AA
  8
0
 10
62.7590655579024883
 20
96.1783340495437642
 30
0.0
 11
64.7999999999995566
 21
95.0000000000007958
 31
0.0
  0
LINE
  5
21AB
  8
0
 10
64.7999999999995566
 20
95.0000000000007958
 30
0.0
 11
71.4999999999996021
 21
95.0000000000007958
 31
0.0
  0
LINE
  5
21AC
  8
0
 10
71.4999999999995453
 20
105.0000000000007958
 30
0.0
 11
64.7999999999995566
 21
105.0000000000007958
 31
0.0
  0
LINE
  5
21AD
  8
0
 10
71.4999999999996021
 20
95.0000000000007958
 30
0.0
 11
71.6732050807565315
 21
95.1000000000007049
 31
0.0
  0
LINE
  5
21AE
  8
0
 10
71.6732050807565315
 20
104.900000000000702
 30
0.0
 11
71.4999999999995453
 21
105.0000000000007958
 31
0.0
  0
LINE
  5
21AF
  8
0
 10
71.6732050807565315
 20
95.1000000000007049
 30
0.0
 11
71.7999999999995566
 21
95.1000000000007049
 31
0.0
  0
LINE
  5
21B0
  8
0
 10
71.7999999999995566
 20
104.900000000000702
 30
0.0
 11
71.6732050807565315
 21
104.900000000000702
 31
0.0
  0
LINE
  5
21B1
  8
0
 10
100.867010318414799
 20
112.7017059221825974
 30
0.0
 11
99.9999999999995026
 21
111.2000000000007987
 31
0.0
  0
LINE
  5
21B2
  8
0
 10
100.0000000000004974
 20
88.7999999999991445
 30
0.0
 11
100.8670103184142022
 21
87.29829407782006
 31
0.0
  0
ARC
  5
21B3
  8
0
 10
72.000000000015973
 20
100.0000000000007958
 30
0.0
 40
10.0000000000164793
 50
157.5320487331003108
 51
202.4679512669000871
  0
LINE
  5
21B4
  8
0
 10
111.2947430281788002
 20
87.2875715431937351
 30
0.0
 11
111.6999999999995055
 21
88.1566479238479133
 31
0.0
  0
LINE
  5
21B5
  8
0
 10
111.6999999999996049
 20
111.8433520761537068
 30
0.0
 11
111.2997430282000977
 21
112.7017059221598032
 31
0.0
  0
LINE
  5
21B6
  8
0
 10
82.339745944894787
 20
108.6602539780517986
 30
0.0
 11
89.6602540378440835
 21
108.6602540378454052
 31
0.0
  0
LINE
  5
21B7
  8
0
 10
82.339745962155348
 20
91.3397459621563712
 30
0.0
 11
89.6602540472374585
 21
91.3397459702923555
 31
0.0
  0
LINE
  5
21B8
  8
0
 10
82.3397459621559165
 20
117.3205080756901992
 30
0.0
 11
89.6602540378432309
 21
117.3205080756904977
 31
0.0
  0
LINE
  5
21B9
  8
0
 10
82.3397459621557459
 20
82.6794919243118329
 30
0.0
 11
89.6602540378430035
 21
82.6794919243110229
 31
0.0
  0
LINE
  5
21BA
  8
0
 10
81.0000000000003553
 20
85.2679491924307058
 30
0.0
 11
80.9999999999994884
 21
115.0000000000007958
 31
0.0
  0
LINE
  5
21BB
  8
0
 10
91.0000000000003553
 20
85.2679491924332069
 30
0.0
 11
90.9999999999994884
 21
115.0000000000008953
 31
0.0
  0
ARC
  5
21BC
  8
0
 10
90.0000000000003268
 20
85.2679491924332069
 30
0.0
 40
1.0
 50
329.9999999999985789
 51
0.0
  0
LINE
  5
21BD
  8
0
 10
133.6999999999995907
 20
83.5000000000010232
 30
0.0
 11
133.6999999999995055
 21
116.5000000000008953
 31
0.0
  0
LINE
  5
21BE
  8
0
 10
124.7119965959025052
 20
90.056087297095587
 30
0.0
 11
124.7119965959025052
 21
109.943912702906303
 31
0.0
  0
LINE
  5
21BF
  8
0
 10
135.9999999999996021
 20
84.5000000000010232
 30
0.0
 11
135.9999999999994884
 21
115.5000000000008953
 31
0.0
  0
LINE
  5
21C1
  8
0
 10
140.9999998326698858
 20
100.4454211491587046
 30
0.0
 11
140.9999998326698005
 21
104.5545793017709002
 31
0.0
  0
LINE
  5
21C3
  8
0
 10
141.0000000000312923
 20
95.445421149215008
 30
0.0
 11
141.0000000000312923
 21
99.554578850864246
 31
0.0
  0
LINE
  5
21C6
  8
0
 10
141.9999999999994884
 20
96.2642784722474971
 30
0.0
 11
141.9999999999994884
 21
98.7357215496585923
 31
0.0
  0
LINE
  5
21C9
  8
0
 10
141.9999999999994884
 20
101.2642784298565033
 30
0.0
 11
141.9999999999994884
 21
103.7357215496581944
 31
0.0
  0
LINE
  5
21CB
  8
0
 10
141.9999999999996021
 20
85.500000000001009
 30
0.0
 11
141.9999999999994884
 21
93.7357215496589333
 31
0.0
  0
LINE
  5
21CD
  8
0
 10
141.9999999999994884
 20
106.2642777902987063
 30
0.0
 11
141.9999999999994884
 21
114.5000000000015064
 31
0.0
  0
LINE
  5
21CF
  8
0
 10
100.8670103184145006
 20
93.649147038902484
 30
0.0
 11
111.2997430281794067
 21
93.6491470389472624
 31
0.0
  0
LINE
  5
21D0
  8
0
 10
100.8670103184154954
 20
106.3508529610778055
 30
0.0
 11
111.2997430281873932
 21
106.3508529610944038
 31
0.0
  0
LINE
  5
21D1
  8
0
 10
101.2999999999995993
 20
104.0000000000008953
 30
0.0
 11
111.7646545665609068
 21
104.0000000000008953
 31
0.0
  0
LINE
  5
21D2
  8
0
 10
101.2999999999996987
 20
96.0000000000009237
 30
0.0
 11
101.2999999999995993
 21
104.0000000000008953
 31
0.0
  0
LINE
  5
21D3
  8
0
 10
111.7646545671047988
 20
96.0000000000009237
 30
0.0
 11
101.2999999999996987
 21
96.0000000000009237
 31
0.0
  0
LINE
  5
21D4
  8
0
 10
111.7865603707200961
 20
96.0000000000009237
 30
0.0
 11
111.7646545668814042
 21
96.000000000969294
 31
0.0
  0
LINE
  5
21D5
  8
0
 10
111.6999999999995055
 20
88.1566479238479133
 30
0.0
 11
111.6999999999995055
 21
89.586804572384267
 31
0.0
  0
LINE
  5
21D6
  8
0
 10
100.8670103184158933
 20
87.2982940778201737
 30
0.0
 11
111.2997430281787956
 21
87.2982940778208558
 31
0.0
  0
LINE
  5
21D7
  8
0
 10
111.9999999999995026
 20
89.586804572384267
 30
0.0
 11
111.6999999999995055
 21
89.586804572384267
 31
0.0
  0
LINE
  5
21D8
  8
0
 10
111.9999999999995026
 20
110.4131954276175946
 30
0.0
 11
111.9999999999995026
 21
89.586804572384267
 31
0.0
  0
LINE
  5
21D9
  8
0
 10
100.867010318414799
 20
112.7017059221825974
 30
0.0
 11
111.2997430282000977
 21
112.7017059221598032
 31
0.0
  0
LINE
  5
21DA
  8
0
 10
111.6999999999995055
 20
110.4131954276175946
 30
0.0
 11
111.6999999999995055
 21
111.8433520761537068
 31
0.0
  0
LINE
  5
21DB
  8
0
 10
111.6999999999995055
 20
110.4131954276175946
 30
0.0
 11
111.9999999999995026
 21
110.4131954276175946
 31
0.0
  0
LINE
  5
21DC
  8
0
 10
74.7334999999995944
 20
90.0000000000007958
 30
0.0
 11
74.7334999999995233
 21
110.0000000000007958
 31
0.0
  0
LINE
  5
21DD
  8
0
 10
71.9999999999996021
 20
91.5335000000007852
 30
0.0
 11
71.9999999999994884
 21
108.4665000000008064
 31
0.0
  0
LINE
  5
21DE
  8
0
 10
112.7995126616147985
 20
90.4720804026388663
 30
0.0
 11
112.7995126616147985
 21
109.5279195973628958
 31
0.0
  0
LINE
  5
21DF
  8
0
 10
112.772551019841103
 20
96.9434501569653548
 30
0.0
 11
112.772551019841103
 21
103.0565498430340057
 31
0.0
  0
LINE
  5
21E0
  8
0
 10
101.6999999999996049
 20
103.0565498430371036
 30
0.0
 11
101.6999999999996049
 21
96.9434501569645448
 31
0.0
  0
LINE
  5
21E1
  8
0
 10
112.7725510198366976
 20
103.0565498430340057
 30
0.0
 11
101.6999999999996049
 21
103.0565498430371036
 31
0.0
  0
LINE
  5
21E2
  8
0
 10
112.772551019841103
 20
96.9434501569653548
 30
0.0
 11
101.6999999999996049
 21
96.9434501569645448
 31
0.0
  0
LINE
  5
21E3
  8
0
 10
64.7999999999995566
 20
95.0000000000007958
 30
0.0
 11
64.7999999999995566
 21
105.0000000000007958
 31
0.0
  0
LINE
  5
21E4
  8
0
 10
62.7590655579024883
 20
96.1783340495428547
 30
0.0
 11
62.7590655579024883
 21
103.8216659504585948
 31
0.0
  0
LINE
  5
21E5
  8
0
 10
71.4999999999996021
 20
95.0000000000007958
 30
0.0
 11
71.4999999999995453
 21
105.0000000000007958
 31
0.0
  0
LINE
  5
21E6
  8
0
 10
100.0000000000004974
 20
88.7999999999991445
 30
0.0
 11
99.9999999999995026
 21
111.2000000000007987
 31
0.0
  0
LINE
  5
21E7
  8
0
 10
141.0000000000003979
 20
105.4454211491797935
 30
0.0
 11
141.000000000000199
 21
115.5000000000008953
 31
0.0
  0
LINE
  5
21E8
  8
0
 10
140.9999999583984902
 20
84.5000000000010232
 30
0.0
 11
140.9999999583984902
 21
94.5545788509717795
 31
0.0
  0
ARC
  5
21E9
  8
0
 10
134.0000000000007958
 20
36.0000000000068212
 30
0.0
 40
2.4999999999980438
 50
270.0
 51
323.1301023541788027
  0
ARC
  5
21EA
  8
0
 10
134.0000000000009948
 20
64.0000000000108002
 30
0.0
 40
2.4999999999979758
 50
36.8698976458211405
 51
90.0
  0
LINE
  5
21EB
  8
0
 10
133.6999999999997897
 20
33.5000000000088676
 30
0.0
 11
134.0000000000007958
 21
33.5000000000088676
 31
0.0
  0
LINE
  5
21EC
  8
0
 10
134.0000000000009948
 20
66.5000000000087539
 30
0.0
 11
133.6999999999999886
 21
66.5000000000087539
 31
0.0
  0
LINE
  5
21ED
  8
0
 10
133.6999999999999886
 20
66.5000000000087539
 30
0.0
 11
124.7119965959030026
 21
59.9439127029142966
 31
0.0
  0
LINE
  5
21EE
  8
0
 10
124.7119965959028036
 20
40.056087297103538
 30
0.0
 11
133.6999999999997897
 21
33.5000000000088676
 31
0.0
  0
LINE
  5
21EF
  8
0
 10
135.999999999999801
 20
34.5000000000088676
 30
0.0
 11
140.9999999999998863
 21
34.5000000000087468
 31
0.0
  0
ARC
  5
21F0
  8
0
 10
140.9999999999998863
 20
35.500000000008761
 30
0.0
 40
1.0
 50
269.9999999999984084
 51
0.0
  0
LINE
  5
21F1
  8
0
 10
140.9999999999998863
 20
65.5000000000087539
 30
0.0
 11
136.0
 21
65.5000000000087539
 31
0.0
  0
LINE
  5
21F2
  8
0
 10
74.7334999999998786
 20
40.0000000000092086
 30
0.0
 11
80.9999999999998863
 21
40.0000000000090878
 31
0.0
  0
LINE
  5
21F3
  8
0
 10
90.9999999999999432
 20
40.0000000000090878
 30
0.0
 11
99.9999999999998863
 21
40.000000000008967
 31
0.0
  0
LINE
  5
21F4
  8
0
 10
100.0
 20
60.0000000000089813
 30
0.0
 11
91.0000000000000568
 21
60.0000000000090878
 31
0.0
  0
LINE
  5
21F5
  8
0
 10
81.0000000000000568
 20
60.0000000000090878
 30
0.0
 11
74.7335000000000491
 21
60.0000000000092086
 31
0.0
  0
LINE
  5
21F6
  8
0
 10
74.7335000000000491
 20
60.0000000000092086
 30
0.0
 11
72.0
 21
58.4665000000093187
 31
0.0
  0
LINE
  5
21F7
  8
0
 10
71.9999999999998863
 20
41.5335000000092123
 30
0.0
 11
74.7334999999998786
 21
40.0000000000092086
 31
0.0
  0
LINE
  5
21F8
  8
0
 10
124.7119965959030026
 20
59.9439127029142966
 30
0.0
 11
112.7995126616153954
 21
59.5279195973710102
 31
0.0
  0
LINE
  5
21F9
  8
0
 10
112.7995126616151964
 20
40.4720804026469523
 30
0.0
 11
124.7119965959028036
 21
40.056087297103538
 31
0.0
  0
LINE
  5
21FA
  8
0
 10
112.7995126616153954
 20
59.5279195973710102
 30
0.0
 11
112.7725510198456931
 21
59.5000000000089813
 31
0.0
  0
LINE
  5
21FB
  8
0
 10
112.7725510198455936
 20
40.5000000000088676
 30
0.0
 11
112.7995126616151964
 21
40.4720804026469523
 31
0.0
  0
ARC
  5
21FC
  8
0
 10
71.7999999999993861
 20
44.9000000000087311
 30
0.0
 40
0.2000000000005571
 50
0.0000000001302755
 51
89.9999999998371578
  0
ARC
  5
21FD
  8
0
 10
71.7999999999994429
 20
55.1000000000097998
 30
0.0
 40
0.2000000000005571
 50
270.0000000001596163
 51
359.9999999998697149
  0
LINE
  5
21FE
  8
0
 10
64.7999999999998835
 20
45.0000000000092086
 30
0.0
 11
71.4999999999998863
 21
45.0000000000092086
 31
0.0
  0
LINE
  5
21FF
  8
0
 10
71.5
 20
55.0000000000092086
 30
0.0
 11
64.7999999999999545
 21
55.0000000000092086
 31
0.0
  0
LINE
  5
2200
  8
0
 10
64.7999999999999545
 20
55.0000000000092086
 30
0.0
 11
62.7590655579029431
 21
53.8216659504663468
 31
0.0
  0
LINE
  5
2201
  8
0
 10
62.7590655579028933
 20
46.1783340495522907
 30
0.0
 11
64.7999999999998835
 21
45.0000000000092086
 31
0.0
  0
LINE
  5
2202
  8
0
 10
71.4999999999998863
 20
45.0000000000092086
 30
0.0
 11
71.6732050807569294
 21
45.1000000000092314
 31
0.0
  0
LINE
  5
2203
  8
0
 10
71.6732050807569863
 20
54.9000000000092996
 30
0.0
 11
71.5
 21
55.0000000000092086
 31
0.0
  0
LINE
  5
2204
  8
0
 10
71.6732050807569294
 20
45.1000000000092314
 30
0.0
 11
71.7999999999999545
 21
45.1000000000092314
 31
0.0
  0
LINE
  5
2205
  8
0
 10
71.7999999999999545
 20
54.9000000000092996
 30
0.0
 11
71.6732050807569863
 21
54.9000000000092996
 31
0.0
  0
ARC
  5
2206
  8
0
 10
72.0000000000163709
 20
50.0000000000063594
 30
0.0
 40
10.0000000000164295
 50
157.5320487330999981
 51
202.4679512668998882
  0
LINE
  5
2207
  8
0
 10
111.9999999999999005
 20
40.5000000000088676
 30
0.0
 11
112.7725510198414014
 21
40.5000000000088676
 31
0.0
  0
LINE
  5
2208
  8
0
 10
112.7725510198415009
 20
59.5000000000089813
 30
0.0
 11
111.9999999999999005
 21
59.5000000000089813
 31
0.0
  0
LINE
  5
2209
  8
0
 10
126.708444434036906
 20
38.6000000000087766
 30
0.0
 11
112.0899999999999039
 21
38.6000000000088903
 31
0.0
  0
LINE
  5
220A
  8
0
 10
112.0899999999999039
 20
36.2000000000090267
 30
0.0
 11
129.9902561176286895
 21
36.200000000008913
 31
0.0
  0
LINE
  5
220B
  8
0
 10
107.0899999999998045
 20
36.4000000000084967
 30
0.0
 11
112.0899999999999039
 21
36.4000000000084967
 31
0.0
  0
LINE
  5
220C
  8
0
 10
112.0899999999999039
 20
38.4000000000090722
 30
0.0
 11
107.0899999999998045
 21
38.4000000000090722
 31
0.0
  0
LINE
  5
220D
  8
0
 10
107.0899999999998045
 20
37.1500000000088377
 30
0.0
 11
102.0899999999998045
 21
37.1500000000089585
 31
0.0
  0
LINE
  5
220E
  8
0
 10
102.0899999999998045
 20
36.6500000000089585
 30
0.0
 11
107.0899999999998045
 21
36.6500000000089585
 31
0.0
  0
LINE
  5
220F
  8
0
 10
107.0899999999998045
 20
38.1500000000088519
 30
0.0
 11
102.0899999999998045
 21
38.1500000000089585
 31
0.0
  0
LINE
  5
2210
  8
0
 10
102.0899999999998045
 20
37.6500000000089585
 30
0.0
 11
107.0899999999998045
 21
37.6500000000089585
 31
0.0
  0
LINE
  5
2211
  8
0
 10
80.9999999999999432
 20
64.999999997429768
 30
0.0
 11
91.0000000000000568
 21
65.0000000166802465
 31
0.0
  0
LINE
  5
2212
  8
0
 10
82.3397459621561438
 20
50.0000000000092086
 30
0.0
 11
89.6602540378434156
 21
50.0000000000104592
 31
0.0
  0
LINE
  5
2213
  8
0
 10
80.9999999999999432
 20
35.0000000000090878
 30
0.0
 11
91.0000000000000568
 21
35.0000000000090878
 31
0.0
  0
LINE
  5
2214
  8
0
 10
80.9999999999999432
 20
35.0000000000090878
 30
0.0
 11
80.9999999999999432
 21
64.999999997429768
 31
0.0
  0
LINE
  5
2215
  8
0
 10
91.0000000000000568
 20
35.0000000000090878
 30
0.0
 11
91.0000000000000568
 21
65.0000000166802465
 31
0.0
  0
LINE
  5
2216
  8
0
 10
135.9999999999998863
 20
34.5000000000088676
 30
0.0
 11
136.0
 21
65.5000000000087539
 31
0.0
  0
LINE
  5
2217
  8
0
 10
133.6999999999997897
 20
33.5000000000088676
 30
0.0
 11
133.6999999999999886
 21
66.5000000000087539
 31
0.0
  0
LINE
  5
2218
  8
0
 10
124.7119965959029031
 20
40.0560872971036588
 30
0.0
 11
124.7119965959030026
 21
59.9439127029142966
 31
0.0
  0
LINE
  5
2219
  8
0
 10
140.9999999583986892
 20
34.5000000000088676
 30
0.0
 11
140.9999999583988881
 21
65.5000000000087539
 31
0.0
  0
LINE
  5
221A
  8
0
 10
141.9999999999998863
 20
35.500000000008761
 30
0.0
 11
141.9999999999998863
 21
64.5000000000087539
 31
0.0
  0
ARC
  5
221B
  8
0
 10
140.9999999999998863
 20
64.5000000000087539
 30
0.0
 40
1.0
 50
0.0
 51
90.0
  0
LINE
  5
221C
  8
0
 10
99.9999999999998863
 20
38.9999999999911324
 30
0.0
 11
111.7645557827042069
 21
39.0000000000235403
 31
0.0
  0
LINE
  5
221D
  8
0
 10
100.8670103184163054
 20
49.9999999999939675
 30
0.0
 11
111.2997430281791935
 21
49.9999999999949907
 31
0.0
  0
LINE
  5
221E
  8
0
 10
111.6999999999999034
 20
46.0361835497845888
 30
0.0
 11
111.9999999999999005
 21
46.0361835497845888
 31
0.0
  0
LINE
  5
221F
  8
0
 10
111.6999999999999034
 20
46.0361835497845888
 30
0.0
 11
111.6999999999999034
 21
53.9638164502331392
 31
0.0
  0
LINE
  5
2220
  8
0
 10
100.0000000010051053
 20
57.3248287751257521
 30
0.0
 11
100.0000000008792966
 21
53.6751712268979873
 31
0.0
  0
LINE
  5
2221
  8
0
 10
100.0
 20
61.0000000000088605
 30
0.0
 11
111.7645557826976983
 21
61.0000000000088605
 31
0.0
  0
LINE
  5
2222
  8
0
 10
111.9999999999999005
 20
53.9638164502331392
 30
0.0
 11
111.6999999999999034
 21
53.9638164502331392
 31
0.0
  0
LINE
  5
2223
  8
0
 10
74.7334999999999923
 20
40.0000000000092086
 30
0.0
 11
74.7335000000000491
 21
60.0000000000092086
 31
0.0
  0
LINE
  5
2224
  8
0
 10
71.9999999999998863
 20
41.5335000000092123
 30
0.0
 11
72.0
 21
58.4665000000093187
 31
0.0
  0
LINE
  5
2225
  8
0
 10
99.9999999999998863
 20
38.9999999999911324
 30
0.0
 11
100.0
 21
61.0000000000088605
 31
0.0
  0
LINE
  5
2226
  8
0
 10
112.7995126616151964
 20
40.4720804026468386
 30
0.0
 11
112.7995126616152959
 21
59.5279195973710102
 31
0.0
  0
LINE
  5
2227
  8
0
 10
111.9999999999999005
 20
39.5277397260360885
 30
0.0
 11
111.9999999999999005
 21
60.4722602739816395
 31
0.0
  0
LINE
  5
2228
  8
0
 10
112.7725510198415009
 20
58.9948598130933917
 30
0.0
 11
112.7725510198415009
 21
59.5000000000089813
 31
0.0
  0
LINE
  5
2229
  8
0
 10
112.7725510198414014
 20
40.5000000000088676
 30
0.0
 11
112.7725510198414014
 21
41.0051401869247911
 31
0.0
  0
LINE
  5
222A
  8
0
 10
64.7999999999998835
 20
45.0000000000092086
 30
0.0
 11
64.7999999999999545
 21
55.0000000000092086
 31
0.0
  0
LINE
  5
222B
  8
0
 10
71.4999999999998863
 20
45.0000000000092086
 30
0.0
 11
71.5
 21
55.0000000000092086
 31
0.0
  0
LINE
  5
222C
  8
0
 10
62.7590655579028933
 20
50.0000000000093223
 30
0.0
 11
62.7590655579029431
 21
53.8216659504643076
 31
0.0
  0
LINE
  5
222D
  8
0
 10
62.7590655579028933
 20
46.1783340495485319
 30
0.0
 11
62.7590655579028933
 21
50.0000000000093223
 31
0.0
  0
LINE
  5
222E
  8
0
 10
112.7725510198415009
 20
58.9948598130933917
 30
0.0
 11
112.0
 21
58.9948598130933917
 31
0.0
  0
LINE
  5
222F
  8
0
 10
112.7725510198449967
 20
41.0051401869247911
 30
0.0
 11
111.9999999999999005
 21
41.0051401869247911
 31
0.0
  0
LINE
  5
2230
  8
0
 10
112.0899999999999039
 20
38.6000000000088903
 30
0.0
 11
112.0899999999999039
 21
36.2000000000090267
 31
0.0
  0
LINE
  5
2231
  8
0
 10
112.0899999999999039
 20
37.4000000000089585
 30
0.0
 11
107.0899999999998045
 21
37.4000000000089585
 31
0.0
  0
LINE
  5
2232
  8
0
 10
107.0899999999998045
 20
38.4000000000090722
 30
0.0
 11
107.0899999999998045
 21
36.4000000000084967
 31
0.0
  0
LINE
  5
2233
  8
0
 10
102.0899999999998045
 20
38.1500000000089585
 30
0.0
 11
102.0899999999998045
 21
36.6500000000089585
 31
0.0
  0
LINE
  5
2235
  8
0
 10
160.0007116835240879
 20
93.1452728875521956
 30
0.0
 11
159.9999999955950898
 21
91.3397459840207233
 31
0.0
  0
LINE
  5
2237
  8
0
 10
189.9992645227580965
 20
106.794363875267905
 30
0.0
 11
190.0000000036874894
 21
108.6602540195351025
 31
0.0
  0
LINE
  5
2239
  8
0
 10
173.4026555101090139
 20
83.6022706582036648
 30
0.0
 11
174.9999999999984084
 21
82.6794919243106818
 31
0.0
  0
LINE
  5
223A
  8
0
 10
161.5777133997899
 20
109.5706027714707034
 30
0.0
 11
159.999999999999801
 21
108.6602540378454052
 31
0.0
  0
LINE
  5
223B
  8
0
 10
159.999999999999801
 20
108.6602540378454052
 30
0.0
 11
160.0000013077136032
 21
106.796530286830901
 31
0.0
  0
LINE
  5
223C
  8
0
 10
188.3954578696022111
 20
90.413916913198463
 30
0.0
 11
189.9999999999994884
 21
91.339745962156357
 31
0.0
  0
LINE
  5
223D
  8
0
 10
189.9999999999994884
 20
91.339745962156357
 30
0.0
 11
189.9999987114827036
 21
93.176110516262824
 31
0.0
  0
LINE
  5
223E
  8
0
 10
176.6083893783967085
 20
116.3913487593393938
 30
0.0
 11
175.0000000000007105
 21
117.3205080756904977
 31
0.0
  0
ARC
  5
2241
  8
0
 10
175.0
 20
100.0000000000009948
 30
0.0
 40
15.5000000000000107
 50
200.5679200891852929
 51
339.4320803533310027
  0
ARC
  5
2243
  8
0
 10
175.0
 20
100.0000000000009948
 30
0.0
 40
14.5000000000000107
 50
205.5957722758303134
 51
334.4042271213369872
  0
LINE
  5
2245
  8
0
 10
189.0105097874217961
 20
96.2642784503437809
 30
0.0
 11
160.9894901245885137
 21
96.2642784503433262
 31
0.0
  0
LINE
  5
2248
  8
0
 10
161.9229661047853881
 20
93.7357215496586775
 30
0.0
 11
188.0770338293143027
 21
93.7357214120646347
 31
0.0
  0
ARC
  5
224A
  8
0
 10
175.0
 20
100.0000000000009948
 30
0.0
 40
15.5000000000000195
 50
181.6467268252220038
 51
197.0882193193691023
  0
ARC
  5
224C
  8
0
 10
175.0
 20
100.0000000000009948
 30
0.0
 40
14.5000000000002895
 50
185.0020633132058094
 51
194.9298349283268124
  0
LINE
  5
224E
  8
0
 10
160.5552223970042007
 20
98.7357215496585781
 30
0.0
 11
189.4447776029956003
 21
98.7357215496585781
 31
0.0
  0
LINE
  5
2251
  8
0
 10
189.4447776029961119
 20
101.2642784503434967
 30
0.0
 11
160.5552221611420975
 21
101.2642784503432978
 31
0.0
  0
LINE
  5
2255
  8
0
 10
160.9894902125774934
 20
103.7357215496581944
 30
0.0
 11
189.0105097874215971
 21
103.7357215496583933
 31
0.0
  0
LINE
  5
2259
  8
0
 10
188.0770338952146119
 20
106.2642784503432978
 30
0.0
 11
161.9229644107246031
 21
106.2642784503431983
 31
0.0
  0
ARC
  5
225C
  8
0
 10
175.0
 20
100.0000000000009948
 30
0.0
 40
14.50000000000116
 50
165.0701649821010051
 51
174.9979367680568032
  0
ARC
  5
225D
  8
0
 10
175.0
 20
100.0000000000009948
 30
0.0
 40
15.5
 50
162.911778936579509
 51
178.3532731746998081
  0
ARC
  5
225E
  8
0
 10
175.0
 20
100.0000000000009948
 30
0.0
 40
14.5000000000004707
 50
345.0701649821010051
 51
354.997936686794219
  0
ARC
  5
225F
  8
0
 10
175.0
 20
100.0000000000009948
 30
0.0
 40
15.5000000000000107
 50
342.9117806820275973
 51
358.3532731746997797
  0
ARC
  5
2260
  8
0
 10
175.0
 20
100.0000000000009948
 30
0.0
 40
14.5000000000006395
 50
5.0020633132058334
 51
14.9298350179054893
  0
ARC
  5
2261
  8
0
 10
175.0
 20
100.0000000000009948
 30
0.0
 40
15.5
 50
1.646726825326247
 51
17.0882193838622314
  0
ARC
  5
2262
  8
0
 10
175.0
 20
100.0000000000009948
 30
0.0
 40
14.5000000000004796
 50
25.5957722758305799
 51
154.4042306160914961
  0
ARC
  5
2263
  8
0
 10
175.0
 20
100.0000000000009948
 30
0.0
 40
15.4999999999999893
 50
20.5679200891922385
 51
159.4320799102239903
  0
CIRCLE
  5
2264
  8
0
 10
174.9999999999998863
 20
100.0000000000009948
 30
0.0
 40
16.5
  0
CIRCLE
  5
2265
  8
0
 10
24.9999999999999716
 20
100.0000000000006963
 30
0.0
 40
3.8216659504579411
  0
CIRCLE
  5
2266
  8
0
 10
25.0000000000028386
 20
100.0000000000006963
 30
0.0
 40
5.0
  0
CIRCLE
  5
2267
  8
0
 10
25.0000000000027605
 20
100.0000000000006963
 30
0.0
 40
10.0
  0
ARC
  5
2268
  8
0
 10
25.000000000002359
 20
100.0000000000009948
 30
0.0
 40
16.4999999999999609
 50
95.5653689248373865
 51
144.3739803744743142
  0
ARC
  5
2269
  8
0
 10
25.000000000002359
 20
100.0000000000009948
 30
0.0
 40
16.5000000000000284
 50
155.4436398960812937
 51
204.3806954551986905
  0
ARC
  5
226A
  8
0
 10
25.000000000002359
 20
100.0000000000009948
 30
0.0
 40
16.5000000000000391
 50
215.4961420561600107
 51
264.4654942907200734
  0
ARC
  5
226B
  8
0
 10
25.000000000002359
 20
100.0000000000009948
 30
0.0
 40
16.5000000000000817
 50
275.6095916883829204
 51
324.6040916576542941
  0
ARC
  5
226C
  8
0
 10
25.000000000002359
 20
100.0000000000009948
 30
0.0
 40
16.4999999999999893
 50
335.6363235891981844
 51
24.4695063416903089
  0
ARC
  5
226D
  8
0
 10
25.000000000002359
 20
100.0000000000009948
 30
0.0
 40
16.4999999999999787
 50
35.5901600500457107
 51
84.385891932505487
  0
LINE
  5
226E
  8
1
 10
147.0000000009418955
 20
100.0000000000008953
 30
0.0
 11
57.0000000009418386
 21
100.0000000000009948
 31
0.0
  0
LINE
  5
226F
  8
3
 10
97.0000000009419523
 20
108.6470000000009009
 30
0.0
 11
90.9999999999995453
 21
108.6470000000008014
 31
0.0
  0
LINE
  5
2270
  8
3
 10
80.9999999999995453
 20
108.6470000000008014
 30
0.0
 11
72.321745516791168
 21
108.6470000000007019
 31
0.0
  0
LINE
  5
2271
  8
3
 10
97.0000000009419523
 20
91.353000000000975
 30
0.0
 11
90.9999999999996447
 21
91.353000000000975
 31
0.0
  0
LINE
  5
2272
  8
3
 10
80.9999999999995453
 20
91.353000000000975
 30
0.0
 11
72.3217455167907133
 21
91.353000000000975
 31
0.0
  0
LINE
  5
2273
  8
0
 10
97.0000000009419523
 20
110.0000000000008953
 30
0.0
 11
97.0000000009419523
 21
90.0000000000010232
 31
0.0
  0
LINE
  5
2274
  8
3
 10
97.0000000009419523
 20
108.6470000000009009
 30
0.0
 11
99.343464743582615
 21
110.0000000000008953
 31
0.0
  0
LINE
  5
2275
  8
3
 10
97.0000000009419523
 20
91.3530000000010887
 30
0.0
 11
99.343464743582615
 21
90.0000000000011369
 31
0.0
  0
LINE
  5
2276
  8
1
 10
146.9999999999998863
 20
50.0000000010830874
 30
0.0
 11
56.9999999999998792
 21
50.0000000010832082
 31
0.0
  0
LINE
  5
2277
  8
3
 10
97.0
 20
58.6470000010831427
 30
0.0
 11
91.0000000000000568
 21
58.6470000010831427
 31
0.0
  0
LINE
  5
2278
  8
3
 10
80.9999999999999432
 20
58.6470000010831427
 30
0.0
 11
72.3217455187057112
 21
58.6470000010831427
 31
0.0
  0
LINE
  5
2279
  8
3
 10
97.0
 20
41.3530000010831529
 30
0.0
 11
91.0000000000000568
 21
41.3530000010831529
 31
0.0
  0
LINE
  5
227A
  8
3
 10
80.9999999999999432
 20
41.3530000010831529
 30
0.0
 11
72.3217455148770796
 21
41.3530000010831529
 31
0.0
  0
LINE
  5
227B
  8
0
 10
97.0
 20
60.0000000010830874
 30
0.0
 11
97.0
 21
40.0000000010832082
 31
0.0
  0
LINE
  5
227C
  8
3
 10
97.0
 20
58.6470000010831427
 30
0.0
 11
99.3434647426406769
 21
60.0000000010830874
 31
0.0
  0
LINE
  5
227D
  8
3
 10
97.0
 20
41.3530000010832666
 30
0.0
 11
99.3434647426406769
 21
40.0000000010833219
 31
0.0
  0
ARC
  5
227E
  8
0
 10
88.6674683826571055
 20
112.9903810142589009
 30
0.0
 40
7.6674683826575381
 50
154.3842471503710101
 51
214.384246922006497
  0
ARC
  5
227F
  8
0
 10
83.3303318992321778
 20
112.9910616944006989
 30
0.0
 40
7.6696681309536219
 50
325.6208371935019272
 51
25.5547438267528797
  0
ARC
  5
2280
  8
0
 10
109.6602540205828973
 20
99.9999999973301783
 30
0.0
 40
28.6602540205830287
 50
162.4120463348615999
 51
197.5879537793346969
  0
ARC
  5
2281
  8
0
 10
62.3397458926797228
 20
99.9999999892522737
 30
0.0
 40
28.6602541073201387
 50
342.4120463096336948
 51
17.587953752508021
  0
ARC
  5
2282
  8
0
 10
88.669668100770437
 20
87.0089383056006227
 30
0.0
 40
7.6696681309565058
 50
145.6208371935107095
 51
205.5547438267531106
  0
ARC
  5
2283
  8
0
 10
83.3303318640973458
 20
87.0089383165446861
 30
0.0
 40
7.6696681661183082
 50
334.4452560922161979
 51
34.3791626013552332
  0
ARC
  5
2284
  8
0
 10
107.2681997099524978
 20
91.1519383883068031
 30
0.0
 40
7.4716664873417509
 50
193.4018932625828029
 51
208.9512164257619133
  0
ARC
  5
2285
  8
0
 10
107.2667767814564996
 20
89.7960841482208565
 30
0.0
 40
7.4701475501513759
 50
148.9494079876675983
 51
166.5999151498305082
  0
ARC
  5
2286
  8
0
 10
103.6068345135219033
 20
89.9338520151113556
 30
0.0
 40
8.5430824957478322
 50
10.7496155957336192
 51
25.7782490136504592
  0
ARC
  5
2287
  8
0
 10
78.4282843348092342
 20
101.371300201064102
 30
0.0
 40
33.7663211808620574
 50
346.7798090392145127
 51
350.8469229238410776
  0
ARC
  5
2288
  8
0
 10
111.7813640207790939
 20
96.8442035954881248
 30
0.0
 40
0.8443689457154412
 50
268.8660837198465856
 51
285.0068294654489023
  0
ARC
  5
2289
  8
0
 10
124.8824599947758003
 20
100.7660325763311988
 30
0.0
 40
25.0477919767538886
 50
186.5867399866249059
 51
196.5069860944439881
  0
ARC
  5
228A
  8
0
 10
124.8784209304802033
 20
99.2347926212019047
 30
0.0
 40
25.0436849193948916
 50
163.492198427191596
 51
173.4140754850924111
  0
ARC
  5
228B
  8
0
 10
107.2679590730472938
 20
110.204398945826
 30
0.0
 40
7.4714096137200086
 50
193.4015874920580984
 51
211.0490893576325107
  0
ARC
  5
228C
  8
0
 10
103.6150251760892047
 20
110.0634449027322006
 30
0.0
 40
8.5345314687711671
 50
334.2141786042524814
 51
349.2579567503159979
  0
ARC
  5
228D
  8
0
 10
78.5288691331811037
 20
98.6485917446750591
 30
0.0
 40
33.663853072529129
 50
9.1468845936848897
 51
13.2263834346155793
  0
ARC
  5
228E
  8
0
 10
111.7813640206324948
 20
103.1557964033998047
 30
0.0
 40
0.8443689468293101
 50
74.9931705445133474
 51
91.1339162796761144
  0
ARC
  5
228F
  8
0
 10
107.2692846680266001
 20
108.8476182885431029
 30
0.0
 40
7.472824655742345
 50
151.0474051717245914
 51
166.5967283235926004
  0
ARC
  5
2290
  8
0
 10
102.6626589102458951
 20
42.4999999776373372
 30
0.0
 40
21.662658910245959
 50
159.7438420668069909
 51
200.2561578040157997
  0
ARC
  5
2291
  8
0
 10
69.3373412263525211
 20
42.5000000000087468
 30
0.0
 40
21.6626587736475216
 50
339.743841999582628
 51
20.2561580004235893
  0
ARC
  5
2292
  8
0
 10
69.3373411888682085
 20
57.5000000088539309
 30
0.0
 40
21.6626588111318803
 50
339.7438420142610767
 51
20.2561579513142291
  0
ARC
  5
2293
  8
0
 10
102.6626587736477063
 20
57.5000000000093223
 30
0.0
 40
21.66265877364782
 50
159.7438419995825996
 51
200.2561580004233122
  0
ARC
  5
2294
  8
0
 10
119.0076557943757933
 20
54.7805831103564671
 30
0.0
 40
19.1771782265234307
 50
161.0760140561814069
 51
172.3760627983776885
  0
ARC
  5
2295
  8
0
 10
119.0089800639570967
 20
56.2197292984420827
 30
0.0
 40
19.1785322377263512
 50
187.6243373887228927
 51
198.9235857491102024
  0
ARC
  5
2296
  8
0
 10
119.0048871602809015
 20
43.7812362589179429
 30
0.0
 40
19.1743474151635311
 50
161.0751771967526906
 51
172.3768996541697902
  0
ARC
  5
2297
  8
0
 10
119.0089951022320065
 20
45.2197328457801788
 30
0.0
 40
19.1785476136541497
 50
187.6243419308092086
 51
198.9235812073463876
  0
ARC
  5
2298
  8
0
 10
89.0761382489471885
 20
45.1387223736918415
 30
0.0
 40
23.0558565610814412
 50
344.5584994960574932
 51
353.8661544025924854
  0
ARC
  5
2299
  8
0
 10
85.7676922348466064
 20
43.0879537319863104
 30
0.0
 40
26.4511247648263712
 50
11.3667179669371006
 51
15.1480379256208
  0
ARC
  5
229A
  8
0
 10
85.7678923370027633
 20
56.911999133752829
 30
0.0
 40
26.4509192980416508
 50
344.8519473621581142
 51
348.6332966880739832
  0
ARC
  5
229B
  8
0
 10
89.065004326072085
 20
54.8591562020209196
 30
0.0
 40
23.0671534373682405
 50
6.136129762643832
 51
15.4392163168199303
  0
ARC
  5
229C
  8
0
 10
96.7501342307941741
 20
76.4092018450988917
 30
0.0
 40
23.6638362944325102
 50
310.1235214230089241
 51
312.6162336206867849
  0
ARC
  5
229D
  8
0
 10
146.1588861467650986
 20
76.0281932591465051
 30
0.0
 40
37.5342051178203207
 50
203.6023497470640962
 51
204.4844866685866123
  0
ARC
  5
229E
  8
0
 10
146.1588857791244891
 20
23.9718069048916504
 30
0.0
 40
37.5342047152625327
 50
155.5155133266879943
 51
156.397650257647399
  0
ARC
  5
229F
  8
0
 10
96.7501342298150036
 20
23.5907981539234015
 30
0.0
 40
23.6638362958266093
 50
47.3837663791980219
 51
49.8764785767208565
  0
ARC
  5
22A0
  8
0
 10
134.0000000000005969
 20
164.0000000010763017
 30
0.0
 40
2.4999999999980438
 50
36.8698976458212329
 51
90.0
  0
ARC
  5
22A1
  8
0
 10
134.0000000000007958
 20
136.0000000010722943
 30
0.0
 40
2.4999999999979758
 50
270.0
 51
323.1301023541788027
  0
LINE
  5
22A2
  8
0
 10
133.6999999999995907
 20
166.5000000010741985
 30
0.0
 11
134.0000000000005969
 21
166.5000000010741985
 31
0.0
  0
LINE
  5
22A3
  8
0
 10
134.0000000000007958
 20
133.5000000010743122
 30
0.0
 11
133.6999999999997044
 21
133.5000000010743122
 31
0.0
  0
LINE
  5
22A4
  8
0
 10
133.6999999999997044
 20
133.5000000010743122
 30
0.0
 11
124.7119965959028036
 21
140.0560872981689045
 31
0.0
  0
LINE
  5
22A5
  8
0
 10
124.7119965959027041
 20
159.9439127039796062
 30
0.0
 11
133.6999999999995907
 21
166.5000000010741985
 31
0.0
  0
LINE
  5
22A6
  8
0
 10
135.9999999999996021
 20
165.5000000010741985
 30
0.0
 11
140.9999999999996874
 21
165.5000000010743122
 31
0.0
  0
ARC
  5
22A7
  8
0
 10
140.9999999999996874
 20
164.5000000010743122
 30
0.0
 40
1.0
 50
0.0
 51
90.0000000000016058
  0
LINE
  5
22A8
  8
0
 10
140.9999999999996874
 20
134.5000000010743122
 30
0.0
 11
135.999999999999801
 21
134.5000000010743122
 31
0.0
  0
LINE
  5
22A9
  8
0
 10
74.7334999999996512
 20
160.0000000010741132
 30
0.0
 11
80.9999999999997158
 21
160.0000000010741985
 31
0.0
  0
LINE
  5
22AA
  8
0
 10
90.9999999999997158
 20
160.0000000010741132
 30
0.0
 11
99.9999999999997158
 21
160.0000000010741985
 31
0.0
  0
LINE
  5
22AB
  8
0
 10
99.9999999999997868
 20
140.0000000010741985
 30
0.0
 11
90.9999999999998295
 21
140.0000000010741132
 31
0.0
  0
LINE
  5
22AC
  8
0
 10
80.9999999999998295
 20
140.0000000010741985
 30
0.0
 11
74.7334999999997649
 21
140.0000000010741132
 31
0.0
  0
LINE
  5
22AD
  8
0
 10
74.7334999999997649
 20
140.0000000010741132
 30
0.0
 11
71.9999999999997726
 21
141.5335000010740032
 31
0.0
  0
LINE
  5
22AE
  8
0
 10
71.9999999999997158
 20
158.4665000010741096
 30
0.0
 11
74.7334999999996512
 21
160.0000000010741132
 31
0.0
  0
LINE
  5
22AF
  8
0
 10
124.7119965959028036
 20
140.0560872981689045
 30
0.0
 11
112.7995126616150969
 21
140.4720804037121979
 31
0.0
  0
LINE
  5
22B0
  8
0
 10
112.7995126616149975
 20
159.5279195984361991
 30
0.0
 11
124.7119965959027041
 21
159.9439127039796062
 31
0.0
  0
LINE
  5
22B1
  8
0
 10
112.7995126616150969
 20
140.4720804037121979
 30
0.0
 11
112.7725510198454941
 21
140.5000000010741985
 31
0.0
  0
LINE
  5
22B2
  8
0
 10
112.7725510198453946
 20
159.5000000010743122
 30
0.0
 11
112.7995126616149975
 21
159.5279195984361991
 31
0.0
  0
ARC
  5
22B3
  8
0
 10
71.7999999999991587
 20
155.1000000010745907
 30
0.0
 40
0.2000000000005571
 50
270.0000000001629132
 51
359.9999999998697149
  0
ARC
  5
22B4
  8
0
 10
71.7999999999992156
 20
144.9000000010734936
 30
0.0
 40
0.2000000000005571
 50
0.0000000001302755
 51
89.9999999998404121
  0
LINE
  5
22B5
  8
0
 10
64.7999999999996703
 20
155.0000000010741132
 30
0.0
 11
71.4999999999997158
 21
155.0000000010741132
 31
0.0
  0
LINE
  5
22B6
  8
0
 10
71.4999999999997726
 20
145.0000000010741132
 30
0.0
 11
64.799999999999784
 21
145.0000000010741132
 31
0.0
  0
LINE
  5
22B7
  8
0
 10
64.799999999999784
 20
145.0000000010741132
 30
0.0
 11
62.7590655579027086
 21
146.1783340506169111
 31
0.0
  0
LINE
  5
22B8
  8
0
 10
62.7590655579026588
 20
153.8216659515310027
 30
0.0
 11
64.7999999999997129
 21
155.0000000010741132
 31
0.0
  0
LINE
  5
22B9
  8
0
 10
71.4999999999997158
 20
155.0000000010741132
 30
0.0
 11
71.673205080756702
 21
154.9000000010740905
 31
0.0
  0
LINE
  5
22BA
  8
0
 10
71.6732050807567447
 20
145.1000000010739939
 30
0.0
 11
71.4999999999997726
 21
145.0000000010741132
 31
0.0
  0
LINE
  5
22BB
  8
0
 10
71.673205080756702
 20
154.9000000010740905
 30
0.0
 11
71.7999999999997272
 21
154.9000000010740905
 31
0.0
  0
LINE
  5
22BC
  8
0
 10
71.799999999999784
 20
145.1000000010739939
 30
0.0
 11
71.6732050807567447
 21
145.1000000010739939
 31
0.0
  0
ARC
  5
22BD
  8
0
 10
72.0000000000162004
 20
150.0000000010768986
 30
0.0
 40
10.0000000000164295
 50
157.5320487330997992
 51
202.4679512669000871
  0
LINE
  5
22BE
  8
0
 10
111.9999999999997016
 20
159.5000000010743122
 30
0.0
 11
112.7725510198412024
 21
159.5000000010743122
 31
0.0
  0
LINE
  5
22BF
  8
0
 10
112.7725510198412024
 20
140.5000000010741985
 30
0.0
 11
111.9999999999996021
 21
140.5000000010741985
 31
0.0
  0
LINE
  5
22C0
  8
0
 10
126.7084444340367071
 20
161.4000000010744031
 30
0.0
 11
112.089999999999705
 21
161.4000000010742895
 31
0.0
  0
LINE
  5
22C1
  8
0
 10
112.089999999999705
 20
163.8000000010740962
 30
0.0
 11
129.9902561176284905
 21
163.8000000010742951
 31
0.0
  0
LINE
  5
22C2
  8
0
 10
107.089999999999705
 20
163.6000000010747044
 30
0.0
 11
112.089999999999705
 21
163.6000000010747044
 31
0.0
  0
LINE
  5
22C3
  8
0
 10
112.089999999999705
 20
161.6000000010741076
 30
0.0
 11
107.0899999999996055
 21
161.6000000010741076
 31
0.0
  0
LINE
  5
22C4
  8
0
 10
107.0899999999996055
 20
162.8500000010743065
 30
0.0
 11
102.0899999999996055
 21
162.8500000010741928
 31
0.0
  0
LINE
  5
22C5
  8
0
 10
102.0899999999996055
 20
163.3500000010741928
 30
0.0
 11
107.0899999999996055
 21
163.3500000010741928
 31
0.0
  0
LINE
  5
22C6
  8
0
 10
107.0899999999996055
 20
161.8500000010743065
 30
0.0
 11
102.0899999999996055
 21
161.8500000010741928
 31
0.0
  0
LINE
  5
22C7
  8
0
 10
102.0899999999996055
 20
162.3500000010741928
 30
0.0
 11
107.0899999999996055
 21
162.3500000010741928
 31
0.0
  0
LINE
  5
22C8
  8
0
 10
80.9999999999997158
 20
135.0000000036534971
 30
0.0
 11
90.9999999999998295
 21
134.9999999844029048
 31
0.0
  0
LINE
  5
22C9
  8
0
 10
82.3397459621559733
 20
150.0000000010741132
 30
0.0
 11
89.660254037843174
 21
150.0000000010726922
 31
0.0
  0
LINE
  5
22CA
  8
0
 10
80.9999999999997868
 20
165.0000000010741985
 30
0.0
 11
90.9999999999998863
 21
165.0000000010741132
 31
0.0
  0
LINE
  5
22CB
  8
0
 10
80.9999999999997868
 20
165.0000000010741985
 30
0.0
 11
80.9999999999997158
 21
135.0000000036534971
 31
0.0
  0
LINE
  5
22CC
  8
0
 10
90.9999999999998863
 20
165.0000000010741132
 30
0.0
 11
90.9999999999998295
 21
134.9999999844029048
 31
0.0
  0
LINE
  5
22CD
  8
0
 10
135.9999999999996874
 20
165.5000000010741985
 30
0.0
 11
135.999999999999801
 21
134.5000000010743122
 31
0.0
  0
LINE
  5
22CE
  8
0
 10
133.6999999999995907
 20
166.5000000010741985
 30
0.0
 11
133.6999999999997044
 21
133.5000000010743122
 31
0.0
  0
LINE
  5
22CF
  8
0
 10
124.7119965959028036
 20
159.9439127039794926
 30
0.0
 11
124.7119965959028036
 21
140.0560872981689045
 31
0.0
  0
LINE
  5
22D0
  8
0
 10
140.9999999583986039
 20
165.5000000010741985
 30
0.0
 11
140.9999999583986892
 21
134.5000000010743122
 31
0.0
  0
LINE
  5
22D1
  8
0
 10
141.9999999999996874
 20
164.5000000010743122
 30
0.0
 11
141.9999999999996874
 21
135.5000000010743122
 31
0.0
  0
ARC
  5
22D2
  8
0
 10
140.9999999999996874
 20
135.5000000010743122
 30
0.0
 40
1.0
 50
270.0
 51
0.0
  0
LINE
  5
22D3
  8
0
 10
99.9999999999997158
 20
161.0000000010919905
 30
0.0
 11
111.7645557827039937
 21
161.0000000010595897
 31
0.0
  0
LINE
  5
22D4
  8
0
 10
100.8670103184161064
 20
150.0000000010892052
 30
0.0
 11
111.2997430281789946
 21
150.0000000010882104
 31
0.0
  0
LINE
  5
22D5
  8
0
 10
111.6999999999997044
 20
153.9638164512986123
 30
0.0
 11
111.9999999999997016
 21
153.9638164512986123
 31
0.0
  0
LINE
  5
22D6
  8
0
 10
111.6999999999997044
 20
153.9638164512986123
 30
0.0
 11
111.6999999999997044
 21
146.0361835508500121
 31
0.0
  0
LINE
  5
22D7
  8
0
 10
100.0000000010049064
 20
142.6751712259573992
 30
0.0
 11
100.0000000008790977
 21
146.3248287741851925
 31
0.0
  0
LINE
  5
22D8
  8
0
 10
99.9999999999998437
 20
139.0000000010743122
 30
0.0
 11
111.7645557826973999
 21
139.0000000010743122
 31
0.0
  0
LINE
  5
22D9
  8
0
 10
111.9999999999997016
 20
146.0361835508500121
 30
0.0
 11
111.6999999999997044
 21
146.0361835508500121
 31
0.0
  0
LINE
  5
22DA
  8
0
 10
74.7334999999997649
 20
160.0000000010741132
 30
0.0
 11
74.7334999999997649
 21
140.0000000010741132
 31
0.0
  0
LINE
  5
22DB
  8
0
 10
71.9999999999997158
 20
158.4665000010741096
 30
0.0
 11
71.9999999999997726
 21
141.5335000010740032
 31
0.0
  0
LINE
  5
22DC
  8
0
 10
99.9999999999997158
 20
161.0000000010919905
 30
0.0
 11
99.9999999999998437
 21
139.0000000010743122
 31
0.0
  0
LINE
  5
22DD
  8
0
 10
112.7995126616149975
 20
159.5279195984363128
 30
0.0
 11
112.7995126616150969
 21
140.4720804037121979
 31
0.0
  0
LINE
  5
22DE
  8
0
 10
111.9999999999997016
 20
160.4722602750470912
 30
0.0
 11
111.9999999999997016
 21
139.5277397271015047
 31
0.0
  0
LINE
  5
22DF
  8
0
 10
112.7725510198413019
 20
141.0051401879898094
 30
0.0
 11
112.7725510198412024
 21
140.5000000010741985
 31
0.0
  0
LINE
  5
22E0
  8
0
 10
112.7725510198412024
 20
159.5000000010743122
 30
0.0
 11
112.7725510198412024
 21
158.9948598141583886
 31
0.0
  0
LINE
  5
22E1
  8
0
 10
64.7999999999997129
 20
155.0000000010741132
 30
0.0
 11
64.799999999999784
 21
145.0000000010741132
 31
0.0
  0
LINE
  5
22E2
  8
0
 10
71.4999999999997158
 20
155.0000000010741132
 30
0.0
 11
71.4999999999997726
 21
145.0000000010741132
 31
0.0
  0
LINE
  5
22E3
  8
0
 10
62.7590655579027086
 20
150.0000000010739996
 30
0.0
 11
62.7590655579027086
 21
146.1783340506189859
 31
0.0
  0
LINE
  5
22E4
  8
0
 10
62.7590655579026588
 20
153.8216659515348113
 30
0.0
 11
62.7590655579027086
 21
150.0000000010739996
 31
0.0
  0
LINE
  5
22E5
  8
0
 10
112.7725510198413019
 20
141.0051401879898094
 30
0.0
 11
111.999999999999801
 21
141.0051401879898094
 31
0.0
  0
LINE
  5
22E6
  8
0
 10
112.7725510198446983
 20
158.9948598141583886
 30
0.0
 11
111.9999999999997016
 21
158.9948598141583886
 31
0.0
  0
LINE
  5
22E7
  8
0
 10
112.089999999999705
 20
161.4000000010742895
 30
0.0
 11
112.089999999999705
 21
163.8000000010740962
 31
0.0
  0
LINE
  5
22E8
  8
0
 10
112.089999999999705
 20
162.6000000010741928
 30
0.0
 11
107.0899999999996055
 21
162.6000000010741928
 31
0.0
  0
LINE
  5
22E9
  8
0
 10
107.0899999999996055
 20
161.6000000010741076
 30
0.0
 11
107.089999999999705
 21
163.6000000010747044
 31
0.0
  0
LINE
  5
22EA
  8
0
 10
102.0899999999996055
 20
161.8500000010741928
 30
0.0
 11
102.0899999999996055
 21
163.3500000010741928
 31
0.0
  0
LINE
  5
22EB
  8
1
 10
146.9999999999996874
 20
150.0
 30
0.0
 11
56.9999999999996589
 21
150.0000000000001137
 31
0.0
  0
LINE
  5
22EC
  8
3
 10
96.9999999999997158
 20
141.3530000000000086
 30
0.0
 11
90.9999999999998295
 21
141.3530000000000086
 31
0.0
  0
LINE
  5
22ED
  8
3
 10
80.9999999999997158
 20
141.3530000000000939
 30
0.0
 11
72.321745518705427
 21
141.3530000000000939
 31
0.0
  0
LINE
  5
22EE
  8
3
 10
96.9999999999998295
 20
158.6469999999999914
 30
0.0
 11
90.9999999999998295
 21
158.6469999999999914
 31
0.0
  0
LINE
  5
22EF
  8
3
 10
80.9999999999997158
 20
158.647000000000105
 30
0.0
 11
72.3217455148769091
 21
158.647000000000105
 31
0.0
  0
LINE
  5
22F0
  8
0
 10
96.9999999999997158
 20
140.0000000000001137
 30
0.0
 11
96.9999999999998295
 21
160.0
 31
0.0
  0
LINE
  5
22F1
  8
3
 10
96.9999999999997158
 20
141.3530000000000086
 30
0.0
 11
99.3434647426404354
 21
140.0000000000001137
 31
0.0
  0
LINE
  5
22F2
  8
3
 10
96.9999999999997726
 20
158.6469999999999061
 30
0.0
 11
99.3434647426404922
 21
159.9999999999998863
 31
0.0
  0
ARC
  5
22F3
  8
0
 10
102.6626589102456961
 20
157.5000000234458071
 30
0.0
 40
21.662658910245959
 50
159.7438421959780044
 51
200.256157933193407
  0
ARC
  5
22F4
  8
0
 10
69.3373412263522937
 20
157.5000000010745964
 30
0.0
 40
21.6626587736475216
 50
339.7438419995690992
 51
20.2561580004170416
  0
ARC
  5
22F5
  8
0
 10
69.3373411888679811
 20
142.499999992229391
 30
0.0
 40
21.6626588111318803
 50
339.7438420486857922
 51
20.2561579857387208
  0
ARC
  5
22F6
  8
0
 10
102.6626587736474931
 20
142.5000000010738006
 30
0.0
 40
21.66265877364782
 50
159.7438419995829975
 51
200.2561580004170025
  0
ARC
  5
22F7
  8
0
 10
119.0076557943754949
 20
145.2194168907267056
 30
0.0
 40
19.1771782265234307
 50
187.6239372016221978
 51
198.9239859438110898
  0
ARC
  5
22F8
  8
0
 10
119.0089800639568978
 20
143.7802707026411042
 30
0.0
 40
19.1785322377263512
 50
161.0764142508959083
 51
172.3756626112771073
  0
ARC
  5
22F9
  8
0
 10
119.0048871602807026
 20
156.2187637421652937
 30
0.0
 40
19.1743474151635311
 50
187.6231003458364057
 51
198.9248228032471104
  0
ARC
  5
22FA
  8
0
 10
119.0089951022316939
 20
154.7802671553029938
 30
0.0
 40
19.1785476136541497
 50
161.0764187926471038
 51
172.3756580691905924
  0
ARC
  5
22FB
  8
0
 10
89.0761382489469611
 20
154.8612776273913028
 30
0.0
 40
23.0558565610814412
 50
6.1338455974074426
 51
15.4415005039493405
  0
ARC
  5
22FC
  8
0
 10
85.7676922348463648
 20
156.9120462690970044
 30
0.0
 40
26.4511247648263712
 50
344.8519620743788892
 51
348.6332820330629261
  0
ARC
  5
22FD
  8
0
 10
85.7678923370024791
 20
143.0880008673304928
 30
0.0
 40
26.4509192980416508
 50
11.3667033119259493
 51
15.1480526378353204
  0
ARC
  5
22FE
  8
0
 10
89.0650043260717865
 20
145.1408437990623099
 30
0.0
 40
23.0671534373682405
 50
344.5607836831799204
 51
353.8638702373560818
  0
ARC
  5
22FF
  8
0
 10
96.7501342307939041
 20
123.5907981559843023
 30
0.0
 40
23.6638362944325102
 50
47.3837663793197805
 51
49.8764785769848302
  0
ARC
  5
2300
  8
0
 10
146.158886146764786
 20
123.9718067419365042
 30
0.0
 40
37.5342051178203207
 50
155.5155133314204079
 51
156.3976502529417871
  0
ARC
  5
2301
  8
0
 10
146.1588857791242901
 20
176.0281930961913872
 30
0.0
 40
37.5342047152625327
 50
203.602349742352402
 51
204.4844866733176048
  0
ARC
  5
2302
  8
0
 10
96.7501342298148188
 20
176.4092018471598067
 30
0.0
 40
23.6638362958266093
 50
310.1235214232792146
 51
312.616233620797118
  0
LINE
  5
2303
  8
1
 10
25.0
 20
121.5000000000007958
 30
0.0
 11
25.0
 21
78.5000000000007816
 31
0.0
  0
LINE
  5
2304
  8
1
 10
46.5
 20
100.0000000000006963
 30
0.0
 11
3.5
 21
100.0000000000006963
 31
0.0
  0
CIRCLE
  5
2305
  8
3
 10
25.0
 20
100.0000000000006963
 30
0.0
 40
8.6469999999999985
  0
POLYLINE
  5
2306
  8
0
 66
     1
 10
0.0
 20
0.0
 30
0.0
 70
     1
  0
VERTEX
  5
23C5
  8
0
 10
10.0
 20
108.6602540378453057
 30
0.0
  0
VERTEX
  5
23C6
  8
0
 10
10.0
 20
91.3397459621564707
 30
0.0
  0
VERTEX
  5
23C7
  8
0
 10
25.0
 20
82.6794919243121456
 30
0.0
  0
VERTEX
  5
23C8
  8
0
 10
40.0
 20
91.3397459621564707
 30
0.0
  0
VERTEX
  5
23C9
  8
0
 10
40.0
 20
108.6602540378452062
 30
0.0
  0
VERTEX
  5
23CA
  8
0
 10
25.0
 20
117.3205080756896024
 30
0.0
  0
SEQEND
  5
23CB
  8
0
  0
CIRCLE
  5
2307
  8
0
 10
25.0000000000028386
 20
100.0000000000006963
 30
0.0
 40
14.9999999999971596
  0
LINE
  5
2308
  8
1
 10
175.0
 20
121.5000000000009948
 30
0.0
 11
175.0
 21
78.5000000000009948
 31
0.0
  0
LINE
  5
2309
  8
1
 10
196.5
 20
100.0000000000009948
 30
0.0
 11
153.5
 21
100.0000000000009948
 31
0.0
  0
CIRCLE
  5
230A
  8
0
 10
25.0000000000028386
 20
100.0000000000006963
 30
0.0
 40
8.4664999999999964
  0
LINE
  5
230B
  8
2
 10
14.0000000000028404
 20
93.6491470389148333
 30
0.0
 11
25.0000000000028386
 21
87.2982940778290271
 31
0.0
  0
LINE
  5
230C
  8
2
 10
25.0000000000028386
 20
87.2982940778290271
 30
0.0
 11
36.0000000000028422
 21
93.6491470389148333
 31
0.0
  0
LINE
  5
230D
  8
2
 10
36.0000000000028422
 20
93.6491470389148333
 30
0.0
 11
36.0000000000028422
 21
106.3508529610867015
 31
0.0
  0
LINE
  5
230E
  8
2
 10
36.0000000000028422
 20
106.3508529610867015
 30
0.0
 11
25.0000000000028386
 21
112.7017059221724935
 31
0.0
  0
LINE
  5
230F
  8
2
 10
25.0000000000028386
 20
112.7017059221724935
 30
0.0
 11
14.0000000000028404
 21
106.3508529610867015
 31
0.0
  0
LINE
  5
2310
  8
2
 10
14.0000000000028404
 20
106.3508529610867015
 30
0.0
 11
14.0000000000028404
 21
93.6491470389148333
 31
0.0
  0
POLYLINE
  5
2335
  8
0
 66
     1
 10
0.0
 20
0.0
 30
0.0
  0
VERTEX
  5
23CC
  8
0
 10
189.815728511958099
 20
104.5545788674643006
 30
0.0
  0
VERTEX
  5
23CD
  8
0
 10
189.8111615645171923
 20
104.5693406340005964
 30
0.0
  0
VERTEX
  5
23CE
  8
0
 10
189.8065888313109042
 20
104.5841110314497939
 30
0.0
  0
VERTEX
  5
23CF
  8
0
 10
189.8020045265737963
 20
104.5988986907246954
 30
0.0
  0
VERTEX
  5
23D0
  8
0
 10
189.7974028645406861
 20
104.6137122427382025
 30
0.0
  0
VERTEX
  5
23D1
  8
0
 10
189.7927780594461069
 20
104.6285603184031032
 30
0.0
  0
VERTEX
  5
23D2
  8
0
 10
189.788124325524592
 20
104.6434515486321999
 30
0.0
  0
VERTEX
  5
23D3
  8
0
 10
189.7834359099198025
 20
104.6583945070749024
 30
0.0
  0
VERTEX
  5
23D4
  8
0
 10
189.7787097849974032
 20
104.6733930253056997
 30
0.0
  0
VERTEX
  5
23D5
  8
0
 10
189.7739476469542979
 20
104.6884427151071009
 30
0.0
  0
VERTEX
  5
23D6
  8
0
 10
189.7691516629369914
 20
104.7035383687771031
 30
0.0
  0
VERTEX
  5
23D7
  8
0
 10
189.7643240000919036
 20
104.7186747786137033
 30
0.0
  0
VERTEX
  5
23D8
  8
0
 10
189.7594668255655961
 20
104.7338467369148987
 30
0.0
  0
VERTEX
  5
23D9
  8
0
 10
189.7545823065044885
 20
104.7490490359786008
 30
0.0
  0
VERTEX
  5
23DA
  8
0
 10
189.7496724951188867
 20
104.7642766888912007
 30
0.0
  0
VERTEX
  5
23DB
  8
0
 10
189.7447382486635945
 20
104.7795270042092994
 30
0.0
  0
VERTEX
  5
23DC
  8
0
 10
189.73977971559259
 20
104.7947986520719041
 30
0.0
  0
VERTEX
  5
23DD
  8
0
 10
189.7347970350487003
 20
104.8100903205045
 30
0.0
  0
VERTEX
  5
23DE
  8
0
 10
189.7297903461750082
 20
104.8254006975324018
 30
0.0
  0
VERTEX
  5
23DF
  8
0
 10
189.7247597881143975
 20
104.840728471180995
 30
0.0
  0
VERTEX
  5
23E0
  8
0
 10
189.719705500734392
 20
104.8560723284320062
 30
0.0
  0
VERTEX
  5
23E1
  8
0
 10
189.714627810064087
 20
104.8714306881653044
 30
0.0
  0
VERTEX
  5
23E2
  8
0
 10
189.7095274747128997
 20
104.8868013462767976
 30
0.0
  0
VERTEX
  5
23E3
  8
0
 10
189.7044053145878877
 20
104.9021820103837968
 30
0.0
  0
VERTEX
  5
23E4
  8
0
 10
189.6992621495963931
 20
104.9175703881033996
 30
0.0
  0
VERTEX
  5
23E5
  8
0
 10
189.6940987996457864
 20
104.9329641870530025
 30
0.0
  0
VERTEX
  5
23E6
  8
0
 10
189.6889160846430968
 20
104.9483611148497033
 30
0.0
  0
VERTEX
  5
23E7
  8
0
 10
189.6837148180568136
 20
104.9637589062106002
 30
0.0
  0
VERTEX
  5
23E8
  8
0
 10
189.6784957516609893
 20
104.9791555555044056
 30
0.0
  0
VERTEX
  5
23E9
  8
0
 10
189.6732596028984119
 20
104.9945492015920934
 30
0.0
  0
VERTEX
  5
23EA
  8
0
 10
189.6680070888417049
 20
105.0099379848918062
 30
0.0
  0
VERTEX
  5
23EB
  8
0
 10
189.6627389265634065
 20
105.0253200458212035
 30
0.0
  0
VERTEX
  5
23EC
  8
0
 10
189.6574558331363107
 20
105.040693524798499
 30
0.0
  0
VERTEX
  5
23ED
  8
0
 10
189.652158525958896
 20
105.0560565611345964
 30
0.0
  0
VERTEX
  5
23EE
  8
0
 10
189.6468477540202002
 20
105.0714071868730031
 30
0.0
  0
VERTEX
  5
23EF
  8
0
 10
189.6415243238363928
 20
105.0867432387199045
 30
0.0
  0
VERTEX
  5
23F0
  8
0
 10
189.6361890480285126
 20
105.1020625326516011
 30
0.0
  0
VERTEX
  5
23F1
  8
0
 10
189.6308427392175986
 20
105.1173628846441943
 30
0.0
  0
VERTEX
  5
23F2
  8
0
 10
189.6254862100246044
 20
105.1326421106738991
 30
0.0
  0
VERTEX
  5
23F3
  8
0
 10
189.6201202730707109
 20
105.1478980267170016
 30
0.0
  0
VERTEX
  5
23F4
  8
0
 10
189.6147457300303927
 20
105.163128552301302
 30
0.0
  0
VERTEX
  5
23F5
  8
0
 10
189.6093633040493103
 20
105.1783323498255953
 30
0.0
  0
VERTEX
  5
23F6
  8
0
 10
189.6039736839834973
 20
105.1935084060624064
 30
0.0
  0
VERTEX
  5
23F7
  8
0
 10
189.598577558545486
 20
105.2086557091387959
 30
0.0
  0
VERTEX
  5
23F8
  8
0
 10
189.5931756164484057
 20
105.2237732471819953
 30
0.0
  0
VERTEX
  5
23F9
  8
0
 10
189.5877685464047033
 20
105.2388600083193069
 30
0.0
  0
VERTEX
  5
23FA
  8
0
 10
189.5823570385612129
 20
105.2539149627844068
 30
0.0
  0
VERTEX
  5
23FB
  8
0
 10
189.5769418969140077
 20
105.2689356602214019
 30
0.0
  0
VERTEX
  5
23FC
  8
0
 10
189.5715241200992125
 20
105.2839172215906984
 30
0.0
  0
VERTEX
  5
23FD
  8
0
 10
189.5661047258165013
 20
105.2988545299797067
 30
0.0
  0
VERTEX
  5
23FE
  8
0
 10
189.5606847317656047
 20
105.3137424684757946
 30
0.0
  0
VERTEX
  5
23FF
  8
0
 10
189.5552651556465946
 20
105.3285759201665002
 30
0.0
  0
VERTEX
  5
2400
  8
0
 10
189.5498470151590027
 20
105.343349768139106
 30
0.0
  0
VERTEX
  5
2401
  8
0
 10
189.5444312448177016
 20
105.3580597687330993
 30
0.0
  0
VERTEX
  5
2402
  8
0
 10
189.5390179332198102
 20
105.3727105584909935
 30
0.0
  0
VERTEX
  5
2403
  8
0
 10
189.5336066757035098
 20
105.3873119520444988
 30
0.0
  0
VERTEX
  5
2404
  8
0
 10
189.5281970614524027
 20
105.4018738286347059
 30
0.0
  0
VERTEX
  5
2405
  8
0
 10
189.5227886796502901
 20
105.4164060675022938
 30
0.0
  0
VERTEX
  5
2406
  8
0
 10
189.5173811194808025
 20
105.4309185478881972
 30
0.0
  0
VERTEX
  5
2407
  8
0
 10
189.5119739701277126
 20
105.4454211490332938
 30
0.0
  0
SEQEND
  5
2408
  8
0
  0
POLYLINE
  5
2336
  8
0
 66
     1
 10
0.0
 20
0.0
 30
0.0
  0
VERTEX
  5
2409
  8
0
 10
188.0770338952146119
 20
106.2642784503432978
 30
0.0
  0
VERTEX
  5
240A
  8
0
 10
188.0958281099676128
 20
106.2642131880913041
 30
0.0
  0
VERTEX
  5
240B
  8
0
 10
188.1146179470891866
 20
106.2641377375412048
 30
0.0
  0
VERTEX
  5
240C
  8
0
 10
188.1333990289481903
 20
106.2640419103949938
 30
0.0
  0
VERTEX
  5
240D
  8
0
 10
188.1521669779131116
 20
106.2639155183545938
 30
0.0
  0
VERTEX
  5
240E
  8
0
 10
188.1709174163526939
 20
106.2637483731219987
 30
0.0
  0
VERTEX
  5
240F
  8
0
 10
188.1896459669183912
 20
106.2635303435320964
 30
0.0
  0
VERTEX
  5
2410
  8
0
 10
188.2083482703974084
 20
106.2632549616953952
 30
0.0
  0
VERTEX
  5
2411
  8
0
 10
188.2270199963782034
 20
106.262921577392305
 30
0.0
  0
VERTEX
  5
2412
  8
0
 10
188.2456568170094897
 20
106.2625300575268028
 30
0.0
  0
VERTEX
  5
2413
  8
0
 10
188.264254404439896
 20
106.2620802690026949
 30
0.0
  0
VERTEX
  5
2414
  8
0
 10
188.2828084308181076
 20
106.2615720787236029
 30
0.0
  0
VERTEX
  5
2415
  8
0
 10
188.3013145682928098
 20
106.2610053535903063
 30
0.0
  0
VERTEX
  5
2416
  8
0
 10
188.3197685251165012
 20
106.260379499618594
 30
0.0
  0
VERTEX
  5
2417
  8
0
 10
188.3381661456766096
 20
106.2596921849655018
 30
0.0
  0
VERTEX
  5
2418
  8
0
 10
188.3565033064419083
 20
106.2589406682450033
 30
0.0
  0
VERTEX
  5
2419
  8
0
 10
188.3747758838815116
 20
106.2581222080708017
 30
0.0
  0
VERTEX
  5
241A
  8
0
 10
188.3929797544641929
 20
106.2572340630570977
 30
0.0
  0
VERTEX
  5
241B
  8
0
 10
188.4111107946590948
 20
106.2562734918174954
 30
0.0
  0
VERTEX
  5
241C
  8
0
 10
188.4291648830727013
 20
106.2552377549441047
 30
0.0
  0
VERTEX
  5
241D
  8
0
 10
188.4471380009927941
 20
106.2541242080429953
 30
0.0
  0
VERTEX
  5
241E
  8
0
 10
188.4650262756775021
 20
106.252930341791199
 30
0.0
  0
VERTEX
  5
241F
  8
0
 10
188.4828258455175956
 20
106.2516536571670969
 30
0.0
  0
VERTEX
  5
2420
  8
0
 10
188.5005328489037879
 20
106.2502916551488994
 30
0.0
  0
VERTEX
  5
2421
  8
0
 10
188.5181434242267073
 20
106.2488418367152008
 30
0.0
  0
VERTEX
  5
2422
  8
0
 10
188.5356537098772947
 20
106.2473017028441973
 30
0.0
  0
VERTEX
  5
2423
  8
0
 10
188.5530598604470924
 20
106.2456687302463934
 30
0.0
  0
VERTEX
  5
2424
  8
0
 10
188.5703582356271966
 20
106.2439400884088059
 30
0.0
  0
VERTEX
  5
2425
  8
0
 10
188.5875453358509048
 20
106.2421127359969972
 30
0.0
  0
VERTEX
  5
2426
  8
0
 10
188.6046176643064882
 20
106.2401836275498965
 30
0.0
  0
VERTEX
  5
2427
  8
0
 10
188.6215717241817913
 20
106.2381497176065039
 30
0.0
  0
VERTEX
  5
2428
  8
0
 10
188.6384040186651987
 20
106.2360079607060044
 30
0.0
  0
VERTEX
  5
2429
  8
0
 10
188.6551110511452123
 20
106.2337553099981022
 30
0.0
  0
VERTEX
  5
242A
  8
0
 10
188.67168944418151
 20
106.2313878932865947
 30
0.0
  0
VERTEX
  5
242B
  8
0
 10
188.6881361405000064
 20
106.2288996209837961
 30
0.0
  0
VERTEX
  5
242C
  8
0
 10
188.7044481360408099
 20
106.226284034956393
 30
0.0
  0
VERTEX
  5
242D
  8
0
 10
188.7206224267440007
 20
106.2235346770715978
 30
0.0
  0
VERTEX
  5
242E
  8
0
 10
188.7366560085494882
 20
106.2206450891960969
 30
0.0
  0
VERTEX
  5
242F
  8
0
 10
188.752545877613386
 20
106.2176088143846044
 30
0.0
  0
VERTEX
  5
2430
  8
0
 10
188.7682891961163136
 20
106.2144203080960949
 30
0.0
  0
VERTEX
  5
2431
  8
0
 10
188.7838835884757032
 20
106.2110765660570024
 30
0.0
  0
VERTEX
  5
2432
  8
0
 10
188.7993267589151003
 20
106.2075750225764068
 30
0.0
  0
VERTEX
  5
2433
  8
0
 10
188.8146164116581076
 20
106.2039131119637005
 30
0.0
  0
VERTEX
  5
2434
  8
0
 10
188.8297502509281003
 20
106.2000882685280061
 30
0.0
  0
VERTEX
  5
2435
  8
0
 10
188.8447260193462967
 20
106.196097856969601
 30
0.0
  0
VERTEX
  5
2436
  8
0
 10
188.8595417913209076
 20
106.1919386405080985
 30
0.0
  0
VERTEX
  5
2437
  8
0
 10
188.8741958110780956
 20
106.1876070745088043
 30
0.0
  0
VERTEX
  5
2438
  8
0
 10
188.8886863242175025
 20
106.1830996118469983
 30
0.0
  0
VERTEX
  5
2439
  8
0
 10
188.903011576338514
 20
106.1784127053984008
 30
0.0
  0
VERTEX
  5
243A
  8
0
 10
188.9171698276419136
 20
106.1735428177516951
 30
0.0
  0
VERTEX
  5
243B
  8
0
 10
188.9311596837654861
 20
106.1684866412904995
 30
0.0
  0
VERTEX
  5
243C
  8
0
 10
188.9449801012083014
 20
106.1632411018024982
 30
0.0
  0
VERTEX
  5
243D
  8
0
 10
188.9586300521557121
 20
106.1578031355097949
 30
0.0
  0
VERTEX
  5
243E
  8
0
 10
188.9721085087932124
 20
106.1521696786348059
 30
0.0
  0
VERTEX
  5
243F
  8
0
 10
188.9854144454031939
 20
106.146337669612393
 30
0.0
  0
VERTEX
  5
2440
  8
0
 10
188.9985470828924861
 20
106.140304307082701
 30
0.0
  0
VERTEX
  5
2441
  8
0
 10
189.0115061173619893
 20
106.1340672910465059
 30
0.0
  0
VERTEX
  5
2442
  8
0
 10
189.0242912989839965
 20
106.1276243785540032
 30
0.0
  0
VERTEX
  5
2443
  8
0
 10
189.0369023779308009
 20
106.1209733266551041
 30
0.0
  0
VERTEX
  5
2444
  8
0
 10
189.0493391043758038
 20
106.1141118924010982
 30
0.0
  0
VERTEX
  5
2445
  8
0
 10
189.0616013714640076
 20
106.107037999248206
 30
0.0
  0
VERTEX
  5
2446
  8
0
 10
189.073689612973709
 20
106.0997501998967039
 30
0.0
  0
VERTEX
  5
2447
  8
0
 10
189.0856043904506976
 20
106.0922471957558031
 30
0.0
  0
VERTEX
  5
2448
  8
0
 10
189.0973462654405068
 20
106.0845276882347008
 30
0.0
  0
VERTEX
  5
2449
  8
0
 10
189.1089157994890115
 20
106.0765903787424946
 30
0.0
  0
VERTEX
  5
244A
  8
0
 10
189.1203136176278008
 20
106.0684340533279055
 30
0.0
  0
VERTEX
  5
244B
  8
0
 10
189.1315408477445885
 20
106.0600581684491033
 30
0.0
  0
VERTEX
  5
244C
  8
0
 10
189.1425988569876893
 20
106.051462499547398
 30
0.0
  0
VERTEX
  5
244D
  8
0
 10
189.1534890139656113
 20
106.0426468240107027
 30
0.0
  0
VERTEX
  5
244E
  8
0
 10
189.1642126872868062
 20
106.0336109192268026
 30
0.0
  0
VERTEX
  5
244F
  8
0
 10
189.1747712619336141
 20
106.0243545895565944
 30
0.0
  0
VERTEX
  5
2450
  8
0
 10
189.1851664723579063
 20
106.0148782150430975
 30
0.0
  0
VERTEX
  5
2451
  8
0
 10
189.1954003880397011
 20
106.0051827276230938
 30
0.0
  0
VERTEX
  5
2452
  8
0
 10
189.2054750919434127
 20
105.995269081445997
 30
0.0
  0
VERTEX
  5
2453
  8
0
 10
189.2153926670335125
 20
105.985138230661093
 30
0.0
  0
VERTEX
  5
2454
  8
0
 10
189.225155197352592
 20
105.9747911309774935
 30
0.0
  0
VERTEX
  5
2455
  8
0
 10
189.2347649646341097
 20
105.964229023993795
 30
0.0
  0
VERTEX
  5
2456
  8
0
 10
189.2442246773910881
 20
105.9534537684940005
 30
0.0
  0
VERTEX
  5
2457
  8
0
 10
189.2535370997298969
 20
105.9424673036591003
 30
0.0
  0
VERTEX
  5
2458
  8
0
 10
189.2627049957571046
 20
105.9312715686697999
 30
0.0
  0
VERTEX
  5
2459
  8
0
 10
189.2717311295793081
 20
105.9198685027068052
 30
0.0
  0
VERTEX
  5
245A
  8
0
 10
189.2806182794591905
 20
105.9082601837684052
 30
0.0
  0
VERTEX
  5
245B
  8
0
 10
189.2893693152147137
 20
105.8964495876330005
 30
0.0
  0
VERTEX
  5
245C
  8
0
 10
189.2979871430893013
 20
105.8844400472712977
 30
0.0
  0
VERTEX
  5
245D
  8
0
 10
189.3064746694199982
 20
105.872234896568699
 30
0.0
  0
VERTEX
  5
245E
  8
0
 10
189.3148348005439061
 20
105.8598374694104933
 30
0.0
  0
VERTEX
  5
245F
  8
0
 10
189.3230704528392891
 20
105.8472510873719017
 30
0.0
  0
VERTEX
  5
2460
  8
0
 10
189.3311849824387139
 20
105.8344785329161937
 30
0.0
  0
VERTEX
  5
2461
  8
0
 10
189.3391823470691122
 20
105.8215218509886029
 30
0.0
  0
VERTEX
  5
2462
  8
0
 10
189.3470665478662909
 20
105.8083830333173978
 30
0.0
  0
VERTEX
  5
2463
  8
0
 10
189.3548415859663976
 20
105.795064071630506
 30
0.0
  0
VERTEX
  5
2464
  8
0
 10
189.3625114625054948
 20
105.7815669576560964
 30
0.0
  0
VERTEX
  5
2465
  8
0
 10
189.3700801786197019
 20
105.7678936831222956
 30
0.0
  0
VERTEX
  5
2466
  8
0
 10
189.3775517354449107
 20
105.7540462397573009
 30
0.0
  0
VERTEX
  5
2467
  8
0
 10
189.3849301341172122
 20
105.7400266192891962
 30
0.0
  0
VERTEX
  5
2468
  8
0
 10
189.3922193757726973
 20
105.7258368134459943
 30
0.0
  0
VERTEX
  5
2469
  8
0
 10
189.3994234615473999
 20
105.7114788139560062
 30
0.0
  0
VERTEX
  5
246A
  8
0
 10
189.4065463909277014
 20
105.6969546156723965
 30
0.0
  0
VERTEX
  5
246B
  8
0
 10
189.413591824456887
 20
105.6822668556070965
 30
0.0
  0
VERTEX
  5
246C
  8
0
 10
189.4205626716671986
 20
105.6674195936295035
 30
0.0
  0
VERTEX
  5
246D
  8
0
 10
189.4274617412773978
 20
105.6524170806087
 30
0.0
  0
VERTEX
  5
246E
  8
0
 10
189.4342918420067861
 20
105.6372635674134983
 30
0.0
  0
VERTEX
  5
246F
  8
0
 10
189.4410557825742103
 20
105.6219633049129953
 30
0.0
  0
VERTEX
  5
2470
  8
0
 10
189.4477563716988016
 20
105.6065205439762025
 30
0.0
  0
VERTEX
  5
2471
  8
0
 10
189.4543964180994067
 20
105.5909395354720033
 30
0.0
  0
VERTEX
  5
2472
  8
0
 10
189.4609787304952988
 20
105.5752245302694945
 30
0.0
  0
VERTEX
  5
2473
  8
0
 10
189.4675061176052964
 20
105.5593797792376023
 30
0.0
  0
VERTEX
  5
2474
  8
0
 10
189.4739813881485873
 20
105.5434095332452955
 30
0.0
  0
VERTEX
  5
2475
  8
0
 10
189.4804073508441036
 20
105.5273180431615998
 30
0.0
  0
VERTEX
  5
2476
  8
0
 10
189.4867868144108058
 20
105.5111095598553987
 30
0.0
  0
VERTEX
  5
2477
  8
0
 10
189.493123316932099
 20
105.4947904857094017
 30
0.0
  0
VERTEX
  5
2478
  8
0
 10
189.4994257832856022
 20
105.4783831133282064
 30
0.0
  0
VERTEX
  5
2479
  8
0
 10
189.5057055512932038
 20
105.4619168531339994
 30
0.0
  0
VERTEX
  5
247A
  8
0
 10
189.5119739701279116
 20
105.4454211490333932
 30
0.0
  0
SEQEND
  5
247B
  8
0
  0
POLYLINE
  5
2337
  8
0
 66
     1
 10
0.0
 20
0.0
 30
0.0
  0
VERTEX
  5
247C
  8
0
 10
160.4880260299269992
 20
105.4454211491797935
 30
0.0
  0
VERTEX
  5
247D
  8
0
 10
160.4972515056695102
 20
105.4695300750894944
 30
0.0
  0
VERTEX
  5
247E
  8
0
 10
160.5065012522096026
 20
105.4935650682493957
 30
0.0
  0
VERTEX
  5
247F
  8
0
 10
160.5157995403450002
 20
105.5174521959098968
 30
0.0
  0
VERTEX
  5
2480
  8
0
 10
160.5251706408733128
 20
105.541117525320999
 30
0.0
  0
VERTEX
  5
2481
  8
0
 10
160.534638651073891
 20
105.5644881076624984
 30
0.0
  0
VERTEX
  5
2482
  8
0
 10
160.5442209890256891
 20
105.5875288682829023
 30
0.0
  0
VERTEX
  5
2483
  8
0
 10
160.5539264344652963
 20
105.6102537159455039
 30
0.0
  0
VERTEX
  5
2484
  8
0
 10
160.5637631936382093
 20
105.6326798113730945
 30
0.0
  0
VERTEX
  5
2485
  8
0
 10
160.5737395823373106
 20
105.6548231822063997
 30
0.0
  0
VERTEX
  5
2486
  8
0
 10
160.5838658127674137
 20
105.6766802408814954
 30
0.0
  0
VERTEX
  5
2487
  8
0
 10
160.5941537008854141
 20
105.6982308117035956
 30
0.0
  0
VERTEX
  5
2488
  8
0
 10
160.6046151130815929
 20
105.7194541972720003
 30
0.0
  0
VERTEX
  5
2489
  8
0
 10
160.6152616976984859
 20
105.7403317568946051
 30
0.0
  0
VERTEX
  5
248A
  8
0
 10
160.6261043995654063
 20
105.7608514856893009
 30
0.0
  0
VERTEX
  5
248B
  8
0
 10
160.6371540218964071
 20
105.7810027145447975
 30
0.0
  0
VERTEX
  5
248C
  8
0
 10
160.6484214224439029
 20
105.8007747728768067
 30
0.0
  0
VERTEX
  5
248D
  8
0
 10
160.6599180875741979
 20
105.8201569731250942
 30
0.0
  0
VERTEX
  5
248E
  8
0
 10
160.6716559066626928
 20
105.8391386168460002
 30
0.0
  0
VERTEX
  5
248F
  8
0
 10
160.6836467542954097
 20
105.8577090532660065
 30
0.0
  0
VERTEX
  5
2490
  8
0
 10
160.6959011599547864
 20
105.8758606401409992
 30
0.0
  0
VERTEX
  5
2491
  8
0
 10
160.7084275320439133
 20
105.8935904793464999
 30
0.0
  0
VERTEX
  5
2492
  8
0
 10
160.7212340922351927
 20
105.9108960904273999
 30
0.0
  0
VERTEX
  5
2493
  8
0
 10
160.734330588054604
 20
105.9277728755906054
 30
0.0
  0
VERTEX
  5
2494
  8
0
 10
160.7477324295271046
 20
105.9442083795192957
 30
0.0
  0
VERTEX
  5
2495
  8
0
 10
160.7614563399307883
 20
105.9601883245714049
 30
0.0
  0
VERTEX
  5
2496
  8
0
 10
160.7755180943233881
 20
105.9756995474782997
 30
0.0
  0
VERTEX
  5
2497
  8
0
 10
160.7899250709766079
 20
105.9907387530969061
 30
0.0
  0
VERTEX
  5
2498
  8
0
 10
160.8046802630074126
 20
106.0053077998339006
 30
0.0
  0
VERTEX
  5
2499
  8
0
 10
160.8197866254097903
 20
106.0194085908991042
 30
0.0
  0
VERTEX
  5
249A
  8
0
 10
160.8352471131773029
 20
106.0330430295028066
 30
0.0
  0
VERTEX
  5
249B
  8
0
 10
160.8510646813037965
 20
106.0462130188549992
 30
0.0
  0
VERTEX
  5
249C
  8
0
 10
160.8672422847832024
 20
106.0589204621658013
 30
0.0
  0
VERTEX
  5
249D
  8
0
 10
160.8837828786091109
 20
106.0711672626451048
 30
0.0
  0
VERTEX
  5
249E
  8
0
 10
160.90068941777551
 20
106.0829553235031
 30
0.0
  0
VERTEX
  5
249F
  8
0
 10
160.9179648572759902
 20
106.0942865479499062
 30
0.0
  0
VERTEX
  5
24A0
  8
0
 10
160.9356121521043974
 20
106.1051628391955006
 30
0.0
  0
VERTEX
  5
24A1
  8
0
 10
160.9536342572546062
 20
106.115586100449903
 30
0.0
  0
VERTEX
  5
24A2
  8
0
 10
160.972034127720292
 20
106.1255582349233038
 30
0.0
  0
VERTEX
  5
24A3
  8
0
 10
160.9908147184953862
 20
106.1350811458256942
 30
0.0
  0
VERTEX
  5
24A4
  8
0
 10
161.0099782402078006
 20
106.1441575104348942
 30
0.0
  0
VERTEX
  5
24A5
  8
0
 10
161.0295216264347005
 20
106.1527954936452005
 30
0.0
  0
VERTEX
  5
24A6
  8
0
 10
161.0494395305597095
 20
106.1610056315294059
 30
0.0
  0
VERTEX
  5
24A7
  8
0
 10
161.0697265969118064
 20
106.1687984695767
 30
0.0
  0
VERTEX
  5
24A8
  8
0
 10
161.0903774698194866
 20
106.176184553276002
 30
0.0
  0
VERTEX
  5
24A9
  8
0
 10
161.1113867936117003
 20
106.1831744281162031
 30
0.0
  0
VERTEX
  5
24AA
  8
0
 10
161.132749212617199
 20
106.1897786395862937
 30
0.0
  0
VERTEX
  5
24AB
  8
0
 10
161.1544593711649043
 20
106.1960077331754064
 30
0.0
  0
VERTEX
  5
24AC
  8
0
 10
161.1765119135833118
 20
106.2018722543724039
 30
0.0
  0
VERTEX
  5
24AD
  8
0
 10
161.1989014842015138
 20
106.207382748666106
 30
0.0
  0
VERTEX
  5
24AE
  8
0
 10
161.2216227273480058
 20
106.2125497615458016
 30
0.0
  0
VERTEX
  5
24AF
  8
0
 10
161.2446702873519087
 20
106.2173838385002966
 30
0.0
  0
VERTEX
  5
24B0
  8
0
 10
161.2680388085416894
 20
106.2218955250184962
 30
0.0
  0
VERTEX
  5
24B1
  8
0
 10
161.2917229352464119
 20
106.2260953665896039
 30
0.0
  0
VERTEX
  5
24B2
  8
0
 10
161.3157169477298964
 20
106.2299940160933005
 30
0.0
  0
VERTEX
  5
24B3
  8
0
 10
161.3400104286278918
 20
106.2336035121042954
 30
0.0
  0
VERTEX
  5
24B4
  8
0
 10
161.3645896931564891
 20
106.2369368570123953
 30
0.0
  0
VERTEX
  5
24B5
  8
0
 10
161.389440990380308
 20
106.2400070727208004
 30
0.0
  0
VERTEX
  5
24B6
  8
0
 10
161.4145505693639961
 20
106.242827181132597
 30
0.0
  0
VERTEX
  5
24B7
  8
0
 10
161.4399046791720025
 20
106.2454102041509003
 30
0.0
  0
VERTEX
  5
24B8
  8
0
 10
161.4654895688690885
 20
106.2477691636786972
 30
0.0
  0
VERTEX
  5
24B9
  8
0
 10
161.4912914875197885
 20
106.2499170816191025
 30
0.0
  0
VERTEX
  5
24BA
  8
0
 10
161.5172966841888069
 20
106.2518669798753024
 30
0.0
  0
VERTEX
  5
24BB
  8
0
 10
161.5434914079407065
 20
106.2536318803502979
 30
0.0
  0
VERTEX
  5
24BC
  8
0
 10
161.5698619078401066
 20
106.2552248049472041
 30
0.0
  0
VERTEX
  5
24BD
  8
0
 10
161.5963944329517119
 20
106.2566587755690932
 30
0.0
  0
VERTEX
  5
24BE
  8
0
 10
161.6230752323401134
 20
106.2579468141190944
 30
0.0
  0
VERTEX
  5
24BF
  8
0
 10
161.6498905550699021
 20
106.2591019425002941
 30
0.0
  0
VERTEX
  5
24C0
  8
0
 10
161.676826758212087
 20
106.2601367607738041
 30
0.0
  0
VERTEX
  5
24C1
  8
0
 10
161.7038724123048041
 20
106.2610552238332957
 30
0.0
  0
VERTEX
  5
24C2
  8
0
 10
161.7310181606667072
 20
106.2618531908884023
 30
0.0
  0
VERTEX
  5
24C3
  8
0
 10
161.7582547264466086
 20
106.2625262093524015
 30
0.0
  0
VERTEX
  5
24C4
  8
0
 10
161.7855728327940028
 20
106.2630698266384996
 30
0.0
  0
VERTEX
  5
24C5
  8
0
 10
161.8129628178230917
 20
106.2634819128645063
 30
0.0
  0
VERTEX
  5
24C6
  8
0
 10
161.840411683376999
 20
106.2637804640585983
 30
0.0
  0
VERTEX
  5
24C7
  8
0
 10
161.8679047197921079
 20
106.2639938008317984
 30
0.0
  0
VERTEX
  5
24C8
  8
0
 10
161.8954272034480937
 20
106.264150327991004
 30
0.0
  0
VERTEX
  5
24C9
  8
0
 10
161.9229644107246031
 20
106.2642784503431983
 30
0.0
  0
SEQEND
  5
24CA
  8
0
  0
POLYLINE
  5
2338
  8
0
 66
     1
 10
0.0
 20
0.0
 30
0.0
  0
VERTEX
  5
24CB
  8
0
 10
160.4880260299268002
 20
105.4454211491616036
 30
0.0
  0
VERTEX
  5
24CC
  8
0
 10
160.4820052388031968
 20
105.4292600126016026
 30
0.0
  0
VERTEX
  5
24CD
  8
0
 10
160.4759840482549862
 20
105.4130870392469035
 30
0.0
  0
VERTEX
  5
24CE
  8
0
 10
160.4699620588575897
 20
105.3968903923026943
 30
0.0
  0
VERTEX
  5
24CF
  8
0
 10
160.4639388711860022
 20
105.3806582349743053
 30
0.0
  0
VERTEX
  5
24D0
  8
0
 10
160.4579140858159008
 20
105.3643787304669956
 30
0.0
  0
VERTEX
  5
24D1
  8
0
 10
160.451887303322394
 20
105.3480400419859961
 30
0.0
  0
VERTEX
  5
24D2
  8
0
 10
160.4458581278734073
 20
105.3316303700718066
 30
0.0
  0
VERTEX
  5
24D3
  8
0
 10
160.4398266986044064
 20
105.3151434750573969
 30
0.0
  0
VERTEX
  5
24D4
  8
0
 10
160.4337942524907135
 20
105.2985845268658949
 30
0.0
  0
VERTEX
  5
24D5
  8
0
 10
160.4277621612640132
 20
105.281960095909298
 30
0.0
  0
VERTEX
  5
24D6
  8
0
 10
160.4217317966559051
 20
105.2652767525995046
 30
0.0
  0
VERTEX
  5
24D7
  8
0
 10
160.4157045303979885
 20
105.2485410673487962
 30
0.0
  0
VERTEX
  5
24D8
  8
0
 10
160.4096817342220049
 20
105.2317596105690996
 30
0.0
  0
VERTEX
  5
24D9
  8
0
 10
160.4036647670997127
 20
105.2149387866608947
 30
0.0
  0
VERTEX
  5
24DA
  8
0
 10
160.3976547842086973
 20
105.1980823485074978
 30
0.0
  0
VERTEX
  5
24DB
  8
0
 10
160.3916527769883089
 20
105.181191918641602
 30
0.0
  0
VERTEX
  5
24DC
  8
0
 10
160.3856597322501898
 20
105.1642690593856031
 30
0.0
  0
VERTEX
  5
24DD
  8
0
 10
160.3796766368060958
 20
105.1473153330619965
 30
0.0
  0
VERTEX
  5
24DE
  8
0
 10
160.3737044774676122
 20
105.1303323019929934
 30
0.0
  0
VERTEX
  5
24DF
  8
0
 10
160.3677442410466085
 20
105.1133215285029934
 30
0.0
  0
VERTEX
  5
24E0
  8
0
 10
160.3617969266607872
 20
105.0962848134831944
 30
0.0
  0
VERTEX
  5
24E1
  8
0
 10
160.3558635797519116
 20
105.0792248558486932
 30
0.0
  0
VERTEX
  5
24E2
  8
0
 10
160.3499452566593106
 20
105.0621445657788939
 30
0.0
  0
VERTEX
  5
24E3
  8
0
 10
160.3440430137223132
 20
105.0450468534534991
 30
0.0
  0
VERTEX
  5
24E4
  8
0
 10
160.3381579072805039
 20
105.0279346290517992
 30
0.0
  0
VERTEX
  5
24E5
  8
0
 10
160.3322909936730127
 20
105.0108108027533973
 30
0.0
  0
VERTEX
  5
24E6
  8
0
 10
160.3264433311258017
 20
104.9936782861999944
 30
0.0
  0
VERTEX
  5
24E7
  8
0
 10
160.3206160215277123
 20
104.9765400248800944
 30
0.0
  0
VERTEX
  5
24E8
  8
0
 10
160.3148102105841986
 20
104.9593989982478064
 30
0.0
  0
VERTEX
  5
24E9
  8
0
 10
160.3090270459182136
 20
104.9422581872433966
 30
0.0
  0
VERTEX
  5
24EA
  8
0
 10
160.3032676751523127
 20
104.9251205728072023
 30
0.0
  0
VERTEX
  5
24EB
  8
0
 10
160.2975332459091931
 20
104.9079891358795038
 30
0.0
  0
VERTEX
  5
24EC
  8
0
 10
160.2918249058116089
 20
104.8908668574004963
 30
0.0
  0
VERTEX
  5
24ED
  8
0
 10
160.2861436717003016
 20
104.8737565536395948
 30
0.0
  0
VERTEX
  5
24EE
  8
0
 10
160.2804900010391123
 20
104.8566603365395054
 30
0.0
  0
VERTEX
  5
24EF
  8
0
 10
160.2748642017656948
 20
104.8395801297706953
 30
0.0
  0
VERTEX
  5
24F0
  8
0
 10
160.2692665818161117
 20
104.8225178570018983
 30
0.0
  0
VERTEX
  5
24F1
  8
0
 10
160.2636974491267949
 20
104.8054754419020043
 30
0.0
  0
VERTEX
  5
24F2
  8
0
 10
160.2581571116338068
 20
104.7884548081394058
 30
0.0
  0
VERTEX
  5
24F3
  8
0
 10
160.2526459067595965
 20
104.7714579367092966
 30
0.0
  0
VERTEX
  5
24F4
  8
0
 10
160.2471652185423068
 20
104.7544888434101011
 30
0.0
  0
VERTEX
  5
24F5
  8
0
 10
160.2417177356117861
 20
104.7375540803943039
 30
0.0
  0
VERTEX
  5
24F6
  8
0
 10
160.2363062284659918
 20
104.7206603589797993
 30
0.0
  0
VERTEX
  5
24F7
  8
0
 10
160.2309334676025969
 20
104.7038143904843963
 30
0.0
  0
VERTEX
  5
24F8
  8
0
 10
160.2256022235195871
 20
104.6870228862260035
 30
0.0
  0
VERTEX
  5
24F9
  8
0
 10
160.2203152667146924
 20
104.6702925575225009
 30
0.0
  0
VERTEX
  5
24FA
  8
0
 10
160.2150746188866037
 20
104.6536288213351042
 30
0.0
  0
VERTEX
  5
24FB
  8
0
 10
160.2098762155976885
 20
104.6370265742718999
 30
0.0
  0
VERTEX
  5
24FC
  8
0
 10
160.2047130325271098
 20
104.6204755965555933
 30
0.0
  0
VERTEX
  5
24FD
  8
0
 10
160.1995780256310127
 20
104.6039656343166939
 30
0.0
  0
VERTEX
  5
24FE
  8
0
 10
160.1944641508659117
 20
104.5874864336859957
 30
0.0
  0
VERTEX
  5
24FF
  8
0
 10
160.1893643641880089
 20
104.5710277407938946
 30
0.0
  0
VERTEX
  5
2500
  8
0
 10
160.1842716215537052
 20
104.5545793017712981
 30
0.0
  0
SEQEND
  5
2501
  8
0
  0
POLYLINE
  5
2339
  8
0
 66
     1
 10
0.0
 20
0.0
 30
0.0
  0
VERTEX
  5
2502
  8
0
 10
160.9894902125774934
 20
103.7357215496581944
 30
0.0
  0
VERTEX
  5
2503
  8
0
 10
160.9717534656986118
 20
103.7357700335900006
 30
0.0
  0
VERTEX
  5
2504
  8
0
 10
160.9540217059810061
 20
103.7358274882486029
 30
0.0
  0
VERTEX
  5
2505
  8
0
 10
160.9362999205860092
 20
103.7359028843604989
 30
0.0
  0
VERTEX
  5
2506
  8
0
 10
160.918593096674897
 20
103.7360051926524989
 30
0.0
  0
VERTEX
  5
2507
  8
0
 10
160.9009062214090022
 20
103.7361433838512994
 30
0.0
  0
VERTEX
  5
2508
  8
0
 10
160.8832442819494872
 20
103.7363264286835971
 30
0.0
  0
VERTEX
  5
2509
  8
0
 10
160.8656123284577006
 20
103.7365623528625065
 30
0.0
  0
VERTEX
  5
250A
  8
0
 10
160.8480157200424117
 20
103.7368545478131949
 30
0.0
  0
VERTEX
  5
250B
  8
0
 10
160.8304599103637997
 20
103.7372049866625048
 30
0.0
  0
VERTEX
  5
250C
  8
0
 10
160.8129503531066007
 20
103.7376156421752
 30
0.0
  0
VERTEX
  5
250D
  8
0
 10
160.7954925019554082
 20
103.7380884871158031
 30
0.0
  0
VERTEX
  5
250E
  8
0
 10
160.7780918105947876
 20
103.7386254942486943
 30
0.0
  0
VERTEX
  5
250F
  8
0
 10
160.7607537786705052
 20
103.7392288116427039
 30
0.0
  0
VERTEX
  5
2510
  8
0
 10
160.7434842673793014
 20
103.7399019663791933
 30
0.0
  0
VERTEX
  5
2511
  8
0
 10
160.7262893089367992
 20
103.7406491378344953
 30
0.0
  0
VERTEX
  5
2512
  8
0
 10
160.7091749365773126
 20
103.7414745092706028
 30
0.0
  0
VERTEX
  5
2513
  8
0
 10
160.6921471835354964
 20
103.7423822639492954
 30
0.0
  0
VERTEX
  5
2514
  8
0
 10
160.6752120830456079
 20
103.7433765851323955
 30
0.0
  0
VERTEX
  5
2515
  8
0
 10
160.6583756946459971
 20
103.7444616579996932
 30
0.0
  0
VERTEX
  5
2516
  8
0
 10
160.6416444865016047
 20
103.745641697525798
 30
0.0
  0
VERTEX
  5
2517
  8
0
 10
160.6250252492129107
 20
103.7469209421957999
 30
0.0
  0
VERTEX
  5
2518
  8
0
 10
160.6085247821424957
 20
103.7483036311334956
 30
0.0
  0
VERTEX
  5
2519
  8
0
 10
160.5921498846529119
 20
103.7497940034628954
 30
0.0
  0
VERTEX
  5
251A
  8
0
 10
160.5759073561067112
 20
103.7513962983076965
 30
0.0
  0
VERTEX
  5
251B
  8
0
 10
160.5598040052742874
 20
103.7531147632824968
 30
0.0
  0
VERTEX
  5
251C
  8
0
 10
160.5438470037964009
 20
103.7549539734950059
 30
0.0
  0
VERTEX
  5
251D
  8
0
 10
160.5280439930521084
 20
103.7569189279953008
 30
0.0
  0
VERTEX
  5
251E
  8
0
 10
160.5124026456487911
 20
103.7590146540170934
 30
0.0
  0
VERTEX
  5
251F
  8
0
 10
160.4969306341940865
 20
103.7612461787943943
 30
0.0
  0
VERTEX
  5
2520
  8
0
 10
160.4816356312954042
 20
103.7636185295610005
 30
0.0
  0
VERTEX
  5
2521
  8
0
 10
160.4665253115250891
 20
103.7661367348157029
 30
0.0
  0
VERTEX
  5
2522
  8
0
 10
160.4516076033816034
 20
103.7688059865114951
 30
0.0
  0
VERTEX
  5
2523
  8
0
 10
160.4368909374591965
 20
103.7716317998048936
 30
0.0
  0
VERTEX
  5
2524
  8
0
 10
160.4223838033067011
 20
103.7746197278017064
 30
0.0
  0
VERTEX
  5
2525
  8
0
 10
160.408094690472609
 20
103.7777753236078979
 30
0.0
  0
VERTEX
  5
2526
  8
0
 10
160.39403208850581
 20
103.7811041403294041
 30
0.0
  0
VERTEX
  5
2527
  8
0
 10
160.380204487114213
 20
103.7846117311250964
 30
0.0
  0
VERTEX
  5
2528
  8
0
 10
160.3666204694833084
 20
103.7883036803392969
 30
0.0
  0
VERTEX
  5
2529
  8
0
 10
160.3532888695010001
 20
103.792185655953304
 30
0.0
  0
VERTEX
  5
252A
  8
0
 10
160.3402185626461005
 20
103.7962633398233976
 30
0.0
  0
VERTEX
  5
252B
  8
0
 10
160.3274184243975071
 20
103.8005424138058999
 30
0.0
  0
VERTEX
  5
252C
  8
0
 10
160.3148973302338902
 20
103.8050285597573037
 30
0.0
  0
VERTEX
  5
252D
  8
0
 10
160.3026641555800893
 20
103.8097274594678936
 30
0.0
  0
VERTEX
  5
252E
  8
0
 10
160.2907276362950029
 20
103.8146446234389941
 30
0.0
  0
VERTEX
  5
252F
  8
0
 10
160.2790960664532918
 20
103.8197850199723007
 30
0.0
  0
VERTEX
  5
2530
  8
0
 10
160.2677776529239111
 20
103.8251535103423038
 30
0.0
  0
VERTEX
  5
2531
  8
0
 10
160.2567806025755885
 20
103.8307549558233944
 30
0.0
  0
VERTEX
  5
2532
  8
0
 10
160.2461131222777055
 20
103.8365942176900063
 30
0.0
  0
VERTEX
  5
2533
  8
0
 10
160.2357834188362062
 20
103.8426761571605965
 30
0.0
  0
VERTEX
  5
2534
  8
0
 10
160.2257992285024102
 20
103.8490052135666986
 30
0.0
  0
VERTEX
  5
2535
  8
0
 10
160.2161666848720074
 20
103.8555843893436048
 30
0.0
  0
VERTEX
  5
2536
  8
0
 10
160.206891580646186
 20
103.8624163812903021
 30
0.0
  0
VERTEX
  5
2537
  8
0
 10
160.1979797085263044
 20
103.869503886205905
 30
0.0
  0
VERTEX
  5
2538
  8
0
 10
160.1894368612136077
 20
103.876849600889301
 30
0.0
  0
VERTEX
  5
2539
  8
0
 10
160.1812688314061859
 20
103.884456222137004
 30
0.0
  0
VERTEX
  5
253A
  8
0
 10
160.1734806523328132
 20
103.8923258540175993
 30
0.0
  0
VERTEX
  5
253B
  8
0
 10
160.1660744657827138
 20
103.9004583439763962
 30
0.0
  0
VERTEX
  5
253C
  8
0
 10
160.1590517255473003
 20
103.9088530025105968
 30
0.0
  0
VERTEX
  5
253D
  8
0
 10
160.1524138854175021
 20
103.9175091401169055
 30
0.0
  0
VERTEX
  5
253E
  8
0
 10
160.1461623991845045
 20
103.9264260672924962
 30
0.0
  0
VERTEX
  5
253F
  8
0
 10
160.1402987206392936
 20
103.9356030945343008
 30
0.0
  0
VERTEX
  5
2540
  8
0
 10
160.1348236827695075
 20
103.9450391152324045
 30
0.0
  0
VERTEX
  5
2541
  8
0
 10
160.12973469659741
 20
103.9547307236181979
 30
0.0
  0
VERTEX
  5
2542
  8
0
 10
160.1250280004470028
 20
103.9646737260081011
 30
0.0
  0
VERTEX
  5
2543
  8
0
 10
160.1206998316012005
 20
103.9748639280183937
 30
0.0
  0
VERTEX
  5
2544
  8
0
 10
160.1167464273426901
 20
103.985297135265796
 30
0.0
  0
VERTEX
  5
2545
  8
0
 10
160.1131640249543011
 20
103.9959691533668007
 30
0.0
  0
VERTEX
  5
2546
  8
0
 10
160.1099486948893116
 20
104.0068756583197995
 30
0.0
  0
VERTEX
  5
2547
  8
0
 10
160.1070938556864007
 20
104.0180102657155032
 30
0.0
  0
VERTEX
  5
2548
  8
0
 10
160.1045908017771922
 20
104.0293649408182972
 30
0.0
  0
VERTEX
  5
2549
  8
0
 10
160.1024307679581966
 20
104.0409316025586008
 30
0.0
  0
VERTEX
  5
254A
  8
0
 10
160.1006049890256975
 20
104.052702169867203
 30
0.0
  0
VERTEX
  5
254B
  8
0
 10
160.0991046997760918
 20
104.0646685616745941
 30
0.0
  0
VERTEX
  5
254C
  8
0
 10
160.0979211350060041
 20
104.0768226969112931
 30
0.0
  0
VERTEX
  5
254D
  8
0
 10
160.0970457753554967
 20
104.0891573555419996
 30
0.0
  0
VERTEX
  5
254E
  8
0
 10
160.0964711212830878
 20
104.101668889302502
 30
0.0
  0
VERTEX
  5
254F
  8
0
 10
160.0961899376476083
 20
104.1143545759541951
 30
0.0
  0
VERTEX
  5
2550
  8
0
 10
160.0961949893080885
 20
104.1272116932598948
 30
0.0
  0
VERTEX
  5
2551
  8
0
 10
160.0964790411238141
 20
104.1402375189826017
 30
0.0
  0
VERTEX
  5
2552
  8
0
 10
160.0970348579539007
 20
104.1534293308851034
 30
0.0
  0
VERTEX
  5
2553
  8
0
 10
160.0978552033650999
 20
104.166784404709702
 30
0.0
  0
VERTEX
  5
2554
  8
0
 10
160.0989322871938896
 20
104.180299150657703
 30
0.0
  0
VERTEX
  5
2555
  8
0
 10
160.1002569055069102
 20
104.193967769051099
 30
0.0
  0
VERTEX
  5
2556
  8
0
 10
160.1018196319888887
 20
104.2077841126040028
 30
0.0
  0
VERTEX
  5
2557
  8
0
 10
160.1036110403242105
 20
104.2217420340302994
 30
0.0
  0
VERTEX
  5
2558
  8
0
 10
160.10562170419729
 20
104.2358353860440019
 30
0.0
  0
VERTEX
  5
2559
  8
0
 10
160.107842197292797
 20
104.2500580213591945
 30
0.0
  0
VERTEX
  5
255A
  8
0
 10
160.1102630932950888
 20
104.2644037926899045
 30
0.0
  0
VERTEX
  5
255B
  8
0
 10
160.1128751172724947
 20
104.2788666737602057
 30
0.0
  0
VERTEX
  5
255C
  8
0
 10
160.1156697911729054
 20
104.2934412752874067
 30
0.0
  0
VERTEX
  5
255D
  8
0
 10
160.1186388982187054
 20
104.3081224168417975
 30
0.0
  0
VERTEX
  5
255E
  8
0
 10
160.1217742217851026
 20
104.3229049181152988
 30
0.0
  0
VERTEX
  5
255F
  8
0
 10
160.1250675452473047
 20
104.3377835987997031
 30
0.0
  0
VERTEX
  5
2560
  8
0
 10
160.1285106519802923
 20
104.3527532785870022
 30
0.0
  0
VERTEX
  5
2561
  8
0
 10
160.1320953253591881
 20
104.3678087771691025
 30
0.0
  0
VERTEX
  5
2562
  8
0
 10
160.1358133487690907
 20
104.382944914248597
 30
0.0
  0
VERTEX
  5
2563
  8
0
 10
160.1396579454410016
 20
104.3981580537661955
 30
0.0
  0
VERTEX
  5
2564
  8
0
 10
160.1436277718879921
 20
104.4134503868692008
 30
0.0
  0
VERTEX
  5
2565
  8
0
 10
160.1477227659850087
 20
104.4288254789685055
 30
0.0
  0
VERTEX
  5
2566
  8
0
 10
160.1519428656067987
 20
104.4442868954748036
 30
0.0
  0
VERTEX
  5
2567
  8
0
 10
160.156288008628394
 20
104.4598382017990019
 30
0.0
  0
VERTEX
  5
2568
  8
0
 10
160.1607559844732123
 20
104.4754809831927957
 30
0.0
  0
VERTEX
  5
2569
  8
0
 10
160.1653308402690072
 20
104.4912041590733054
 30
0.0
  0
VERTEX
  5
256A
  8
0
 10
160.1699912104784005
 20
104.5069916601772064
 30
0.0
  0
VERTEX
  5
256B
  8
0
 10
160.1747157164980138
 20
104.5228274051986972
 30
0.0
  0
VERTEX
  5
256C
  8
0
 10
160.1794829797242983
 20
104.538695312831905
 30
0.0
  0
VERTEX
  5
256D
  8
0
 10
160.1842716215539895
 20
104.5545793017709002
 30
0.0
  0
SEQEND
  5
256E
  8
0
  0
POLYLINE
  5
233A
  8
0
 66
     1
 10
0.0
 20
0.0
 30
0.0
  0
VERTEX
  5
256F
  8
0
 10
189.815728511958298
 20
104.5545788674644001
 30
0.0
  0
VERTEX
  5
2570
  8
0
 10
189.8210904022766101
 20
104.5366943916518068
 30
0.0
  0
VERTEX
  5
2571
  8
0
 10
189.826427509954101
 20
104.5188282591027047
 30
0.0
  0
VERTEX
  5
2572
  8
0
 10
189.8317150523502903
 20
104.5009988130804999
 30
0.0
  0
VERTEX
  5
2573
  8
0
 10
189.8369282468246126
 20
104.4832243968485983
 30
0.0
  0
VERTEX
  5
2574
  8
0
 10
189.8420423107361898
 20
104.4655233536705055
 30
0.0
  0
VERTEX
  5
2575
  8
0
 10
189.8470324614445133
 20
104.4479140268095989
 30
0.0
  0
VERTEX
  5
2576
  8
0
 10
189.8518739190971871
 20
104.4304147572832022
 30
0.0
  0
VERTEX
  5
2577
  8
0
 10
189.8565461320264092
 20
104.4130404800778962
 30
0.0
  0
VERTEX
  5
2578
  8
0
 10
189.8610412880483125
 20
104.3957958678387996
 30
0.0
  0
VERTEX
  5
2579
  8
0
 10
189.8653539646732042
 20
104.3786836681832
 30
0.0
  0
VERTEX
  5
257A
  8
0
 10
189.8694787394117043
 20
104.3617066287284985
 30
0.0
  0
VERTEX
  5
257B
  8
0
 10
189.8734101897742903
 20
104.3448674970920962
 30
0.0
  0
VERTEX
  5
257C
  8
0
 10
189.8771428891737969
 20
104.3281687773968969
 30
0.0
  0
VERTEX
  5
257D
  8
0
 10
189.8806713329499871
 20
104.3116083341299998
 30
0.0
  0
VERTEX
  5
257E
  8
0
 10
189.883989946416591
 20
104.2951798703856952
 30
0.0
  0
VERTEX
  5
257F
  8
0
 10
189.8870931524054129
 20
104.2788769417673933
 30
0.0
  0
VERTEX
  5
2580
  8
0
 10
189.8899753737482001
 20
104.2626931038785045
 30
0.0
  0
VERTEX
  5
2581
  8
0
 10
189.8926302452159121
 20
104.2466236113638018
 30
0.0
  0
VERTEX
  5
2582
  8
0
 10
189.8950451117223963
 20
104.2306772796512035
 30
0.0
  0
VERTEX
  5
2583
  8
0
 10
189.8972043059627026
 20
104.2148694184432003
 30
0.0
  0
VERTEX
  5
2584
  8
0
 10
189.8990921417577908
 20
104.199215378133303
 30
0.0
  0
VERTEX
  5
2585
  8
0
 10
189.9006929512802913
 20
104.183730454347895
 30
0.0
  0
VERTEX
  5
2586
  8
0
 10
189.901992007057288
 20
104.1684271364056968
 30
0.0
  0
VERTEX
  5
2587
  8
0
 10
189.9029759535613948
 20
104.1533138193144055
 30
0.0
  0
VERTEX
  5
2588
  8
0
 10
189.9036315438144982
 20
104.1383985741365024
 30
0.0
  0
VERTEX
  5
2589
  8
0
 10
189.903945530394509
 20
104.1236894736755971
 30
0.0
  0
VERTEX
  5
258A
  8
0
 10
189.9039044926765882
 20
104.1091952695560963
 30
0.0
  0
VERTEX
  5
258B
  8
0
 10
189.903494574798998
 20
104.0949264191991972
 30
0.0
  0
VERTEX
  5
258C
  8
0
 10
189.9027018536185096
 20
104.0808936437162942
 30
0.0
  0
VERTEX
  5
258D
  8
0
 10
189.9015124072844003
 20
104.0671076631926013
 30
0.0
  0
VERTEX
  5
258E
  8
0
 10
189.8999130261260859
 20
104.053578632028902
 30
0.0
  0
VERTEX
  5
258F
  8
0
 10
189.897892392659287
 20
104.0403152016643986
 30
0.0
  0
VERTEX
  5
2590
  8
0
 10
189.8954395001557032
 20
104.0273257767048989
 30
0.0
  0
VERTEX
  5
2591
  8
0
 10
189.8925433505696105
 20
104.0146187568886944
 30
0.0
  0
VERTEX
  5
2592
  8
0
 10
189.8891939585570867
 20
104.0022019742237944
 30
0.0
  0
VERTEX
  5
2593
  8
0
 10
189.8853832855400015
 20
103.9900821693422017
 30
0.0
  0
VERTEX
  5
2594
  8
0
 10
189.8811035138384966
 20
103.9782659590385947
 30
0.0
  0
VERTEX
  5
2595
  8
0
 10
189.8763469669893027
 20
103.9667598344026942
 30
0.0
  0
VERTEX
  5
2596
  8
0
 10
189.8711099155129034
 20
103.9555667730984965
 30
0.0
  0
VERTEX
  5
2597
  8
0
 10
189.8653930093724966
 20
103.9446858544089025
 30
0.0
  0
VERTEX
  5
2598
  8
0
 10
189.8591971265329903
 20
103.9341159546601006
 30
0.0
  0
VERTEX
  5
2599
  8
0
 10
189.8525226474648946
 20
103.923856546398099
 30
0.0
  0
VERTEX
  5
259A
  8
0
 10
189.845365100194698
 20
103.9139129175620013
 30
0.0
  0
VERTEX
  5
259B
  8
0
 10
189.8377172740661933
 20
103.9042936382545008
 30
0.0
  0
VERTEX
  5
259C
  8
0
 10
189.8295719275461124
 20
103.8950073155827027
 30
0.0
  0
VERTEX
  5
259D
  8
0
 10
189.8209246120559897
 20
103.886060535774206
 30
0.0
  0
VERTEX
  5
259E
  8
0
 10
189.8117825945793982
 20
103.877451408106694
 30
0.0
  0
VERTEX
  5
259F
  8
0
 10
189.8021562134763087
 20
103.8691758195221979
 30
0.0
  0
VERTEX
  5
25A0
  8
0
 10
189.7920558071186861
 20
103.8612296569547055
 30
0.0
  0
VERTEX
  5
25A1
  8
0
 10
189.781491713878296
 20
103.8536088073378068
 30
0.0
  0
VERTEX
  5
25A2
  8
0
 10
189.7704742721267905
 20
103.8463091576053046
 30
0.0
  0
VERTEX
  5
25A3
  8
0
 10
189.7590138202361913
 20
103.8393265946911015
 30
0.0
  0
VERTEX
  5
25A4
  8
0
 10
189.7471206965780937
 20
103.8326570055289011
 30
0.0
  0
VERTEX
  5
25A5
  8
0
 10
189.7348052395244054
 20
103.8262962770525064
 30
0.0
  0
VERTEX
  5
25A6
  8
0
 10
189.7220777879059028
 20
103.8202402952585004
 30
0.0
  0
VERTEX
  5
25A7
  8
0
 10
189.7089492919421048
 20
103.8144836979488019
 30
0.0
  0
VERTEX
  5
25A8
  8
0
 10
189.6954325192176043
 20
103.8090174126426035
 30
0.0
  0
VERTEX
  5
25A9
  8
0
 10
189.6815405734558055
 20
103.8038316806063932
 30
0.0
  0
VERTEX
  5
25AA
  8
0
 10
189.6672865583803116
 20
103.7989167431068012
 30
0.0
  0
VERTEX
  5
25AB
  8
0
 10
189.6526835777146971
 20
103.7942628414102018
 30
0.0
  0
VERTEX
  5
25AC
  8
0
 10
189.6377447351825936
 20
103.7898602167831967
 30
0.0
  0
VERTEX
  5
25AD
  8
0
 10
189.6224831345076041
 20
103.785699110492402
 30
0.0
  0
VERTEX
  5
25AE
  8
0
 10
189.6069118794129906
 20
103.7817697638044052
 30
0.0
  0
VERTEX
  5
25AF
  8
0
 10
189.5910440736228111
 20
103.7780624179855948
 30
0.0
  0
VERTEX
  5
25B0
  8
0
 10
189.5748928206623134
 20
103.774567314543205
 30
0.0
  0
VERTEX
  5
25B1
  8
0
 10
189.5584707535981011
 20
103.7712752667017071
 30
0.0
  0
VERTEX
  5
25B2
  8
0
 10
189.5417890271704948
 20
103.7681788841968
 30
0.0
  0
VERTEX
  5
25B3
  8
0
 10
189.5248585064960025
 20
103.7652711287242937
 30
0.0
  0
VERTEX
  5
25B4
  8
0
 10
189.5076900566913878
 20
103.7625449619800975
 30
0.0
  0
VERTEX
  5
25B5
  8
0
 10
189.4902945428733858
 20
103.7599933456597938
 30
0.0
  0
VERTEX
  5
25B6
  8
0
 10
189.4726828301585897
 20
103.7576092414593063
 30
0.0
  0
VERTEX
  5
25B7
  8
0
 10
189.4548657836637915
 20
103.7553856110744022
 30
0.0
  0
VERTEX
  5
25B8
  8
0
 10
189.4368542685056127
 20
103.753315416200806
 30
0.0
  0
VERTEX
  5
25B9
  8
0
 10
189.4186591498007033
 20
103.7513916185342993
 30
0.0
  0
VERTEX
  5
25BA
  8
0
 10
189.4002912926657984
 20
103.7496071797708055
 30
0.0
  0
VERTEX
  5
25BB
  8
0
 10
189.3817613085057872
 20
103.7479554734631932
 30
0.0
  0
VERTEX
  5
25BC
  8
0
 10
189.3630784894878047
 20
103.7464320147207957
 30
0.0
  0
VERTEX
  5
25BD
  8
0
 10
189.3442517003365992
 20
103.7450330125310956
 30
0.0
  0
VERTEX
  5
25BE
  8
0
 10
189.3252898055573041
 20
103.7437546762385949
 30
0.0
  0
VERTEX
  5
25BF
  8
0
 10
189.3062016696549108
 20
103.7425932151879948
 30
0.0
  0
VERTEX
  5
25C0
  8
0
 10
189.2869961571344959
 20
103.7415448387239962
 30
0.0
  0
VERTEX
  5
25C1
  8
0
 10
189.2676821325011076
 20
103.7406057561911012
 30
0.0
  0
VERTEX
  5
25C2
  8
0
 10
189.2482684602597089
 20
103.7397721769338972
 30
0.0
  0
VERTEX
  5
25C3
  8
0
 10
189.2287640049152913
 20
103.7390403102970993
 30
0.0
  0
VERTEX
  5
25C4
  8
0
 10
189.2091776309731017
 20
103.7384063656252948
 30
0.0
  0
VERTEX
  5
25C5
  8
0
 10
189.1895180746984124
 20
103.7378660898006046
 30
0.0
  0
VERTEX
  5
25C6
  8
0
 10
189.1697930760757913
 20
103.7374116368750947
 30
0.0
  0
VERTEX
  5
25C7
  8
0
 10
189.150009908838598
 20
103.7370334794862998
 30
0.0
  0
VERTEX
  5
25C8
  8
0
 10
189.1301758440635012
 20
103.7367220806922035
 30
0.0
  0
VERTEX
  5
25C9
  8
0
 10
189.1102981528275109
 20
103.7364679035507038
 30
0.0
  0
VERTEX
  5
25CA
  8
0
 10
189.0903841062072956
 20
103.7362614111195995
 30
0.0
  0
VERTEX
  5
25CB
  8
0
 10
189.0704409752798085
 20
103.736093066457002
 30
0.0
  0
VERTEX
  5
25CC
  8
0
 10
189.0504760311218035
 20
103.7359533326206957
 30
0.0
  0
VERTEX
  5
25CD
  8
0
 10
189.0304965448100916
 20
103.7358326726684936
 30
0.0
  0
VERTEX
  5
25CE
  8
0
 10
189.0105097874215971
 20
103.7357215496583933
 30
0.0
  0
SEQEND
  5
25CF
  8
0
  0
POLYLINE
  5
233B
  8
0
 66
     1
 10
0.0
 20
0.0
 30
0.0
  0
VERTEX
  5
25D0
  8
0
 10
190.493598678159799
 20
99.5545788508587748
 30
0.0
  0
VERTEX
  5
25D1
  8
0
 10
190.4940320183181939
 20
99.5708304886773732
 30
0.0
  0
VERTEX
  5
25D2
  8
0
 10
190.4944623744090961
 20
99.5870941598056447
 30
0.0
  0
VERTEX
  5
25D3
  8
0
 10
190.4948867623645015
 20
99.6033818975532625
 30
0.0
  0
VERTEX
  5
25D4
  8
0
 10
190.4953021981170878
 20
99.6197057352298856
 30
0.0
  0
VERTEX
  5
25D5
  8
0
 10
190.4957056975989076
 20
99.6360777061452154
 30
0.0
  0
VERTEX
  5
25D6
  8
0
 10
190.4960942767424967
 20
99.6525098436089252
 30
0.0
  0
VERTEX
  5
25D7
  8
0
 10
190.4964649543690882
 20
99.669014165181764
 30
0.0
  0
VERTEX
  5
25D8
  8
0
 10
190.4968156787076055
 20
99.6855976219681139
 30
0.0
  0
VERTEX
  5
25D9
  8
0
 10
190.4971466544033092
 20
99.7022548647253615
 30
0.0
  0
VERTEX
  5
25DA
  8
0
 10
190.4974584219077087
 20
99.7189787136374264
 30
0.0
  0
VERTEX
  5
25DB
  8
0
 10
190.4977515216723134
 20
99.7357619888882851
 30
0.0
  0
VERTEX
  5
25DC
  8
0
 10
190.4980264941488031
 20
99.7525975106619285
 30
0.0
  0
VERTEX
  5
25DD
  8
0
 10
190.4982838797888007
 20
99.7694780991423187
 30
0.0
  0
VERTEX
  5
25DE
  8
0
 10
190.4985241994353089
 20
99.7863966889660787
 30
0.0
  0
VERTEX
  5
25DF
  8
0
 10
190.4987475404867894
 20
99.8033487447423369
 30
0.0
  0
VERTEX
  5
25E0
  8
0
 10
190.4989535664286109
 20
99.8203322054178983
 30
0.0
  0
VERTEX
  5
25E1
  8
0
 10
190.4991419230441068
 20
99.8373451132635239
 30
0.0
  0
VERTEX
  5
25E2
  8
0
 10
190.4993122561168946
 20
99.8543855105499745
 30
0.0
  0
VERTEX
  5
25E3
  8
0
 10
190.4994642114301087
 20
99.8714514395480535
 30
0.0
  0
VERTEX
  5
25E4
  8
0
 10
190.4995974347675087
 20
99.8885409425284934
 30
0.0
  0
VERTEX
  5
25E5
  8
0
 10
190.4997116273580957
 20
99.9056518586221785
 30
0.0
  0
VERTEX
  5
25E6
  8
0
 10
190.4998067401486139
 20
99.9227811120564269
 30
0.0
  0
VERTEX
  5
25E7
  8
0
 10
190.4998827943562105
 20
99.9399253696040688
 30
0.0
  0
VERTEX
  5
25E8
  8
0
 10
190.4999398112020117
 20
99.9570812980238372
 30
0.0
  0
VERTEX
  5
25E9
  8
0
 10
190.4999778119072005
 20
99.9742455640744083
 30
0.0
  0
VERTEX
  5
25EA
  8
0
 10
190.4999968176927894
 20
99.9914148345145151
 30
0.0
  0
VERTEX
  5
25EB
  8
0
 10
190.4999968490359095
 20
100.0085857761149981
 30
0.0
  0
VERTEX
  5
25EC
  8
0
 10
190.4999779067285886
 20
100.0257550559684034
 30
0.0
  0
VERTEX
  5
25ED
  8
0
 10
190.499939970332008
 20
100.042919341514505
 30
0.0
  0
VERTEX
  5
25EE
  8
0
 10
190.4998830183538985
 20
100.0600753002098031
 30
0.0
  0
VERTEX
  5
25EF
  8
0
 10
190.4998070293019055
 20
100.0772195995112952
 30
0.0
  0
VERTEX
  5
25F0
  8
0
 10
190.4997119816837881
 20
100.0943489068756946
 30
0.0
  0
VERTEX
  5
25F1
  8
0
 10
190.4995978540071064
 20
100.1114598897598
 30
0.0
  0
VERTEX
  5
25F2
  8
0
 10
190.4994646846978981
 20
100.1285494348598064
 30
0.0
  0
VERTEX
  5
25F3
  8
0
 10
190.4993127627419938
 20
100.145615345664595
 30
0.0
  0
VERTEX
  5
25F4
  8
0
 10
190.4991424426098945
 20
100.1626556652687015
 30
0.0
  0
VERTEX
  5
25F5
  8
0
 10
190.4989540787721012
 20
100.1796684367672015
 30
0.0
  0
VERTEX
  5
25F6
  8
0
 10
190.498748025699399
 20
100.1966517032551991
 30
0.0
  0
VERTEX
  5
25F7
  8
0
 10
190.4985246378620047
 20
100.2136035078279974
 30
0.0
  0
VERTEX
  5
25F8
  8
0
 10
190.4982842563300096
 20
100.230521815172807
 30
0.0
  0
VERTEX
  5
25F9
  8
0
 10
190.4980268233431104
 20
100.2474022564254028
 30
0.0
  0
VERTEX
  5
25FA
  8
0
 10
190.4977518243470058
 20
100.2642377900236994
 30
0.0
  0
VERTEX
  5
25FB
  8
0
 10
190.4974587197272911
 20
100.2810212277766055
 30
0.0
  0
VERTEX
  5
25FC
  8
0
 10
190.4971469698691919
 20
100.2977453814932005
 30
0.0
  0
VERTEX
  5
25FD
  8
0
 10
190.4968160351581048
 20
100.3144030629827057
 30
0.0
  0
VERTEX
  5
25FE
  8
0
 10
190.4964653759793975
 20
100.3309870840540015
 30
0.0
  0
VERTEX
  5
25FF
  8
0
 10
190.4960947594300933
 20
100.3474919298859049
 30
0.0
  0
VERTEX
  5
2600
  8
0
 10
190.4957061862853038
 20
100.3639242722473028
 30
0.0
  0
VERTEX
  5
2601
  8
0
 10
190.4953026456493888
 20
100.3802961750729992
 30
0.0
  0
VERTEX
  5
2602
  8
0
 10
190.4948871310207039
 20
100.396619726270302
 30
0.0
  0
VERTEX
  5
2603
  8
0
 10
190.4944626358972926
 20
100.4129070137462065
 30
0.0
  0
VERTEX
  5
2604
  8
0
 10
190.4940321537775105
 20
100.4291701254077935
 30
0.0
  0
VERTEX
  5
2605
  8
0
 10
190.4935986781594011
 20
100.4454211491622999
 30
0.0
  0
SEQEND
  5
2606
  8
0
  0
POLYLINE
  5
233C
  8
0
 66
     1
 10
0.0
 20
0.0
 30
0.0
  0
VERTEX
  5
2607
  8
0
 10
189.4447776029961119
 20
101.2642784503434967
 30
0.0
  0
VERTEX
  5
2608
  8
0
 10
189.461841333153501
 20
101.2642314493807021
 30
0.0
  0
VERTEX
  5
2609
  8
0
 10
189.478900120376295
 20
101.2641752827292976
 30
0.0
  0
VERTEX
  5
260A
  8
0
 10
189.4959490217298992
 20
101.2641007847010997
 30
0.0
  0
VERTEX
  5
260B
  8
0
 10
189.5129830942796048
 20
101.2639987896074985
 30
0.0
  0
VERTEX
  5
260C
  8
0
 10
189.5299973950907884
 20
101.2638601317600973
 30
0.0
  0
VERTEX
  5
260D
  8
0
 10
189.5469869811199999
 20
101.2636756647843015
 30
0.0
  0
VERTEX
  5
260E
  8
0
 10
189.5639468957338067
 20
101.2634386529642967
 30
0.0
  0
VERTEX
  5
260F
  8
0
 10
189.5808721556794865
 20
101.2631470826045046
 30
0.0
  0
VERTEX
  5
2610
  8
0
 10
189.5977577746133989
 20
101.2627994881869
 30
0.0
  0
VERTEX
  5
2611
  8
0
 10
189.6145987661925858
 20
101.2623944041933015
 30
0.0
  0
VERTEX
  5
2612
  8
0
 10
189.6313901440736061
 20
101.2619303651055986
 30
0.0
  0
VERTEX
  5
2613
  8
0
 10
189.6481269223064032
 20
101.2614058877834964
 30
0.0
  0
VERTEX
  5
2614
  8
0
 10
189.6648041325695999
 20
101.2608186993581967
 30
0.0
  0
VERTEX
  5
2615
  8
0
 10
189.6814168308929993
 20
101.2601654360513947
 30
0.0
  0
VERTEX
  5
2616
  8
0
 10
189.6979600750885879
 20
101.2594426542486019
 30
0.0
  0
VERTEX
  5
2617
  8
0
 10
189.7144289229680965
 20
101.2586469103351021
 30
0.0
  0
VERTEX
  5
2618
  8
0
 10
189.7308184323437104
 20
101.2577747606964067
 30
0.0
  0
VERTEX
  5
2619
  8
0
 10
189.7471236622984918
 20
101.2568227671903998
 30
0.0
  0
VERTEX
  5
261A
  8
0
 10
189.7633397153942099
 20
101.2557876788255982
 30
0.0
  0
VERTEX
  5
261B
  8
0
 10
189.7794617474550876
 20
101.254666473879098
 30
0.0
  0
VERTEX
  5
261C
  8
0
 10
189.7954849175592074
 20
101.2534561446325938
 30
0.0
  0
VERTEX
  5
261D
  8
0
 10
189.8114043847843959
 20
101.2521536833678937
 30
0.0
  0
VERTEX
  5
261E
  8
0
 10
189.8272153082087925
 20
101.2507560823669053
 30
0.0
  0
VERTEX
  5
261F
  8
0
 10
189.842912849133711
 20
101.2492603306888981
 30
0.0
  0
VERTEX
  5
2620
  8
0
 10
189.8584922482781963
 20
101.2476633022963028
 30
0.0
  0
VERTEX
  5
2621
  8
0
 10
189.8739488456400863
 20
101.2459617272698011
 30
0.0
  0
VERTEX
  5
2622
  8
0
 10
189.8892779874755092
 20
101.244152326620906
 30
0.0
  0
VERTEX
  5
2623
  8
0
 10
189.9044750200403939
 20
101.2422318213609032
 30
0.0
  0
VERTEX
  5
2624
  8
0
 10
189.9195352895906126
 20
101.2401969325012061
 30
0.0
  0
VERTEX
  5
2625
  8
0
 10
189.9344541450757049
 20
101.2380443799141005
 30
0.0
  0
VERTEX
  5
2626
  8
0
 10
189.9492270525263962
 20
101.235770833960899
 30
0.0
  0
VERTEX
  5
2627
  8
0
 10
189.9638496376379067
 20
101.2333728974841023
 30
0.0
  0
VERTEX
  5
2628
  8
0
 10
189.978317537573389
 20
101.2308471684767994
 30
0.0
  0
VERTEX
  5
2629
  8
0
 10
189.9926263894957117
 20
101.2281902449320938
 30
0.0
  0
VERTEX
  5
262A
  8
0
 10
190.0067718305679989
 20
101.2253987248431031
 30
0.0
  0
VERTEX
  5
262B
  8
0
 10
190.0207495009952083
 20
101.2224692054087001
 30
0.0
  0
VERTEX
  5
262C
  8
0
 10
190.0345552060948933
 20
101.2193982407286938
 30
0.0
  0
VERTEX
  5
262D
  8
0
 10
190.0481849975755893
 20
101.216182320587194
 30
0.0
  0
VERTEX
  5
262E
  8
0
 10
190.0616349472647926
 20
101.212817929516504
 30
0.0
  0
VERTEX
  5
262F
  8
0
 10
190.0749011269894879
 20
101.2093015520493964
 30
0.0
  0
VERTEX
  5
2630
  8
0
 10
190.0879796085768874
 20
101.205629672718203
 30
0.0
  0
VERTEX
  5
2631
  8
0
 10
190.1008664674596105
 20
101.2017987753583981
 30
0.0
  0
VERTEX
  5
2632
  8
0
 10
190.1135579967819922
 20
101.1978053017093941
 30
0.0
  0
VERTEX
  5
2633
  8
0
 10
190.1260508279486885
 20
101.1936456281055996
 30
0.0
  0
VERTEX
  5
2634
  8
0
 10
190.1383416215566058
 20
101.1893161252369993
 30
0.0
  0
VERTEX
  5
2635
  8
0
 10
190.1504270382023947
 20
101.1848131637936063
 30
0.0
  0
VERTEX
  5
2636
  8
0
 10
190.1623037384829047
 20
101.1801331144653062
 30
0.0
  0
VERTEX
  5
2637
  8
0
 10
190.1739683894591906
 20
101.1752723513866954
 30
0.0
  0
VERTEX
  5
2638
  8
0
 10
190.1854180026273866
 20
101.1702274322215942
 30
0.0
  0
VERTEX
  5
2639
  8
0
 10
190.1966500997775995
 20
101.1649951865398975
 30
0.0
  0
VERTEX
  5
263A
  8
0
 10
190.2076622439512903
 20
101.1595724658921966
 30
0.0
  0
VERTEX
  5
263B
  8
0
 10
190.2184519981900905
 20
101.1539561218289975
 30
0.0
  0
VERTEX
  5
263C
  8
0
 10
190.2290169255354897
 20
101.1481430059004936
 30
0.0
  0
VERTEX
  5
263D
  8
0
 10
190.2393545984837999
 20
101.1421299612933069
 30
0.0
  0
VERTEX
  5
263E
  8
0
 10
190.2494629397176027
 20
101.1359135214042055
 30
0.0
  0
VERTEX
  5
263F
  8
0
 10
190.2593403170222928
 20
101.1294898258734065
 30
0.0
  0
VERTEX
  5
2640
  8
0
 10
190.2689851269645942
 20
101.1228549888796948
 30
0.0
  0
VERTEX
  5
2641
  8
0
 10
190.2783957661110037
 20
101.1160051246023954
 30
0.0
  0
VERTEX
  5
2642
  8
0
 10
190.2875706310283022
 20
101.108936347220407
 30
0.0
  0
VERTEX
  5
2643
  8
0
 10
190.2965081699468044
 20
101.101644891411695
 30
0.0
  0
VERTEX
  5
2644
  8
0
 10
190.3052079903712865
 20
101.0941296957117999
 30
0.0
  0
VERTEX
  5
2645
  8
0
 10
190.3136708432004127
 20
101.0863923654736993
 30
0.0
  0
VERTEX
  5
2646
  8
0
 10
190.3218975278198002
 20
101.078434619140495
 30
0.0
  0
VERTEX
  5
2647
  8
0
 10
190.3298888436152083
 20
101.0702581751553026
 30
0.0
  0
VERTEX
  5
2648
  8
0
 10
190.3376455899725102
 20
101.0618647519613944
 30
0.0
  0
VERTEX
  5
2649
  8
0
 10
190.3451685984078949
 20
101.0532559857316954
 30
0.0
  0
VERTEX
  5
264A
  8
0
 10
190.3524591280061031
 20
101.0444324178436943
 30
0.0
  0
VERTEX
  5
264B
  8
0
 10
190.3595187417475074
 20
101.0353938115466974
 30
0.0
  0
VERTEX
  5
264C
  8
0
 10
190.366349009100702
 20
101.0261399134765981
 30
0.0
  0
VERTEX
  5
264D
  8
0
 10
190.3729514995341958
 20
101.0166704702694034
 30
0.0
  0
VERTEX
  5
264E
  8
0
 10
190.3793277825164978
 20
101.0069852285613052
 30
0.0
  0
VERTEX
  5
264F
  8
0
 10
190.3854795445720072
 20
100.9970841612149002
 30
0.0
  0
VERTEX
  5
2650
  8
0
 10
190.3914096194160095
 20
100.9869694582005053
 30
0.0
  0
VERTEX
  5
2651
  8
0
 10
190.3971214906644036
 20
100.9766445655127001
 30
0.0
  0
VERTEX
  5
2652
  8
0
 10
190.4026186493485966
 20
100.9661129434769009
 30
0.0
  0
VERTEX
  5
2653
  8
0
 10
190.4079045864995976
 20
100.9553780524183964
 30
0.0
  0
VERTEX
  5
2654
  8
0
 10
190.4129827931485863
 20
100.9444433526625033
 30
0.0
  0
VERTEX
  5
2655
  8
0
 10
190.4178567888303917
 20
100.9333123343453025
 30
0.0
  0
VERTEX
  5
2656
  8
0
 10
190.422530547337999
 20
100.9219889626912021
 30
0.0
  0
VERTEX
  5
2657
  8
0
 10
190.4270084069171958
 20
100.9104775840900032
 30
0.0
  0
VERTEX
  5
2658
  8
0
 10
190.43129471608259
 20
100.898782555671005
 30
0.0
  0
VERTEX
  5
2659
  8
0
 10
190.4353938233489032
 20
100.8869082345636059
 30
0.0
  0
VERTEX
  5
265A
  8
0
 10
190.4393100772306866
 20
100.8748589778972047
 30
0.0
  0
VERTEX
  5
265B
  8
0
 10
190.4430478262416102
 20
100.8626391427708029
 30
0.0
  0
VERTEX
  5
265C
  8
0
 10
190.4466113940922014
 20
100.8502524673931049
 30
0.0
  0
VERTEX
  5
265D
  8
0
 10
190.4500050159481077
 20
100.8377004805603008
 30
0.0
  0
VERTEX
  5
265E
  8
0
 10
190.4532329072239065
 20
100.824984218235798
 30
0.0
  0
VERTEX
  5
265F
  8
0
 10
190.4562992833344879
 20
100.8121047163831037
 30
0.0
  0
VERTEX
  5
2660
  8
0
 10
190.4592083596944008
 20
100.7990630109656962
 30
0.0
  0
VERTEX
  5
2661
  8
0
 10
190.4619643517185068
 20
100.7858601379471963
 30
0.0
  0
VERTEX
  5
2662
  8
0
 10
190.4645714748214118
 20
100.7724971332909973
 30
0.0
  0
VERTEX
  5
2663
  8
0
 10
190.4670339444178069
 20
100.7589750329605067
 30
0.0
  0
VERTEX
  5
2664
  8
0
 10
190.4693559759224968
 20
100.745294872919402
 30
0.0
  0
VERTEX
  5
2665
  8
0
 10
190.4715418358865975
 20
100.7314579789870947
 30
0.0
  0
VERTEX
  5
2666
  8
0
 10
190.4735963176023006
 20
100.7174686627035953
 30
0.0
  0
VERTEX
  5
2667
  8
0
 10
190.4755245245783897
 20
100.7033329940046968
 30
0.0
  0
VERTEX
  5
2668
  8
0
 10
190.4773315643124931
 20
100.6890570654370975
 30
0.0
  0
VERTEX
  5
2669
  8
0
 10
190.4790225443022109
 20
100.6746469695469983
 30
0.0
  0
VERTEX
  5
266A
  8
0
 10
190.4806025720451998
 20
100.6601087988809979
 30
0.0
  0
VERTEX
  5
266B
  8
0
 10
190.4820767550390883
 20
100.6454486459853968
 30
0.0
  0
VERTEX
  5
266C
  8
0
 10
190.48345020078159
 20
100.6306726034066941
 30
0.0
  0
VERTEX
  5
266D
  8
0
 10
190.4847280167701911
 20
100.6157867636913039
 30
0.0
  0
VERTEX
  5
266E
  8
0
 10
190.4859153105026905
 20
100.6007972193855977
 30
0.0
  0
VERTEX
  5
266F
  8
0
 10
190.4870171876791005
 20
100.5857100582144028
 30
0.0
  0
VERTEX
  5
2670
  8
0
 10
190.48803751853481
 20
100.5705280539133071
 30
0.0
  0
VERTEX
  5
2671
  8
0
 10
190.4889767847753035
 20
100.5552448908834009
 30
0.0
  0
VERTEX
  5
2672
  8
0
 10
190.4898348923248932
 20
100.5398527090614067
 30
0.0
  0
VERTEX
  5
2673
  8
0
 10
190.4906117471084031
 20
100.5243436483838053
 30
0.0
  0
VERTEX
  5
2674
  8
0
 10
190.491309159439993
 20
100.5087136669889958
 30
0.0
  0
VERTEX
  5
2675
  8
0
 10
190.4919398899426994
 20
100.4929806778099959
 30
0.0
  0
VERTEX
  5
2676
  8
0
 10
190.4925206054543878
 20
100.4771704255366984
 30
0.0
  0
VERTEX
  5
2677
  8
0
 10
190.4930679776389013
 20
100.4613086645338029
 30
0.0
  0
VERTEX
  5
2678
  8
0
 10
190.493598678159799
 20
100.4454211491660942
 30
0.0
  0
SEQEND
  5
2679
  8
0
  0
POLYLINE
  5
233D
  8
0
 66
     1
 10
0.0
 20
0.0
 30
0.0
  0
VERTEX
  5
267A
  8
0
 10
159.5064013218398884
 20
100.4454211491587046
 30
0.0
  0
VERTEX
  5
267B
  8
0
 10
159.5070285139127861
 20
100.4631482375347957
 30
0.0
  0
VERTEX
  5
267C
  8
0
 10
159.5076733077590063
 20
100.4808507655896932
 30
0.0
  0
VERTEX
  5
267D
  8
0
 10
159.5083533051515019
 20
100.4985041730022033
 30
0.0
  0
VERTEX
  5
267E
  8
0
 10
159.509086107863709
 20
100.5160838994512034
 30
0.0
  0
VERTEX
  5
267F
  8
0
 10
159.5098893176688932
 20
100.5335653846154003
 30
0.0
  0
VERTEX
  5
2680
  8
0
 10
159.5107805363400075
 20
100.5509240681737992
 30
0.0
  0
VERTEX
  5
2681
  8
0
 10
159.5117764321014988
 20
100.5681368408862966
 30
0.0
  0
VERTEX
  5
2682
  8
0
 10
159.5128848261680048
 20
100.5851943450458066
 30
0.0
  0
VERTEX
  5
2683
  8
0
 10
159.514108659343691
 20
100.6020948089123976
 30
0.0
  0
VERTEX
  5
2684
  8
0
 10
159.5154508213146016
 20
100.6188365402026932
 30
0.0
  0
VERTEX
  5
2685
  8
0
 10
159.5169142017666957
 20
100.6354178466333025
 30
0.0
  0
VERTEX
  5
2686
  8
0
 10
159.5185016904598001
 20
100.6518370359228953
 30
0.0
  0
VERTEX
  5
2687
  8
0
 10
159.5202169884186105
 20
100.668092440848099
 30
0.0
  0
VERTEX
  5
2688
  8
0
 10
159.5220666154999947
 20
100.6841824812503035
 30
0.0
  0
VERTEX
  5
2689
  8
0
 10
159.5240577033920886
 20
100.7001055958688056
 30
0.0
  0
VERTEX
  5
268A
  8
0
 10
159.5261973837826872
 20
100.7158602234428031
 30
0.0
  0
VERTEX
  5
268B
  8
0
 10
159.5284927883600119
 20
100.7314448027117066
 30
0.0
  0
VERTEX
  5
268C
  8
0
 10
159.5309509367116902
 20
100.7468576810308036
 30
0.0
  0
VERTEX
  5
268D
  8
0
 10
159.5335779017678988
 20
100.7620964340419931
 30
0.0
  0
VERTEX
  5
268E
  8
0
 10
159.5363792810672123
 20
100.7771582498490943
 30
0.0
  0
VERTEX
  5
268F
  8
0
 10
159.5393606685645977
 20
100.7920403136348995
 30
0.0
  0
VERTEX
  5
2690
  8
0
 10
159.5425276582155902
 20
100.8067398105819024
 30
0.0
  0
VERTEX
  5
2691
  8
0
 10
159.5458859137310128
 20
100.8212536635013947
 30
0.0
  0
VERTEX
  5
2692
  8
0
 10
159.5494418640647041
 20
100.8355759169168948
 30
0.0
  0
VERTEX
  5
2693
  8
0
 10
159.553202411020294
 20
100.8496988368328999
 30
0.0
  0
VERTEX
  5
2694
  8
0
 10
159.5571744633963078
 20
100.8636146629447978
 30
0.0
  0
VERTEX
  5
2695
  8
0
 10
159.5613649299911003
 20
100.8773156349482036
 30
0.0
  0
VERTEX
  5
2696
  8
0
 10
159.5657806360167115
 20
100.8907942194570069
 30
0.0
  0
VERTEX
  5
2697
  8
0
 10
159.5704277717971138
 20
100.9040446066685064
 30
0.0
  0
VERTEX
  5
2698
  8
0
 10
159.5753122362517047
 20
100.9170617778782031
 30
0.0
  0
VERTEX
  5
2699
  8
0
 10
159.5804399267724989
 20
100.9298407185292064
 30
0.0
  0
VERTEX
  5
269A
  8
0
 10
159.5858167407037058
 20
100.9423764141043023
 30
0.0
  0
VERTEX
  5
269B
  8
0
 10
159.5914483589475026
 20
100.9546640289340047
 30
0.0
  0
VERTEX
  5
269C
  8
0
 10
159.5973397478838081
 20
100.9666993177659009
 30
0.0
  0
VERTEX
  5
269D
  8
0
 10
159.6034957266550123
 20
100.9784781570110965
 30
0.0
  0
VERTEX
  5
269E
  8
0
 10
159.6099211144035053
 20
100.9899964230810951
 30
0.0
  0
VERTEX
  5
269F
  8
0
 10
159.6166207022181993
 20
101.001250026779303
 30
0.0
  0
VERTEX
  5
26A0
  8
0
 10
159.6235985091493887
 20
101.0122358254010067
 30
0.0
  0
VERTEX
  5
26A1
  8
0
 10
159.6308577044015919
 20
101.0229517181208934
 30
0.0
  0
VERTEX
  5
26A2
  8
0
 10
159.6384014135192047
 20
101.033395657639403
 30
0.0
  0
VERTEX
  5
26A3
  8
0
 10
159.6462327620471058
 20
101.043565596656407
 30
0.0
  0
VERTEX
  5
26A4
  8
0
 10
159.6543545924139096
 20
101.0534598071658934
 30
0.0
  0
VERTEX
  5
26A5
  8
0
 10
159.6627684439442021
 20
101.0630780307816963
 30
0.0
  0
VERTEX
  5
26A6
  8
0
 10
159.6714754812878994
 20
101.0724204316693005
 30
0.0
  0
VERTEX
  5
26A7
  8
0
 10
159.6804768690614083
 20
101.0814871740323042
 30
0.0
  0
VERTEX
  5
26A8
  8
0
 10
159.6897737366130059
 20
101.0902784576402951
 30
0.0
  0
VERTEX
  5
26A9
  8
0
 10
159.6993664134623998
 20
101.0987952888463042
 30
0.0
  0
VERTEX
  5
26AA
  8
0
 10
159.7092544355583073
 20
101.107039474276803
 30
0.0
  0
VERTEX
  5
26AB
  8
0
 10
159.7194373048318994
 20
101.115012854862897
 30
0.0
  0
VERTEX
  5
26AC
  8
0
 10
159.7299145229546014
 20
101.1227172718558052
 30
0.0
  0
VERTEX
  5
26AD
  8
0
 10
159.7406850532312887
 20
101.130155228785199
 30
0.0
  0
VERTEX
  5
26AE
  8
0
 10
159.7517461875833931
 20
101.1373312852579005
 30
0.0
  0
VERTEX
  5
26AF
  8
0
 10
159.7630948945405862
 20
101.1442503987055943
 30
0.0
  0
VERTEX
  5
26B0
  8
0
 10
159.7747281426325117
 20
101.1509175265600931
 30
0.0
  0
VERTEX
  5
26B1
  8
0
 10
159.7866429958062042
 20
101.157337415646893
 30
0.0
  0
VERTEX
  5
26B2
  8
0
 10
159.7988375886515939
 20
101.1635124496622069
 30
0.0
  0
VERTEX
  5
26B3
  8
0
 10
159.811310728605207
 20
101.1694435271916035
 30
0.0
  0
VERTEX
  5
26B4
  8
0
 10
159.8240612335403057
 20
101.1751315237840032
 30
0.0
  0
VERTEX
  5
26B5
  8
0
 10
159.8370879075010009
 20
101.1805773313625991
 30
0.0
  0
VERTEX
  5
26B6
  8
0
 10
159.8503880178627128
 20
101.1857836613095003
 30
0.0
  0
VERTEX
  5
26B7
  8
0
 10
159.863955918374586
 20
101.1907566748220972
 30
0.0
  0
VERTEX
  5
26B8
  8
0
 10
159.8777856377041928
 20
101.1955029180033989
 30
0.0
  0
VERTEX
  5
26B9
  8
0
 10
159.8918712045195036
 20
101.2000289369564001
 30
0.0
  0
VERTEX
  5
26BA
  8
0
 10
159.9062066474878918
 20
101.2043412777840956
 30
0.0
  0
VERTEX
  5
26BB
  8
0
 10
159.9207859952772992
 20
101.2084464865892954
 30
0.0
  0
VERTEX
  5
26BC
  8
0
 10
159.9356032765554971
 20
101.2123511094750938
 30
0.0
  0
VERTEX
  5
26BD
  8
0
 10
159.9506525199900011
 20
101.2160616925444003
 30
0.0
  0
VERTEX
  5
26BE
  8
0
 10
159.9659277542486961
 20
101.2195847819001955
 30
0.0
  0
VERTEX
  5
26BF
  8
0
 10
159.9814230079992114
 20
101.222926923645403
 30
0.0
  0
VERTEX
  5
26C0
  8
0
 10
159.9971322795632034
 20
101.2260945579683948
 30
0.0
  0
VERTEX
  5
26C1
  8
0
 10
160.013049392254004
 20
101.2290935142417965
 30
0.0
  0
VERTEX
  5
26C2
  8
0
 10
160.0291681067816114
 20
101.2319294033380004
 30
0.0
  0
VERTEX
  5
26C3
  8
0
 10
160.0454821837766985
 20
101.2346078358535948
 30
0.0
  0
VERTEX
  5
26C4
  8
0
 10
160.061985383870109
 20
101.2371344223853953
 30
0.0
  0
VERTEX
  5
26C5
  8
0
 10
160.078671467692601
 20
101.2395147735299048
 30
0.0
  0
VERTEX
  5
26C6
  8
0
 10
160.0955341958751887
 20
101.2417544998836973
 30
0.0
  0
VERTEX
  5
26C7
  8
0
 10
160.1125673290484883
 20
101.2438592120436027
 30
0.0
  0
VERTEX
  5
26C8
  8
0
 10
160.1297646278435138
 20
101.2458345206061949
 30
0.0
  0
VERTEX
  5
26C9
  8
0
 10
160.1471198528907109
 20
101.2476860361681048
 30
0.0
  0
VERTEX
  5
26CA
  8
0
 10
160.1646267647064974
 20
101.2494193687277999
 30
0.0
  0
VERTEX
  5
26CB
  8
0
 10
160.1822789777723131
 20
101.2510393668297013
 30
0.0
  0
VERTEX
  5
26CC
  8
0
 10
160.200069674589713
 20
101.2525486265870995
 30
0.0
  0
VERTEX
  5
26CD
  8
0
 10
160.2179919581668059
 20
101.2539493296178961
 30
0.0
  0
VERTEX
  5
26CE
  8
0
 10
160.2360389315117004
 20
101.255243657540106
 30
0.0
  0
VERTEX
  5
26CF
  8
0
 10
160.2542036976323914
 20
101.2564337919716024
 30
0.0
  0
VERTEX
  5
26D0
  8
0
 10
160.2724793595371864
 20
101.2575219145303009
 30
0.0
  0
VERTEX
  5
26D1
  8
0
 10
160.2908590202341088
 20
101.2585102068342024
 30
0.0
  0
VERTEX
  5
26D2
  8
0
 10
160.3093357827310967
 20
101.2594008505010947
 30
0.0
  0
VERTEX
  5
26D3
  8
0
 10
160.3279027500362872
 20
101.2601960271489929
 30
0.0
  0
VERTEX
  5
26D4
  8
0
 10
160.3465530251579025
 20
101.2608979183957985
 30
0.0
  0
VERTEX
  5
26D5
  8
0
 10
160.3652797107988874
 20
101.2615087435013947
 30
0.0
  0
VERTEX
  5
26D6
  8
0
 10
160.3840758903994015
 20
101.262033098288498
 30
0.0
  0
VERTEX
  5
26D7
  8
0
 10
160.402934616978996
 20
101.2624793317799998
 30
0.0
  0
VERTEX
  5
26D8
  8
0
 10
160.4218489408733888
 20
101.2628561241198071
 30
0.0
  0
VERTEX
  5
26D9
  8
0
 10
160.4408119124182122
 20
101.2631721554517981
 30
0.0
  0
VERTEX
  5
26DA
  8
0
 10
160.4598165819490134
 20
101.2634361059199932
 30
0.0
  0
VERTEX
  5
26DB
  8
0
 10
160.4788559998015955
 20
101.2636566556683988
 30
0.0
  0
VERTEX
  5
26DC
  8
0
 10
160.4979232163115057
 20
101.2638424848410068
 30
0.0
  0
VERTEX
  5
26DD
  8
0
 10
160.5170112818144901
 20
101.2640022735816956
 30
0.0
  0
VERTEX
  5
26DE
  8
0
 10
160.5361132466460958
 20
101.2641447020344998
 30
0.0
  0
VERTEX
  5
26DF
  8
0
 10
160.5552221611420975
 20
101.2642784503432978
 30
0.0
  0
SEQEND
  5
26E0
  8
0
  0
POLYLINE
  5
233E
  8
0
 66
     1
 10
0.0
 20
0.0
 30
0.0
  0
VERTEX
  5
26E1
  8
0
 10
159.5064013218396894
 20
100.445421149143101
 30
0.0
  0
VERTEX
  5
26E2
  8
0
 10
159.5059679816812945
 20
100.4291695113250995
 30
0.0
  0
VERTEX
  5
26E3
  8
0
 10
159.5055376255903923
 20
100.4129058401972969
 30
0.0
  0
VERTEX
  5
26E4
  8
0
 10
159.5051132376349869
 20
100.3966181024503044
 30
0.0
  0
VERTEX
  5
26E5
  8
0
 10
159.5046978018824007
 20
100.3802942647741929
 30
0.0
  0
VERTEX
  5
26E6
  8
0
 10
159.5042943024006092
 20
100.3639222938594031
 30
0.0
  0
VERTEX
  5
26E7
  8
0
 10
159.5039057232569917
 20
100.3474901563963044
 30
0.0
  0
VERTEX
  5
26E8
  8
0
 10
159.5035350456302865
 20
100.3309858348240056
 30
0.0
  0
VERTEX
  5
26E9
  8
0
 10
159.5031843212917124
 20
100.3144023780381957
 30
0.0
  0
VERTEX
  5
26EA
  8
0
 10
159.5028533455960087
 20
100.2977451352815024
 30
0.0
  0
VERTEX
  5
26EB
  8
0
 10
159.5025415780916092
 20
100.2810212863700059
 30
0.0
  0
VERTEX
  5
26EC
  8
0
 10
159.5022484783270045
 20
100.2642380111196019
 30
0.0
  0
VERTEX
  5
26ED
  8
0
 10
159.5019735058504864
 20
100.247402489346598
 30
0.0
  0
VERTEX
  5
26EE
  8
0
 10
159.5017161202106024
 20
100.2305219008667052
 30
0.0
  0
VERTEX
  5
26EF
  8
0
 10
159.5014758005638953
 20
100.2136033110434994
 30
0.0
  0
VERTEX
  5
26F0
  8
0
 10
159.5012524595123864
 20
100.1966512552677955
 30
0.0
  0
VERTEX
  5
26F1
  8
0
 10
159.5010464335705933
 20
100.1796677945928025
 30
0.0
  0
VERTEX
  5
26F2
  8
0
 10
159.5008580769550122
 20
100.1626548867478022
 30
0.0
  0
VERTEX
  5
26F3
  8
0
 10
159.5006877438823949
 20
100.1456144894619058
 30
0.0
  0
VERTEX
  5
26F4
  8
0
 10
159.5005357885690103
 20
100.1285485604643952
 30
0.0
  0
VERTEX
  5
26F5
  8
0
 10
159.5004025652316955
 20
100.1114590574844954
 30
0.0
  0
VERTEX
  5
26F6
  8
0
 10
159.5002883726411085
 20
100.0943481413913929
 30
0.0
  0
VERTEX
  5
26F7
  8
0
 10
159.5001932598505903
 20
100.0772188879576987
 30
0.0
  0
VERTEX
  5
26F8
  8
0
 10
159.5001172056429937
 20
100.0600746304105968
 30
0.0
  0
VERTEX
  5
26F9
  8
0
 10
159.5000601887971072
 20
100.0429187019913968
 30
0.0
  0
VERTEX
  5
26FA
  8
0
 10
159.50002218809189
 20
100.0257544359413941
 30
0.0
  0
VERTEX
  5
26FB
  8
0
 10
159.5000031823063011
 20
100.0085851655018985
 30
0.0
  0
VERTEX
  5
26FC
  8
0
 10
159.5000031509632095
 20
99.9914142239019554
 30
0.0
  0
VERTEX
  5
26FD
  8
0
 10
159.500022093270502
 20
99.9742449440490475
 30
0.0
  0
VERTEX
  5
26FE
  8
0
 10
159.5000600296671109
 20
99.9570806585035996
 30
0.0
  0
VERTEX
  5
26FF
  8
0
 10
159.5001169816451068
 20
99.9399246998088131
 30
0.0
  0
VERTEX
  5
2700
  8
0
 10
159.5001929706970998
 20
99.922780400507861
 30
0.0
  0
VERTEX
  5
2701
  8
0
 10
159.5002880183151888
 20
99.9056510931440158
 30
0.0
  0
VERTEX
  5
2702
  8
0
 10
159.5004021459918988
 20
99.888540110260422
 30
0.0
  0
VERTEX
  5
2703
  8
0
 10
159.5005353153011072
 20
99.8714505651609983
 30
0.0
  0
VERTEX
  5
2704
  8
0
 10
159.5006872372570115
 20
99.8543846543567071
 30
0.0
  0
VERTEX
  5
2705
  8
0
 10
159.5008575573889971
 20
99.8373443347531406
 30
0.0
  0
VERTEX
  5
2706
  8
0
 10
159.5010459212267904
 20
99.8203315632551522
 30
0.0
  0
VERTEX
  5
2707
  8
0
 10
159.5012519742996062
 20
99.8033482967675951
 30
0.0
  0
VERTEX
  5
2708
  8
0
 10
159.5014753621368016
 20
99.7863964921953226
 30
0.0
  0
VERTEX
  5
2709
  8
0
 10
159.5017157436689104
 20
99.7694781848509962
 30
0.0
  0
VERTEX
  5
270A
  8
0
 10
159.5019731766558095
 20
99.7525977435988835
 30
0.0
  0
VERTEX
  5
270B
  8
0
 10
159.5022481756518005
 20
99.7357622100011554
 30
0.0
  0
VERTEX
  5
270C
  8
0
 10
159.5025412802716005
 20
99.7189787722487182
 30
0.0
  0
VERTEX
  5
270D
  8
0
 10
159.5028530301296996
 20
99.7022546185325353
 30
0.0
  0
VERTEX
  5
270E
  8
0
 10
159.5031839648407015
 20
99.685596937043556
 30
0.0
  0
VERTEX
  5
270F
  8
0
 10
159.5035346240194087
 20
99.6690129159726723
 30
0.0
  0
VERTEX
  5
2710
  8
0
 10
159.5039052405685993
 20
99.6525080701411525
 30
0.0
  0
VERTEX
  5
2711
  8
0
 10
159.5042938137133888
 20
99.6360757277801952
 30
0.0
  0
VERTEX
  5
2712
  8
0
 10
159.5046973543491902
 20
99.6197038249548541
 30
0.0
  0
VERTEX
  5
2713
  8
0
 10
159.5051128689779034
 20
99.6033802737580061
 30
0.0
  0
VERTEX
  5
2714
  8
0
 10
159.5055373641012864
 20
99.5870929862825562
 30
0.0
  0
VERTEX
  5
2715
  8
0
 10
159.5059678462210968
 20
99.5708298746213529
 30
0.0
  0
VERTEX
  5
2716
  8
0
 10
159.5064013218392063
 20
99.5545788508673013
 30
0.0
  0
SEQEND
  5
2717
  8
0
  0
POLYLINE
  5
233F
  8
0
 66
     1
 10
0.0
 20
0.0
 30
0.0
  0
VERTEX
  5
2718
  8
0
 10
190.4935986781599979
 20
99.5545788508431855
 30
0.0
  0
VERTEX
  5
2719
  8
0
 10
190.4929714860099921
 20
99.536851760309915
 30
0.0
  0
VERTEX
  5
271A
  8
0
 10
190.492326692080411
 20
99.519149230106791
 30
0.0
  0
VERTEX
  5
271B
  8
0
 10
190.491646694591509
 20
99.5014958205639743
 30
0.0
  0
VERTEX
  5
271C
  8
0
 10
190.4909138917637108
 20
99.483916092011583
 30
0.0
  0
VERTEX
  5
271D
  8
0
 10
190.4901106818172138
 20
99.4664346047798205
 30
0.0
  0
VERTEX
  5
271E
  8
0
 10
190.4892194629724997
 20
99.449075919198819
 30
0.0
  0
VERTEX
  5
271F
  8
0
 10
190.4882235670021089
 20
99.4318631445123771
 30
0.0
  0
VERTEX
  5
2720
  8
0
 10
190.4871151726964911
 20
99.4148056384187839
 30
0.0
  0
VERTEX
  5
2721
  8
0
 10
190.4858913392509123
 20
99.3979051726579996
 30
0.0
  0
VERTEX
  5
2722
  8
0
 10
190.4845491769781063
 20
99.3811634395140544
 30
0.0
  0
VERTEX
  5
2723
  8
0
 10
190.4830857961908919
 20
99.3645821312709785
 30
0.0
  0
VERTEX
  5
2724
  8
0
 10
190.4814983071287884
 20
99.3481629402105568
 30
0.0
  0
VERTEX
  5
2725
  8
0
 10
190.479783008762098
 20
99.3319075335568868
 30
0.0
  0
VERTEX
  5
2726
  8
0
 10
190.4779333812288087
 20
99.315817491468863
 30
0.0
  0
VERTEX
  5
2727
  8
0
 10
190.4759422928383117
 20
99.2998943752078134
 30
0.0
  0
VERTEX
  5
2728
  8
0
 10
190.473802611899913
 20
99.2841397460350947
 30
0.0
  0
VERTEX
  5
2729
  8
0
 10
190.4715072067230892
 20
99.2685551652120211
 30
0.0
  0
VERTEX
  5
272A
  8
0
 10
190.4690490577185074
 20
99.2531422853845555
 30
0.0
  0
VERTEX
  5
272B
  8
0
 10
190.4664220919559057
 20
99.2379035309134849
 30
0.0
  0
VERTEX
  5
272C
  8
0
 10
190.463620711894805
 20
99.2228417136960417
 30
0.0
  0
VERTEX
  5
272D
  8
0
 10
190.4606393235779933
 20
99.2079596485506272
 30
0.0
  0
VERTEX
  5
272E
  8
0
 10
190.4574723330482868
 20
99.1932601502956288
 30
0.0
  0
VERTEX
  5
272F
  8
0
 10
190.4541140765917078
 20
99.178746296123947
 30
0.0
  0
VERTEX
  5
2730
  8
0
 10
190.4505581252495858
 20
99.1644240415240148
 30
0.0
  0
VERTEX
  5
2731
  8
0
 10
190.446797577215392
 20
99.150301120494845
 30
0.0
  0
VERTEX
  5
2732
  8
0
 10
190.4428255236884979
 20
99.1363852933437641
 30
0.0
  0
VERTEX
  5
2733
  8
0
 10
190.4386350558675929
 20
99.1226843203781129
 30
0.0
  0
VERTEX
  5
2734
  8
0
 10
190.4342193485393864
 20
99.1092057349838029
 30
0.0
  0
VERTEX
  5
2735
  8
0
 10
190.4295722113799911
 20
99.0959553469596557
 30
0.0
  0
VERTEX
  5
2736
  8
0
 10
190.4246877454675939
 20
99.0829381750118472
 30
0.0
  0
VERTEX
  5
2737
  8
0
 10
190.4195600534083042
 20
99.0701592336989734
 30
0.0
  0
VERTEX
  5
2738
  8
0
 10
190.4141832378558092
 20
99.0576235375402234
 30
0.0
  0
VERTEX
  5
2739
  8
0
 10
190.4085516179079889
 20
99.0453359222047709
 30
0.0
  0
VERTEX
  5
273A
  8
0
 10
190.4026602271850948
 20
99.033300632945199
 30
0.0
  0
VERTEX
  5
273B
  8
0
 10
190.3965042465428894
 20
99.0215217933517522
 30
0.0
  0
VERTEX
  5
273C
  8
0
 10
190.3900788568373059
 20
99.0100035270146179
 30
0.0
  0
VERTEX
  5
273D
  8
0
 10
190.3833792669782952
 20
98.9987499231307453
 30
0.0
  0
VERTEX
  5
273E
  8
0
 10
190.3764014579199966
 20
98.9877641243992485
 30
0.0
  0
VERTEX
  5
273F
  8
0
 10
190.3691422604578065
 20
98.9770482316446021
 30
0.0
  0
VERTEX
  5
2740
  8
0
 10
190.3615985490459934
 20
98.9666042921674034
 30
0.0
  0
VERTEX
  5
2741
  8
0
 10
190.3537671981385984
 20
98.9564343532683068
 30
0.0
  0
VERTEX
  5
2742
  8
0
 10
190.3456453653103893
 20
98.946540142949047
 30
0.0
  0
VERTEX
  5
2743
  8
0
 10
190.3372315112418107
 20
98.9369219195899063
 30
0.0
  0
VERTEX
  5
2744
  8
0
 10
190.3285244712822077
 20
98.9275795190251301
 30
0.0
  0
VERTEX
  5
2745
  8
0
 10
190.3195230808148892
 20
98.9185127770513617
 30
0.0
  0
VERTEX
  5
2746
  8
0
 10
190.3102262104926012
 20
98.9097214938974645
 30
0.0
  0
VERTEX
  5
2747
  8
0
 10
190.3006335308020027
 20
98.9012046632033162
 30
0.0
  0
VERTEX
  5
2748
  8
0
 10
190.2907455057957975
 20
98.8929604783405125
 30
0.0
  0
VERTEX
  5
2749
  8
0
 10
190.2805626335428997
 20
98.8849870983771666
 30
0.0
  0
VERTEX
  5
274A
  8
0
 10
190.2700854123721115
 20
98.8772826820616046
 30
0.0
  0
VERTEX
  5
274B
  8
0
 10
190.2593148789875954
 20
98.8698447258520616
 30
0.0
  0
VERTEX
  5
274C
  8
0
 10
190.2482537414757928
 20
98.8626686701321944
 30
0.0
  0
VERTEX
  5
274D
  8
0
 10
190.2369050313085097
 20
98.8557495574685134
 30
0.0
  0
VERTEX
  5
274E
  8
0
 10
190.2252717799576089
 20
98.8490824304275151
 30
0.0
  0
VERTEX
  5
274F
  8
0
 10
190.2133569234742936
 20
98.8426625421879947
 30
0.0
  0
VERTEX
  5
2750
  8
0
 10
190.2011623272599934
 20
98.8364875090724126
 30
0.0
  0
VERTEX
  5
2751
  8
0
 10
190.1886891838769031
 20
98.830556432496067
 30
0.0
  0
VERTEX
  5
2752
  8
0
 10
190.175938675450908
 20
98.8248684369096395
 30
0.0
  0
VERTEX
  5
2753
  8
0
 10
190.1629119979380107
 20
98.819422630388317
 30
0.0
  0
VERTEX
  5
2754
  8
0
 10
190.1496118839870917
 20
98.8142163015207728
 30
0.0
  0
VERTEX
  5
2755
  8
0
 10
190.1360439798610003
 20
98.8092432890961163
 30
0.0
  0
VERTEX
  5
2756
  8
0
 10
190.1222142568946083
 20
98.8044970470089652
 30
0.0
  0
VERTEX
  5
2757
  8
0
 10
190.1081286864231004
 20
98.799971029153923
 30
0.0
  0
VERTEX
  5
2758
  8
0
 10
190.0937932397814052
 20
98.7956586894256077
 30
0.0
  0
VERTEX
  5
2759
  8
0
 10
190.0792138883045936
 20
98.7915534817186085
 30
0.0
  0
VERTEX
  5
275A
  8
0
 10
190.0643966033277081
 20
98.7876488599275433
 30
0.0
  0
VERTEX
  5
275B
  8
0
 10
190.0493473561857058
 20
98.7839382779470156
 30
0.0
  0
VERTEX
  5
275C
  8
0
 10
190.0340721182136861
 20
98.7804151896716434
 30
0.0
  0
VERTEX
  5
275D
  8
0
 10
190.0185768607468049
 20
98.77707304899603
 30
0.0
  0
VERTEX
  5
275E
  8
0
 10
190.0028675854663902
 20
98.7739054157314484
 30
0.0
  0
VERTEX
  5
275F
  8
0
 10
189.9869504690620943
 20
98.7709064605072342
 30
0.0
  0
VERTEX
  5
2760
  8
0
 10
189.9708317508257949
 20
98.7680705724504264
 30
0.0
  0
VERTEX
  5
2761
  8
0
 10
189.9545176701284959
 20
98.7653921409638968
 30
0.0
  0
VERTEX
  5
2762
  8
0
 10
189.9380144663414001
 20
98.762865555450432
 30
0.0
  0
VERTEX
  5
2763
  8
0
 10
189.9213283788353976
 20
98.7604852053128468
 30
0.0
  0
VERTEX
  5
2764
  8
0
 10
189.9044656469814925
 20
98.7582454799539846
 30
0.0
  0
VERTEX
  5
2765
  8
0
 10
189.887432510150802
 20
98.7561407687766462
 30
0.0
  0
VERTEX
  5
2766
  8
0
 10
189.8702352077143019
 20
98.7541654611836606
 30
0.0
  0
VERTEX
  5
2767
  8
0
 10
189.8528799790429957
 20
98.7523139465778428
 30
0.0
  0
VERTEX
  5
2768
  8
0
 10
189.8353730636225976
 20
98.7505806149602705
 30
0.0
  0
VERTEX
  5
2769
  8
0
 10
189.8177208469755897
 20
98.7489606177917665
 30
0.0
  0
VERTEX
  5
276A
  8
0
 10
189.7999301466061866
 20
98.747451358961527
 30
0.0
  0
VERTEX
  5
276B
  8
0
 10
189.7820078595117934
 20
98.7460506568497465
 30
0.0
  0
VERTEX
  5
276C
  8
0
 10
189.763960882689787
 20
98.7447563298366475
 30
0.0
  0
VERTEX
  5
276D
  8
0
 10
189.7457961131379136
 20
98.7435661963024245
 30
0.0
  0
VERTEX
  5
276E
  8
0
 10
189.7275204478532942
 20
98.7424780746273143
 30
0.0
  0
VERTEX
  5
276F
  8
0
 10
189.7091407838335044
 20
98.7414897831915113
 30
0.0
  0
VERTEX
  5
2770
  8
0
 10
189.6906640180760064
 20
98.7405991403752239
 30
0.0
  0
VERTEX
  5
2771
  8
0
 10
189.6720970475782053
 20
98.7398039645587033
 30
0.0
  0
VERTEX
  5
2772
  8
0
 10
189.6534467693377053
 20
98.7391020741221013
 30
0.0
  0
VERTEX
  5
2773
  8
0
 10
189.6347200806567059
 20
98.7384912498033032
 30
0.0
  0
VERTEX
  5
2774
  8
0
 10
189.6159238980957014
 20
98.737966895774079
 30
0.0
  0
VERTEX
  5
2775
  8
0
 10
189.5970651686278075
 20
98.7375206630126598
 30
0.0
  0
VERTEX
  5
2776
  8
0
 10
189.5781508419094052
 20
98.7371438713781941
 30
0.0
  0
VERTEX
  5
2777
  8
0
 10
189.5591878675967052
 20
98.7368278407298305
 30
0.0
  0
VERTEX
  5
2778
  8
0
 10
189.5401831953462022
 20
98.7365638909266607
 30
0.0
  0
VERTEX
  5
2779
  8
0
 10
189.5211437748139929
 20
98.7363433418278049
 30
0.0
  0
VERTEX
  5
277A
  8
0
 10
189.5020765556564868
 20
98.7361575132924543
 30
0.0
  0
VERTEX
  5
277B
  8
0
 10
189.4829884875300081
 20
98.7359977251797147
 30
0.0
  0
VERTEX
  5
277C
  8
0
 10
189.4638865200909947
 20
98.7358552973487349
 30
0.0
  0
VERTEX
  5
277D
  8
0
 10
189.4447776029956003
 20
98.7357215496585781
 30
0.0
  0
SEQEND
  5
277E
  8
0
  0
POLYLINE
  5
2340
  8
0
 66
     1
 10
0.0
 20
0.0
 30
0.0
  0
VERTEX
  5
277F
  8
0
 10
160.5552223970042007
 20
98.7357215496585781
 30
0.0
  0
VERTEX
  5
2780
  8
0
 10
160.5381585715196877
 20
98.7357682384960782
 30
0.0
  0
VERTEX
  5
2781
  8
0
 10
160.5210996884898975
 20
98.7358240045962816
 30
0.0
  0
VERTEX
  5
2782
  8
0
 10
160.5040506903698088
 20
98.7358979252219058
 30
0.0
  0
VERTEX
  5
2783
  8
0
 10
160.4870165196140022
 20
98.7359990776356398
 30
0.0
  0
VERTEX
  5
2784
  8
0
 10
160.4700021186772858
 20
98.7361365391002153
 30
0.0
  0
VERTEX
  5
2785
  8
0
 10
160.4530124300831062
 20
98.7363193749689856
 30
0.0
  0
VERTEX
  5
2786
  8
0
 10
160.4360524089568969
 20
98.7365544589520852
 30
0.0
  0
VERTEX
  5
2787
  8
0
 10
160.4191270376549028
 20
98.7368439291912239
 30
0.0
  0
VERTEX
  5
2788
  8
0
 10
160.4022413020836098
 20
98.7371893063223354
 30
0.0
  0
VERTEX
  5
2789
  8
0
 10
160.3854001881499016
 20
98.7375921109815238
 30
0.0
  0
VERTEX
  5
278A
  8
0
 10
160.3686086817606906
 20
98.7380538638048222
 30
0.0
  0
VERTEX
  5
278B
  8
0
 10
160.3518717686077935
 20
98.7385760950594715
 30
0.0
  0
VERTEX
  5
278C
  8
0
 10
160.3351944190009988
 20
98.7391610247166227
 30
0.0
  0
VERTEX
  5
278D
  8
0
 10
160.3185815778508925
 20
98.7398120115934432
 30
0.0
  0
VERTEX
  5
278E
  8
0
 10
160.3020381876903002
 20
98.7405325211111631
 30
0.0
  0
VERTEX
  5
278F
  8
0
 10
160.2855691910523888
 20
98.741326018690927
 30
0.0
  0
VERTEX
  5
2790
  8
0
 10
160.2691795304698132
 20
98.7421959697538938
 30
0.0
  0
VERTEX
  5
2791
  8
0
 10
160.2528741478849952
 20
98.7431458372154935
 30
0.0
  0
VERTEX
  5
2792
  8
0
 10
160.2366579480992925
 20
98.7441789264479155
 30
0.0
  0
VERTEX
  5
2793
  8
0
 10
160.2205357773486014
 20
98.7452982944000723
 30
0.0
  0
VERTEX
  5
2794
  8
0
 10
160.2045124767122957
 20
98.746506976148595
 30
0.0
  0
VERTEX
  5
2795
  8
0
 10
160.1885928872698059
 20
98.7478080067702848
 30
0.0
  0
VERTEX
  5
2796
  8
0
 10
160.1727818501005913
 20
98.7492044213418154
 30
0.0
  0
VERTEX
  5
2797
  8
0
 10
160.1570842054921116
 20
98.7506992560362704
 30
0.0
  0
VERTEX
  5
2798
  8
0
 10
160.141504728784895
 20
98.7522956369098068
 30
0.0
  0
VERTEX
  5
2799
  8
0
 10
160.1260480831093105
 20
98.753996845313182
 30
0.0
  0
VERTEX
  5
279A
  8
0
 10
160.1107189204552981
 20
98.7558061780148648
 30
0.0
  0
VERTEX
  5
279B
  8
0
 10
160.0955218928125987
 20
98.7577269317833668
 30
0.0
  0
VERTEX
  5
279C
  8
0
 10
160.0804616521712944
 20
98.7597624033871568
 30
0.0
  0
VERTEX
  5
279D
  8
0
 10
160.0655428498810124
 20
98.7619158898274065
 30
0.0
  0
VERTEX
  5
279E
  8
0
 10
160.0507700467908023
 20
98.7641907209899301
 30
0.0
  0
VERTEX
  5
279F
  8
0
 10
160.0361476204990083
 20
98.7665902933475763
 30
0.0
  0
VERTEX
  5
27A0
  8
0
 10
160.0216799264657936
 20
98.7691180114173477
 30
0.0
  0
VERTEX
  5
27A1
  8
0
 10
160.0073713201514067
 20
98.7717772797162894
 30
0.0
  0
VERTEX
  5
27A2
  8
0
 10
159.9932261570158971
 20
98.774571502761404
 30
0.0
  0
VERTEX
  5
27A3
  8
0
 10
159.9792487921160102
 20
98.7775040851548738
 30
0.0
  0
VERTEX
  5
27A4
  8
0
 10
159.9654434617416996
 20
98.7805784565600362
 30
0.0
  0
VERTEX
  5
27A5
  8
0
 10
159.9518141186617868
 20
98.7837981064665343
 30
0.0
  0
VERTEX
  5
27A6
  8
0
 10
159.9383646742346912
 20
98.7871665331020807
 30
0.0
  0
VERTEX
  5
27A7
  8
0
 10
159.9250990398188037
 20
98.7906872346943743
 30
0.0
  0
VERTEX
  5
27A8
  8
0
 10
159.9120211267726859
 20
98.7943637094711278
 30
0.0
  0
VERTEX
  5
27A9
  8
0
 10
159.8991348462049018
 20
98.7981994556845393
 30
0.0
  0
VERTEX
  5
27AA
  8
0
 10
159.8864439616594098
 20
98.8021979860500466
 30
0.0
  0
VERTEX
  5
27AB
  8
0
 10
159.8739518405687079
 20
98.8063628521071564
 30
0.0
  0
VERTEX
  5
27AC
  8
0
 10
159.861661784589387
 20
98.8106976118422295
 30
0.0
  0
VERTEX
  5
27AD
  8
0
 10
159.8495770953780095
 20
98.815205823241655
 30
0.0
  0
VERTEX
  5
27AE
  8
0
 10
159.8377010745911946
 20
98.8198910442918361
 30
0.0
  0
VERTEX
  5
27AF
  8
0
 10
159.8260370235923062
 20
98.8247568328298058
 30
0.0
  0
VERTEX
  5
27B0
  8
0
 10
159.814588028792798
 20
98.8298066372916253
 30
0.0
  0
VERTEX
  5
27B1
  8
0
 10
159.8033565819021931
 20
98.8350436034357358
 30
0.0
  0
VERTEX
  5
27B2
  8
0
 10
159.7923450726376871
 20
98.8404708251108559
 30
0.0
  0
VERTEX
  5
27B3
  8
0
 10
159.7815558907163904
 20
98.8460913961657326
 30
0.0
  0
VERTEX
  5
27B4
  8
0
 10
159.7709914258554136
 20
98.8519084104490844
 30
0.0
  0
VERTEX
  5
27B5
  8
0
 10
159.7606540672531139
 20
98.8579249620517118
 30
0.0
  0
VERTEX
  5
27B6
  8
0
 10
159.7505459737085971
 20
98.864144252580715
 30
0.0
  0
VERTEX
  5
27B7
  8
0
 10
159.7406687122322069
 20
98.8705697598028195
 30
0.0
  0
VERTEX
  5
27B8
  8
0
 10
159.7310237561374038
 20
98.8772050052086371
 30
0.0
  0
VERTEX
  5
27B9
  8
0
 10
159.7216125787375063
 20
98.8840535102887372
 30
0.0
  0
VERTEX
  5
27BA
  8
0
 10
159.7124366533460034
 20
98.8911187965337319
 30
0.0
  0
VERTEX
  5
27BB
  8
0
 10
159.703497449916398
 20
98.8984043784299161
 30
0.0
  0
VERTEX
  5
27BC
  8
0
 10
159.6947958056755112
 20
98.9059124513564569
 30
0.0
  0
VERTEX
  5
27BD
  8
0
 10
159.6863311833419061
 20
98.9136423451238329
 30
0.0
  0
VERTEX
  5
27BE
  8
0
 10
159.6781028652850978
 20
98.9215930135508614
 30
0.0
  0
VERTEX
  5
27BF
  8
0
 10
159.6701101338746867
 20
98.9297634104563315
 30
0.0
  0
VERTEX
  5
27C0
  8
0
 10
159.66235227147979
 20
98.9381524896590321
 30
0.0
  0
VERTEX
  5
27C1
  8
0
 10
159.6548285559385079
 20
98.9467592066513646
 30
0.0
  0
VERTEX
  5
27C2
  8
0
 10
159.647537882918698
 20
98.9555826580655662
 30
0.0
  0
VERTEX
  5
27C3
  8
0
 10
159.6404784817403879
 20
98.9646221866242826
 30
0.0
  0
VERTEX
  5
27C4
  8
0
 10
159.6336485147890016
 20
98.9738771597698133
 30
0.0
  0
VERTEX
  5
27C5
  8
0
 10
159.6270461444499063
 20
98.9833469449445431
 30
0.0
  0
VERTEX
  5
27C6
  8
0
 10
159.6206695331086962
 20
98.9930309095907432
 30
0.0
  0
VERTEX
  5
27C7
  8
0
 10
159.6145168352603037
 20
99.0029284107536256
 30
0.0
  0
VERTEX
  5
27C8
  8
0
 10
159.6085856491783943
 20
99.0130380725573787
 30
0.0
  0
VERTEX
  5
27C9
  8
0
 10
159.6028726596863123
 20
99.0233573154914239
 30
0.0
  0
VERTEX
  5
27CA
  8
0
 10
159.5973744667118126
 20
99.0338834481808306
 30
0.0
  0
VERTEX
  5
27CB
  8
0
 10
159.5920876701829911
 20
99.0446137792505397
 30
0.0
  0
VERTEX
  5
27CC
  8
0
 10
159.587008870028086
 20
99.0555456173255635
 30
0.0
  0
VERTEX
  5
27CD
  8
0
 10
159.5821346660856932
 20
99.0666762708328292
 30
0.0
  0
VERTEX
  5
27CE
  8
0
 10
159.5774614165054004
 20
99.0780025116005163
 30
0.0
  0
VERTEX
  5
27CF
  8
0
 10
159.5729847116027997
 20
99.0895194067121565
 30
0.0
  0
VERTEX
  5
27D0
  8
0
 10
159.5686999895600025
 20
99.1012216854843047
 30
0.0
  0
VERTEX
  5
27D1
  8
0
 10
159.564602688559205
 20
99.1131040772336434
 30
0.0
  0
VERTEX
  5
27D2
  8
0
 10
159.5606882467824903
 20
99.1251613112767416
 30
0.0
  0
VERTEX
  5
27D3
  8
0
 10
159.5569521024119126
 20
99.1373881169302393
 30
0.0
  0
VERTEX
  5
27D4
  8
0
 10
159.5533896974040999
 20
99.1497792666254725
 30
0.0
  0
VERTEX
  5
27D5
  8
0
 10
159.5499966470844129
 20
99.1623315132319192
 30
0.0
  0
VERTEX
  5
27D6
  8
0
 10
159.5467688087456111
 20
99.1750443736630416
 30
0.0
  0
VERTEX
  5
27D7
  8
0
 10
159.5437020576534906
 20
99.1879175701487839
 30
0.0
  0
VERTEX
  5
27D8
  8
0
 10
159.5407922690741884
 20
99.2009508249191043
 30
0.0
  0
VERTEX
  5
27D9
  8
0
 10
159.5380353182736997
 20
99.2141438602039187
 30
0.0
  0
VERTEX
  5
27DA
  8
0
 10
159.5354270805179908
 20
99.2274963982332139
 30
0.0
  0
VERTEX
  5
27DB
  8
0
 10
159.5329634310733127
 20
99.2410081612369197
 30
0.0
  0
VERTEX
  5
27DC
  8
0
 10
159.5306402452054044
 20
99.2546788714449946
 30
0.0
  0
VERTEX
  5
27DD
  8
0
 10
159.5284533910889877
 20
99.2685082078296546
 30
0.0
  0
VERTEX
  5
27DE
  8
0
 10
159.526398346166701
 20
99.2824934659136602
 30
0.0
  0
VERTEX
  5
27DF
  8
0
 10
159.5244700014287105
 20
99.2966283638810694
 30
0.0
  0
VERTEX
  5
27E0
  8
0
 10
159.5226631995946036
 20
99.3109063254685509
 30
0.0
  0
VERTEX
  5
27E1
  8
0
 10
159.52097278338411
 20
99.3253207744128019
 30
0.0
  0
VERTEX
  5
27E2
  8
0
 10
159.5193935955171014
 20
99.3398651344504486
 30
0.0
  0
VERTEX
  5
27E3
  8
0
 10
159.5179204787131084
 20
99.3545328293182024
 30
0.0
  0
VERTEX
  5
27E4
  8
0
 10
159.5165482756920028
 20
99.3693172827527178
 30
0.0
  0
VERTEX
  5
27E5
  8
0
 10
159.5152718291732867
 20
99.3842119184906778
 30
0.0
  0
VERTEX
  5
27E6
  8
0
 10
159.5140859818768888
 20
99.3992101602687512
 30
0.0
  0
VERTEX
  5
27E7
  8
0
 10
159.5129855765223965
 20
99.4143054318236352
 30
0.0
  0
VERTEX
  5
27E8
  8
0
 10
159.5119659740948919
 20
99.4294925947723272
 30
0.0
  0
VERTEX
  5
27E9
  8
0
 10
159.5110260492376995
 20
99.4447762590607596
 30
0.0
  0
VERTEX
  5
27EA
  8
0
 10
159.5101661355280953
 20
99.4601650823165215
 30
0.0
  0
VERTEX
  5
27EB
  8
0
 10
159.5093865712771048
 20
99.4756677352997229
 30
0.0
  0
VERTEX
  5
27EC
  8
0
 10
159.508686653869205
 20
99.4912907930730341
 30
0.0
  0
VERTEX
  5
27ED
  8
0
 10
159.5080552814289092
 20
99.507019893870293
 30
0.0
  0
VERTEX
  5
27EE
  8
0
 10
159.5074753713595896
 20
99.5228286349394295
 30
0.0
  0
VERTEX
  5
27EF
  8
0
 10
159.5069297695376918
 20
99.5386904695231749
 30
0.0
  0
VERTEX
  5
27F0
  8
0
 10
159.5064013218392915
 20
99.5545788508642175
 30
0.0
  0
SEQEND
  5
27F1
  8
0
  0
POLYLINE
  5
2341
  8
0
 66
     1
 10
0.0
 20
0.0
 30
0.0
  0
VERTEX
  5
27F2
  8
0
 10
160.1842714829145109
 20
95.4454211491925832
 30
0.0
  0
VERTEX
  5
27F3
  8
0
 10
160.1888384304421891
 20
95.4306593824397709
 30
0.0
  0
VERTEX
  5
27F4
  8
0
 10
160.1934111637353055
 20
95.4158889847732326
 30
0.0
  0
VERTEX
  5
27F5
  8
0
 10
160.1979954685590997
 20
95.4011013252793134
 30
0.0
  0
VERTEX
  5
27F6
  8
0
 10
160.2025971306790098
 20
95.3862877730443302
 30
0.0
  0
VERTEX
  5
27F7
  8
0
 10
160.2072219358603888
 20
95.3714396971545995
 30
0.0
  0
VERTEX
  5
27F8
  8
0
 10
160.2118756698685047
 20
95.3565484666964238
 30
0.0
  0
VERTEX
  5
27F9
  8
0
 10
160.2165640855600088
 20
95.3416055080195548
 30
0.0
  0
VERTEX
  5
27FA
  8
0
 10
160.2212902105692081
 20
95.3266069895492478
 30
0.0
  0
VERTEX
  5
27FB
  8
0
 10
160.2260523486989996
 20
95.3115572995031641
 30
0.0
  0
VERTEX
  5
27FC
  8
0
 10
160.230848332802907
 20
95.2964616455837046
 30
0.0
  0
VERTEX
  5
27FD
  8
0
 10
160.2356759957347094
 20
95.2813252354933411
 30
0.0
  0
VERTEX
  5
27FE
  8
0
 10
160.2405331703477032
 20
95.2661532769344461
 30
0.0
  0
VERTEX
  5
27FF
  8
0
 10
160.2454176894954969
 20
95.2509509776094347
 30
0.0
  0
VERTEX
  5
2800
  8
0
 10
160.2503275009678134
 20
95.2357233244323282
 30
0.0
  0
VERTEX
  5
2801
  8
0
 10
160.2552617475097918
 20
95.2204730088467528
 30
0.0
  0
VERTEX
  5
2802
  8
0
 10
160.2602202806675962
 20
95.2052013607137013
 30
0.0
  0
VERTEX
  5
2803
  8
0
 10
160.2652029612982005
 20
95.1899096920078449
 30
0.0
  0
VERTEX
  5
2804
  8
0
 10
160.2702096502586073
 20
95.1745993147038263
 30
0.0
  0
VERTEX
  5
2805
  8
0
 10
160.2752402084059895
 20
95.1592715407763023
 30
0.0
  0
VERTEX
  5
2806
  8
0
 10
160.2802944958727096
 20
95.1439276832437173
 30
0.0
  0
VERTEX
  5
2807
  8
0
 10
160.2853721866297008
 20
95.1285693232261735
 30
0.0
  0
VERTEX
  5
2808
  8
0
 10
160.2904725220678017
 20
95.1131986648279053
 30
0.0
  0
VERTEX
  5
2809
  8
0
 10
160.2955946822794999
 20
95.0978180004318716
 30
0.0
  0
VERTEX
  5
280A
  8
0
 10
160.3007378473577091
 20
95.0824296224209604
 30
0.0
  0
VERTEX
  5
280B
  8
0
 10
160.3059011973950874
 20
95.0670358231781165
 30
0.0
  0
VERTEX
  5
280C
  8
0
 10
160.3110839124846052
 20
95.0516388950862847
 30
0.0
  0
VERTEX
  5
280D
  8
0
 10
160.3162851791578021
 20
95.0362411034285657
 30
0.0
  0
VERTEX
  5
280E
  8
0
 10
160.3215042456403978
 20
95.0208444538362755
 30
0.0
  0
VERTEX
  5
280F
  8
0
 10
160.3267403944898888
 20
95.0054508074485966
 30
0.0
  0
VERTEX
  5
2810
  8
0
 10
160.3319929086335094
 20
94.9900620238476847
 30
0.0
  0
VERTEX
  5
2811
  8
0
 10
160.337261070998693
 20
94.9746799626157667
 30
0.0
  0
VERTEX
  5
2812
  8
0
 10
160.3425441645127023
 20
94.9593064833349416
 30
0.0
  0
VERTEX
  5
2813
  8
0
 10
160.3478414717770022
 20
94.9439434466942771
 30
0.0
  0
VERTEX
  5
2814
  8
0
 10
160.3531522438024979
 20
94.9285928206505361
 30
0.0
  0
VERTEX
  5
2815
  8
0
 10
160.3584756740733042
 20
94.9132567684975186
 30
0.0
  0
VERTEX
  5
2816
  8
0
 10
160.3638109499682116
 20
94.8979374742592228
 30
0.0
  0
VERTEX
  5
2817
  8
0
 10
160.3691572588660961
 20
94.8826371219596041
 30
0.0
  0
VERTEX
  5
2818
  8
0
 10
160.3745137881460039
 20
94.8673578956225754
 30
0.0
  0
VERTEX
  5
2819
  8
0
 10
160.3798797251868962
 20
94.8521019792721631
 30
0.0
  0
VERTEX
  5
281A
  8
0
 10
160.3852542683142133
 20
94.8368714533804535
 30
0.0
  0
VERTEX
  5
281B
  8
0
 10
160.3906366943822093
 20
94.8216676555488078
 30
0.0
  0
VERTEX
  5
281C
  8
0
 10
160.3960263145351064
 20
94.8064915990049712
 30
0.0
  0
VERTEX
  5
281D
  8
0
 10
160.4014224400600028
 20
94.7913442956218262
 30
0.0
  0
VERTEX
  5
281E
  8
0
 10
160.4068243822441957
 20
94.776226757272255
 30
0.0
  0
VERTEX
  5
281F
  8
0
 10
160.4122314523748969
 20
94.7611399958291258
 30
0.0
  0
VERTEX
  5
2820
  8
0
 10
160.4176429603053862
 20
94.7460850410587625
 30
0.0
  0
VERTEX
  5
2821
  8
0
 10
160.4230581020395903
 20
94.7310643433172288
 30
0.0
  0
VERTEX
  5
2822
  8
0
 10
160.428475878941498
 20
94.7160827816444026
 30
0.0
  0
VERTEX
  5
2823
  8
0
 10
160.4338952733112933
 20
94.7011454729531295
 30
0.0
  0
VERTEX
  5
2824
  8
0
 10
160.4393152674491034
 20
94.6862575341562405
 30
0.0
  0
VERTEX
  5
2825
  8
0
 10
160.4447348436553114
 20
94.6714240821665669
 30
0.0
  0
VERTEX
  5
2826
  8
0
 10
160.4501529842299021
 20
94.6566502338969542
 30
0.0
  0
VERTEX
  5
2827
  8
0
 10
160.4555687546582874
 20
94.6419402330081851
 30
0.0
  0
VERTEX
  5
2828
  8
0
 10
160.4609820663432913
 20
94.6272894429577462
 30
0.0
  0
VERTEX
  5
2829
  8
0
 10
160.4663933239467042
 20
94.6126880491133164
 30
0.0
  0
VERTEX
  5
282A
  8
0
 10
160.4718029382848101
 20
94.5981261722337194
 30
0.0
  0
VERTEX
  5
282B
  8
0
 10
160.4772113201740069
 20
94.583593933077708
 30
0.0
  0
VERTEX
  5
282C
  8
0
 10
160.4826188804304934
 20
94.5690814524041485
 30
0.0
  0
VERTEX
  5
282D
  8
0
 10
160.4880260298706958
 20
94.5545788509717653
 30
0.0
  0
SEQEND
  5
282E
  8
0
  0
POLYLINE
  5
2342
  8
0
 66
     1
 10
0.0
 20
0.0
 30
0.0
  0
VERTEX
  5
282F
  8
0
 10
189.5119740121857035
 20
94.554578963052208
 30
0.0
  0
VERTEX
  5
2830
  8
0
 10
189.5179948051379029
 20
94.5707401066570554
 30
0.0
  0
VERTEX
  5
2831
  8
0
 10
189.5240159975149083
 20
94.5869130870612764
 30
0.0
  0
VERTEX
  5
2832
  8
0
 10
189.5300379887412134
 20
94.6031097410641735
 30
0.0
  0
VERTEX
  5
2833
  8
0
 10
189.5360611782415106
 20
94.6193419054651343
 30
0.0
  0
VERTEX
  5
2834
  8
0
 10
189.5420859654404921
 20
94.6356214170635184
 30
0.0
  0
VERTEX
  5
2835
  8
0
 10
189.5481127497629075
 20
94.6519601126586565
 30
0.0
  0
VERTEX
  5
2836
  8
0
 10
189.5541419270408028
 20
94.6683697917147668
 30
0.0
  0
VERTEX
  5
2837
  8
0
 10
189.5601733581389112
 20
94.684856693899917
 30
0.0
  0
VERTEX
  5
2838
  8
0
 10
189.5662058060815127
 20
94.7014156492859343
 30
0.0
  0
VERTEX
  5
2839
  8
0
 10
189.5722378991370931
 20
94.7180400874549093
 30
0.0
  0
VERTEX
  5
283A
  8
0
 10
189.5782682655741098
 20
94.7347234379888334
 30
0.0
  0
VERTEX
  5
283B
  8
0
 10
189.5842955336605939
 20
94.7514591304697404
 30
0.0
  0
VERTEX
  5
283C
  8
0
 10
189.5903183316652019
 20
94.76824059447965
 30
0.0
  0
VERTEX
  5
283D
  8
0
 10
189.5963353006156922
 20
94.7850614256121702
 30
0.0
  0
VERTEX
  5
283E
  8
0
 10
189.6023452853347919
 20
94.8019178709800912
 30
0.0
  0
VERTEX
  5
283F
  8
0
 10
189.6083472943830088
 20
94.8188083080473092
 30
0.0
  0
VERTEX
  5
2840
  8
0
 10
189.6143403409487007
 20
94.835731174488302
 30
0.0
  0
VERTEX
  5
2841
  8
0
 10
189.620323438219998
 20
94.8526849079775474
 30
0.0
  0
VERTEX
  5
2842
  8
0
 10
189.626295599385486
 20
94.8696679461894945
 30
0.0
  0
VERTEX
  5
2843
  8
0
 10
189.6322558376332097
 20
94.8866787267968164
 30
0.0
  0
VERTEX
  5
2844
  8
0
 10
189.6382031538452111
 20
94.903715448904876
 30
0.0
  0
VERTEX
  5
2845
  8
0
 10
189.644136502580011
 20
94.920775413594896
 30
0.0
  0
VERTEX
  5
2846
  8
0
 10
189.6500548274979963
 20
94.9378557106836638
 30
0.0
  0
VERTEX
  5
2847
  8
0
 10
189.6559570722600938
 20
94.9549534299878957
 30
0.0
  0
VERTEX
  5
2848
  8
0
 10
189.6618421805266053
 20
94.9720656613243364
 30
0.0
  0
VERTEX
  5
2849
  8
0
 10
189.6677090959582017
 20
94.989189494509759
 30
0.0
  0
VERTEX
  5
284A
  8
0
 10
189.6735567603290917
 20
95.006322017898583
 30
0.0
  0
VERTEX
  5
284B
  8
0
 10
189.6793840717504906
 20
95.0234602859983539
 30
0.0
  0
VERTEX
  5
284C
  8
0
 10
189.6851898845166886
 20
95.0406013193506851
 30
0.0
  0
VERTEX
  5
284D
  8
0
 10
189.690973051005102
 20
95.0577421370110045
 30
0.0
  0
VERTEX
  5
284E
  8
0
 10
189.6967324235928913
 20
95.0748797580347969
 30
0.0
  0
VERTEX
  5
284F
  8
0
 10
189.7024668546575015
 20
95.0920112014774617
 30
0.0
  0
VERTEX
  5
2850
  8
0
 10
189.7081751965760077
 20
95.1091334863944553
 30
0.0
  0
VERTEX
  5
2851
  8
0
 10
189.713856432507896
 20
95.1262437965126963
 30
0.0
  0
VERTEX
  5
2852
  8
0
 10
189.7195101049892969
 20
95.1433400198873898
 30
0.0
  0
VERTEX
  5
2853
  8
0
 10
189.7251359060826132
 20
95.1604202328463487
 30
0.0
  0
VERTEX
  5
2854
  8
0
 10
189.7307335278516121
 20
95.177482511719262
 30
0.0
  0
VERTEX
  5
2855
  8
0
 10
189.7363026623600888
 20
95.1945249328358472
 30
0.0
  0
VERTEX
  5
2856
  8
0
 10
189.7418430016718958
 20
95.2115455725258641
 30
0.0
  0
VERTEX
  5
2857
  8
0
 10
189.7473542083648113
 20
95.2285424497925845
 30
0.0
  0
VERTEX
  5
2858
  8
0
 10
189.7528348984002946
 20
95.2455115488314732
 30
0.0
  0
VERTEX
  5
2859
  8
0
 10
189.7582823831486962
 20
95.2624463174790179
 30
0.0
  0
VERTEX
  5
285A
  8
0
 10
189.7636938921120873
 20
95.2793400444059699
 30
0.0
  0
VERTEX
  5
285B
  8
0
 10
189.7690666547927947
 20
95.2961860182831657
 30
0.0
  0
VERTEX
  5
285C
  8
0
 10
189.7743979006930886
 20
95.3129775277814417
 30
0.0
  0
VERTEX
  5
285D
  8
0
 10
189.7796848593150969
 20
95.3297078615715634
 30
0.0
  0
VERTEX
  5
285E
  8
0
 10
189.7849255089604128
 20
95.346371602684016
 30
0.0
  0
VERTEX
  5
285F
  8
0
 10
189.7901239140666974
 20
95.3629738545245829
 30
0.0
  0
VERTEX
  5
2860
  8
0
 10
189.7952870989549865
 20
95.3795248368952855
 30
0.0
  0
VERTEX
  5
2861
  8
0
 10
189.8004221076687941
 20
95.3960348036900854
 30
0.0
  0
VERTEX
  5
2862
  8
0
 10
189.8055359842520033
 20
95.4125140088029298
 30
0.0
  0
VERTEX
  5
2863
  8
0
 10
189.8106357727479008
 20
95.4289727061278512
 30
0.0
  0
VERTEX
  5
2864
  8
0
 10
189.8157285172001991
 20
95.445421149558797
 30
0.0
  0
SEQEND
  5
2865
  8
0
  0
POLYLINE
  5
2343
  8
0
 66
     1
 10
0.0
 20
0.0
 30
0.0
  0
VERTEX
  5
2866
  8
0
 10
189.0105097874217961
 20
96.2642784503437809
 30
0.0
  0
VERTEX
  5
2867
  8
0
 10
189.0264652333083859
 20
96.2642294036939745
 30
0.0
  0
VERTEX
  5
2868
  8
0
 10
189.0424170332848917
 20
96.2641733862888458
 30
0.0
  0
VERTEX
  5
2869
  8
0
 10
189.0583615414412009
 20
96.2641034273731009
 30
0.0
  0
VERTEX
  5
286A
  8
0
 10
189.0742951118668884
 20
96.2640125561913891
 30
0.0
  0
VERTEX
  5
286B
  8
0
 10
189.0902140986520976
 20
96.2638938019884165
 30
0.0
  0
VERTEX
  5
286C
  8
0
 10
189.1061148558866023
 20
96.2637401940088608
 30
0.0
  0
VERTEX
  5
286D
  8
0
 10
189.1219937306127861
 20
96.2635449081762289
 30
0.0
  0
VERTEX
  5
286E
  8
0
 10
189.137846924593191
 20
96.2633041442190063
 30
0.0
  0
VERTEX
  5
286F
  8
0
 10
189.1536705030754035
 20
96.2630169432256793
 30
0.0
  0
VERTEX
  5
2870
  8
0
 10
189.1694605260146886
 20
96.2626824564303831
 30
0.0
  0
VERTEX
  5
2871
  8
0
 10
189.1852130533671072
 20
96.2622998350672106
 30
0.0
  0
VERTEX
  5
2872
  8
0
 10
189.2009241450878108
 20
96.2618682303702258
 30
0.0
  0
VERTEX
  5
2873
  8
0
 10
189.2165898611225998
 20
96.2613867935159391
 30
0.0
  0
VERTEX
  5
2874
  8
0
 10
189.2322061903919916
 20
96.2608542701268846
 30
0.0
  0
VERTEX
  5
2875
  8
0
 10
189.2477688808139078
 20
96.2602680296972721
 30
0.0
  0
VERTEX
  5
2876
  8
0
 10
189.2632736292372044
 20
96.2596251501151556
 30
0.0
  0
VERTEX
  5
2877
  8
0
 10
189.2787161325107093
 20
96.2589227092685462
 30
0.0
  0
VERTEX
  5
2878
  8
0
 10
189.2940920874833068
 20
96.2581577850454835
 30
0.0
  0
VERTEX
  5
2879
  8
0
 10
189.3093971910037112
 20
96.2573274553339928
 30
0.0
  0
VERTEX
  5
287A
  8
0
 10
189.3246271204280902
 20
96.2564287981112017
 30
0.0
  0
VERTEX
  5
287B
  8
0
 10
189.3397772861366093
 20
96.2554588925741967
 30
0.0
  0
VERTEX
  5
287C
  8
0
 10
189.3548429049311039
 20
96.254414818804662
 30
0.0
  0
VERTEX
  5
287D
  8
0
 10
189.3698191892771945
 20
96.2532936569041055
 30
0.0
  0
VERTEX
  5
287E
  8
0
 10
189.3847013516403877
 20
96.2520924869740213
 30
0.0
  0
VERTEX
  5
287F
  8
0
 10
189.3994846044865028
 20
96.2508083891158748
 30
0.0
  0
VERTEX
  5
2880
  8
0
 10
189.4141641587526976
 20
96.2494384416971656
 30
0.0
  0
VERTEX
  5
2881
  8
0
 10
189.4287350439016109
 20
96.2479795171927748
 30
0.0
  0
VERTEX
  5
2882
  8
0
 10
189.4431919387911876
 20
96.2464280902972149
 30
0.0
  0
VERTEX
  5
2883
  8
0
 10
189.457529482253193
 20
96.2447805902935301
 30
0.0
  0
VERTEX
  5
2884
  8
0
 10
189.4717423131195062
 20
96.2430334464646506
 30
0.0
  0
VERTEX
  5
2885
  8
0
 10
189.4858250702218925
 20
96.2411830880935923
 30
0.0
  0
VERTEX
  5
2886
  8
0
 10
189.4997723923920887
 20
96.239225944463314
 30
0.0
  0
VERTEX
  5
2887
  8
0
 10
189.5135788297959039
 20
96.2371583756632134
 30
0.0
  0
VERTEX
  5
2888
  8
0
 10
189.5272385346187036
 20
96.2349764312051548
 30
0.0
  0
VERTEX
  5
2889
  8
0
 10
189.5407455474303902
 20
96.2326760734983822
 30
0.0
  0
VERTEX
  5
288A
  8
0
 10
189.5540939087960055
 20
96.2302532649478337
 30
0.0
  0
VERTEX
  5
288B
  8
0
 10
189.5672776592799949
 20
96.227703967958476
 30
0.0
  0
VERTEX
  5
288C
  8
0
 10
189.5802908394472013
 20
96.2250241449352046
 30
0.0
  0
VERTEX
  5
288D
  8
0
 10
189.5931274557028132
 20
96.2222097344123739
 30
0.0
  0
VERTEX
  5
288E
  8
0
 10
189.6057812292991116
 20
96.2192564756581703
 30
0.0
  0
VERTEX
  5
288F
  8
0
 10
189.6182457396635925
 20
96.216160008833242
 30
0.0
  0
VERTEX
  5
2890
  8
0
 10
189.6305145651928115
 20
96.2129159733779176
 30
0.0
  0
VERTEX
  5
2891
  8
0
 10
189.6425812842834944
 20
96.2095200087325253
 30
0.0
  0
VERTEX
  5
2892
  8
0
 10
189.6544394753323104
 20
96.2059677543373226
 30
0.0
  0
VERTEX
  5
2893
  8
0
 10
189.6660827150465138
 20
96.202254855866812
 30
0.0
  0
VERTEX
  5
2894
  8
0
 10
189.6775045596224913
 20
96.1983770346881641
 30
0.0
  0
VERTEX
  5
2895
  8
0
 10
189.6886985515970991
 20
96.194330062576455
 30
0.0
  0
VERTEX
  5
2896
  8
0
 10
189.699658233259612
 20
96.1901097122206323
 30
0.0
  0
VERTEX
  5
2897
  8
0
 10
189.7103771468993898
 20
96.1857117563095443
 30
0.0
  0
VERTEX
  5
2898
  8
0
 10
189.7208488348057074
 20
96.1811319675320817
 30
0.0
  0
VERTEX
  5
2899
  8
0
 10
189.7310668713575978
 20
96.1763661538016663
 30
0.0
  0
VERTEX
  5
289A
  8
0
 10
189.7410252672816
 20
96.1714106020028936
 30
0.0
  0
VERTEX
  5
289B
  8
0
 10
189.7507183481185962
 20
96.1662619445872622
 30
0.0
  0
VERTEX
  5
289C
  8
0
 10
189.7601404463781023
 20
96.1609168216554622
 30
0.0
  0
VERTEX
  5
289D
  8
0
 10
189.7692858945692933
 20
96.1553718733081695
 30
0.0
  0
VERTEX
  5
289E
  8
0
 10
189.7781490252019125
 20
96.1496237396460742
 30
0.0
  0
VERTEX
  5
289F
  8
0
 10
189.7867242573248063
 20
96.1436691388053362
 30
0.0
  0
VERTEX
  5
28A0
  8
0
 10
189.7950071115633932
 20
96.1375057822487946
 30
0.0
  0
VERTEX
  5
28A1
  8
0
 10
189.8029938674096968
 20
96.1311320657334676
 30
0.0
  0
VERTEX
  5
28A2
  8
0
 10
189.8106808193550989
 20
96.1245463985417814
 30
0.0
  0
VERTEX
  5
28A3
  8
0
 10
189.8180642618910099
 20
96.1177471899561908
 30
0.0
  0
VERTEX
  5
28A4
  8
0
 10
189.8251404895088115
 20
96.110732849259108
 30
0.0
  0
VERTEX
  5
28A5
  8
0
 10
189.8319059430913001
 20
96.1035019013381344
 30
0.0
  0
VERTEX
  5
28A6
  8
0
 10
189.8383588168562142
 20
96.0960542556845354
 30
0.0
  0
VERTEX
  5
28A7
  8
0
 10
189.8444984611647897
 20
96.0883907347933217
 30
0.0
  0
VERTEX
  5
28A8
  8
0
 10
189.8503242468003975
 20
96.0805121772869342
 30
0.0
  0
VERTEX
  5
28A9
  8
0
 10
189.855835544546494
 20
96.0724194217877852
 30
0.0
  0
VERTEX
  5
28AA
  8
0
 10
189.861031725186308
 20
96.0641133069182445
 30
0.0
  0
VERTEX
  5
28AB
  8
0
 10
189.8659122897890086
 20
96.0555947621227659
 30
0.0
  0
VERTEX
  5
28AC
  8
0
 10
189.8704786457711862
 20
96.0468660457615755
 30
0.0
  0
VERTEX
  5
28AD
  8
0
 10
189.8747336463198963
 20
96.0379304240419032
 30
0.0
  0
VERTEX
  5
28AE
  8
0
 10
189.8786801805777884
 20
96.0287911882357434
 30
0.0
  0
VERTEX
  5
28AF
  8
0
 10
189.8823211376879954
 20
96.0194516296151477
 30
0.0
  0
VERTEX
  5
28B0
  8
0
 10
189.8856594067933088
 20
96.009915039452153
 30
0.0
  0
VERTEX
  5
28B1
  8
0
 10
189.888697905553812
 20
96.0001847242476458
 30
0.0
  0
VERTEX
  5
28B2
  8
0
 10
189.891440682504907
 20
95.9902645944124657
 30
0.0
  0
VERTEX
  5
28B3
  8
0
 10
189.8938932682426923
 20
95.9801593518072877
 30
0.0
  0
VERTEX
  5
28B4
  8
0
 10
189.8960612937310941
 20
95.9698737518914839
 30
0.0
  0
VERTEX
  5
28B5
  8
0
 10
189.8979503899344081
 20
95.9594125501244548
 30
0.0
  0
VERTEX
  5
28B6
  8
0
 10
189.8995661878169017
 20
95.948780501965615
 30
0.0
  0
VERTEX
  5
28B7
  8
0
 10
189.9009143183427
 20
95.9379823628743651
 30
0.0
  0
VERTEX
  5
28B8
  8
0
 10
189.9020006145341881
 20
95.9270229909481316
 30
0.0
  0
VERTEX
  5
28B9
  8
0
 10
189.9028319098140116
 20
95.9159077524509058
 30
0.0
  0
VERTEX
  5
28BA
  8
0
 10
189.9034153466500072
 20
95.9046421706301544
 30
0.0
  0
VERTEX
  5
28BB
  8
0
 10
189.9037580675999095
 20
95.893231768778989
 30
0.0
  0
VERTEX
  5
28BC
  8
0
 10
189.9038672152211973
 20
95.8816820701904504
 30
0.0
  0
VERTEX
  5
28BD
  8
0
 10
189.9037499320716051
 20
95.8699985981576219
 30
0.0
  0
VERTEX
  5
28BE
  8
0
 10
189.9034133605827037
 20
95.8581868757133151
 30
0.0
  0
VERTEX
  5
28BF
  8
0
 10
189.902864423004786
 20
95.8462519702686819
 30
0.0
  0
VERTEX
  5
28C0
  8
0
 10
189.9021093686812947
 20
95.8341975567922759
 30
0.0
  0
VERTEX
  5
28C1
  8
0
 10
189.9011543188557027
 20
95.8220270451746075
 30
0.0
  0
VERTEX
  5
28C2
  8
0
 10
189.9000053947710001
 20
95.8097438453060875
 30
0.0
  0
VERTEX
  5
28C3
  8
0
 10
189.8986687176706027
 20
95.7973513670771553
 30
0.0
  0
VERTEX
  5
28C4
  8
0
 10
189.8971504087975859
 20
95.7848530203783071
 30
0.0
  0
VERTEX
  5
28C5
  8
0
 10
189.8954565893951099
 20
95.7722522150999822
 30
0.0
  0
VERTEX
  5
28C6
  8
0
 10
189.8935933094552979
 20
95.7595522667450751
 30
0.0
  0
VERTEX
  5
28C7
  8
0
 10
189.8915660397811962
 20
95.7467557235573281
 30
0.0
  0
VERTEX
  5
28C8
  8
0
 10
189.8893799694695872
 20
95.7338647606004969
 30
0.0
  0
VERTEX
  5
28C9
  8
0
 10
189.8870402857396016
 20
95.7208815504507839
 30
0.0
  0
VERTEX
  5
28CA
  8
0
 10
189.8845521758105122
 20
95.7078082656843492
 30
0.0
  0
VERTEX
  5
28CB
  8
0
 10
189.8819208269013075
 20
95.6946470788774235
 30
0.0
  0
VERTEX
  5
28CC
  8
0
 10
189.8791514262310898
 20
95.6814001626061952
 30
0.0
  0
VERTEX
  5
28CD
  8
0
 10
189.8762491610501968
 20
95.6680696897414293
 30
0.0
  0
VERTEX
  5
28CE
  8
0
 10
189.8732192377156025
 20
95.6546580132224449
 30
0.0
  0
VERTEX
  5
28CF
  8
0
 10
189.8700669141279036
 20
95.6411679717595291
 30
0.0
  0
VERTEX
  5
28D0
  8
0
 10
189.8667974567925967
 20
95.6276024851584054
 30
0.0
  0
VERTEX
  5
28D1
  8
0
 10
189.8634161322150931
 20
95.6139644732248541
 30
0.0
  0
VERTEX
  5
28D2
  8
0
 10
189.8599282069008893
 20
95.6002568557645702
 30
0.0
  0
VERTEX
  5
28D3
  8
0
 10
189.8563389473553116
 20
95.5864825525833481
 30
0.0
  0
VERTEX
  5
28D4
  8
0
 10
189.8526536200839132
 20
95.5726444834869255
 30
0.0
  0
VERTEX
  5
28D5
  8
0
 10
189.8488774845718865
 20
95.5587455618647255
 30
0.0
  0
VERTEX
  5
28D6
  8
0
 10
189.8450139759484045
 20
95.5447870336785741
 30
0.0
  0
VERTEX
  5
28D7
  8
0
 10
189.8410622800481917
 20
95.5307662611141666
 30
0.0
  0
VERTEX
  5
28D8
  8
0
 10
189.8370209789569003
 20
95.5166800545418937
 30
0.0
  0
VERTEX
  5
28D9
  8
0
 10
189.8328888005885915
 20
95.5025253500340483
 30
0.0
  0
VERTEX
  5
28DA
  8
0
 10
189.8286729227216085
 20
95.488306367330523
 30
0.0
  0
VERTEX
  5
28DB
  8
0
 10
189.8243934508707866
 20
95.4740384697032169
 30
0.0
  0
VERTEX
  5
28DC
  8
0
 10
189.8200715830307104
 20
95.4597379621267237
 30
0.0
  0
VERTEX
  5
28DD
  8
0
 10
189.8157285171959927
 20
95.4454211495756084
 30
0.0
  0
SEQEND
  5
28DE
  8
0
  0
POLYLINE
  5
2344
  8
0
 66
     1
 10
0.0
 20
0.0
 30
0.0
  0
VERTEX
  5
28DF
  8
0
 10
160.1842714829147098
 20
95.4454211492149938
 30
0.0
  0
VERTEX
  5
28E0
  8
0
 10
160.1785476751973931
 20
95.4644922861465233
 30
0.0
  0
VERTEX
  5
28E1
  8
0
 10
160.172855130820011
 20
95.4835408669588759
 30
0.0
  0
VERTEX
  5
28E2
  8
0
 10
160.1672251131228109
 20
95.5025443355328036
 30
0.0
  0
VERTEX
  5
28E3
  8
0
 10
160.1616888854456136
 20
95.5214801357491154
 30
0.0
  0
VERTEX
  5
28E4
  8
0
 10
160.1562777111286096
 20
95.5403257114886344
 30
0.0
  0
VERTEX
  5
28E5
  8
0
 10
160.1510228535117051
 20
95.5590585066321978
 30
0.0
  0
VERTEX
  5
28E6
  8
0
 10
160.1459513076171959
 20
95.577659341932673
 30
0.0
  0
VERTEX
  5
28E7
  8
0
 10
160.1410731311956965
 20
95.5961224380352377
 30
0.0
  0
VERTEX
  5
28E8
  8
0
 10
160.1363941814095995
 20
95.6144453388731108
 30
0.0
  0
VERTEX
  5
28E9
  8
0
 10
160.1319203154210129
 20
95.6326255883795966
 30
0.0
  0
VERTEX
  5
28EA
  8
0
 10
160.1276573903921872
 20
95.650660730487985
 30
0.0
  0
VERTEX
  5
28EB
  8
0
 10
160.1236114846838916
 20
95.6685483882056644
 30
0.0
  0
VERTEX
  5
28EC
  8
0
 10
160.1197916007795072
 20
95.686287229857399
 30
0.0
  0
VERTEX
  5
28ED
  8
0
 10
160.1162088099034975
 20
95.7038766633027222
 30
0.0
  0
VERTEX
  5
28EE
  8
0
 10
160.1128742269538918
 20
95.7213161120136675
 30
0.0
  0
VERTEX
  5
28EF
  8
0
 10
160.1097989668286914
 20
95.7386049994622823
 30
0.0
  0
VERTEX
  5
28F0
  8
0
 10
160.1069943464007963
 20
95.7557422647139447
 30
0.0
  0
VERTEX
  5
28F1
  8
0
 10
160.1044742176927969
 20
95.7727207666578266
 30
0.0
  0
VERTEX
  5
28F2
  8
0
 10
160.1022541618166883
 20
95.7895292172200072
 30
0.0
  0
VERTEX
  5
28F3
  8
0
 10
160.1003497932113078
 20
95.8061562483983948
 30
0.0
  0
VERTEX
  5
28F4
  8
0
 10
160.098776726315208
 20
95.8225904921908835
 30
0.0
  0
VERTEX
  5
28F5
  8
0
 10
160.097550759580912
 20
95.8388205012738155
 30
0.0
  0
VERTEX
  5
28F6
  8
0
 10
160.0966886900326074
 20
95.8548343978760045
 30
0.0
  0
VERTEX
  5
28F7
  8
0
 10
160.0962076518216008
 20
95.8706201589032929
 30
0.0
  0
VERTEX
  5
28F8
  8
0
 10
160.0961247793611051
 20
95.8861657611487601
 30
0.0
  0
VERTEX
  5
28F9
  8
0
 10
160.0964571880236065
 20
95.9014591856121683
 30
0.0
  0
VERTEX
  5
28FA
  8
0
 10
160.0972212584069894
 20
95.9164885756347303
 30
0.0
  0
VERTEX
  5
28FB
  8
0
 10
160.0984324197324042
 20
95.9312422847551147
 30
0.0
  0
VERTEX
  5
28FC
  8
0
 10
160.1001060379520879
 20
95.9457086804906254
 30
0.0
  0
VERTEX
  5
28FD
  8
0
 10
160.102257478489804
 20
95.9598761306388042
 30
0.0
  0
VERTEX
  5
28FE
  8
0
 10
160.1049013022586109
 20
95.9737334296186759
 30
0.0
  0
VERTEX
  5
28FF
  8
0
 10
160.1080496451610031
 20
95.9872706578008916
 30
0.0
  0
VERTEX
  5
2900
  8
0
 10
160.1117141880112911
 20
96.0004781368833164
 30
0.0
  0
VERTEX
  5
2901
  8
0
 10
160.1159066116242116
 20
96.0133461885638724
 30
0.0
  0
VERTEX
  5
2902
  8
0
 10
160.1206373045750979
 20
96.025866184351699
 30
0.0
  0
VERTEX
  5
2903
  8
0
 10
160.1259100779925006
 20
96.0380348392551895
 30
0.0
  0
VERTEX
  5
2904
  8
0
 10
160.131726655531395
 20
96.0498505641402573
 30
0.0
  0
VERTEX
  5
2905
  8
0
 10
160.1380887599960943
 20
96.0613117705639041
 30
0.0
  0
VERTEX
  5
2906
  8
0
 10
160.1449985425921909
 20
96.0724162563519712
 30
0.0
  0
VERTEX
  5
2907
  8
0
 10
160.1524611584140985
 20
96.0831575159345448
 30
0.0
  0
VERTEX
  5
2908
  8
0
 10
160.1604830479352017
 20
96.09352720229694
 30
0.0
  0
VERTEX
  5
2909
  8
0
 10
160.169070656494398
 20
96.1035169614542468
 30
0.0
  0
VERTEX
  5
290A
  8
0
 10
160.1782292024560093
 20
96.1131193151769025
 30
0.0
  0
VERTEX
  5
290B
  8
0
 10
160.1879524373609911
 20
96.1223349697007734
 30
0.0
  0
VERTEX
  5
290C
  8
0
 10
160.1982278572033067
 20
96.1311690961698133
 30
0.0
  0
VERTEX
  5
290D
  8
0
 10
160.2090428948185092
 20
96.1396269108070953
 30
0.0
  0
VERTEX
  5
290E
  8
0
 10
160.2203849830424929
 20
96.1477136298357351
 30
0.0
  0
VERTEX
  5
290F
  8
0
 10
160.232241554710896
 20
96.1554344694787346
 30
0.0
  0
VERTEX
  5
2910
  8
0
 10
160.2446000426596981
 20
96.1627946459592238
 30
0.0
  0
VERTEX
  5
2911
  8
0
 10
160.2574478797243955
 20
96.1697993755002756
 30
0.0
  0
VERTEX
  5
2912
  8
0
 10
160.2707724987409961
 20
96.1764538743249204
 30
0.0
  0
VERTEX
  5
2913
  8
0
 10
160.2845612599491005
 20
96.1827635008062032
 30
0.0
  0
VERTEX
  5
2914
  8
0
 10
160.2987998833175141
 20
96.1887368251300359
 30
0.0
  0
VERTEX
  5
2915
  8
0
 10
160.3134724647306086
 20
96.1943855975984263
 30
0.0
  0
VERTEX
  5
2916
  8
0
 10
160.3285630307150029
 20
96.199721704323764
 30
0.0
  0
VERTEX
  5
2917
  8
0
 10
160.344055607796804
 20
96.2047570314184384
 30
0.0
  0
VERTEX
  5
2918
  8
0
 10
160.3599342225026021
 20
96.2095034649948246
 30
0.0
  0
VERTEX
  5
2919
  8
0
 10
160.3761829013587032
 20
96.2139728911652838
 30
0.0
  0
VERTEX
  5
291A
  8
0
 10
160.3927856708914135
 20
96.2181771960422338
 30
0.0
  0
VERTEX
  5
291B
  8
0
 10
160.4097265576270956
 20
96.222128265737993
 30
0.0
  0
VERTEX
  5
291C
  8
0
 10
160.4269895895372997
 20
96.2258379846478817
 30
0.0
  0
VERTEX
  5
291D
  8
0
 10
160.4445594867536045
 20
96.2293174146547869
 30
0.0
  0
VERTEX
  5
291E
  8
0
 10
160.4624227689693896
 20
96.2325754791750683
 30
0.0
  0
VERTEX
  5
291F
  8
0
 10
160.4805662445828034
 20
96.2356207585496151
 30
0.0
  0
VERTEX
  5
2920
  8
0
 10
160.4989767219923067
 20
96.2384618331192883
 30
0.0
  0
VERTEX
  5
2921
  8
0
 10
160.517641009595792
 20
96.2411072832248777
 30
0.0
  0
VERTEX
  5
2922
  8
0
 10
160.5365459157916916
 20
96.2435656892072444
 30
0.0
  0
VERTEX
  5
2923
  8
0
 10
160.5556782489782108
 20
96.2458456314072208
 30
0.0
  0
VERTEX
  5
2924
  8
0
 10
160.5750248175536115
 20
96.2479556901656395
 30
0.0
  0
VERTEX
  5
2925
  8
0
 10
160.5945724299160986
 20
96.2499044458233755
 30
0.0
  0
VERTEX
  5
2926
  8
0
 10
160.6143080012672897
 20
96.2517003022311002
 30
0.0
  0
VERTEX
  5
2927
  8
0
 10
160.6342198051142987
 20
96.2533494186785958
 30
0.0
  0
VERTEX
  5
2928
  8
0
 10
160.6542970500935041
 20
96.2548564091795384
 30
0.0
  0
VERTEX
  5
2929
  8
0
 10
160.6745289632951881
 20
96.2562258572530141
 30
0.0
  0
VERTEX
  5
292A
  8
0
 10
160.6949047718098029
 20
96.2574623464181229
 30
0.0
  0
VERTEX
  5
292B
  8
0
 10
160.7154137027278011
 20
96.2585704601939369
 30
0.0
  0
VERTEX
  5
292C
  8
0
 10
160.7360449831396068
 20
96.2595547820995563
 30
0.0
  0
VERTEX
  5
292D
  8
0
 10
160.756787840135587
 20
96.2604198956540671
 30
0.0
  0
VERTEX
  5
292E
  8
0
 10
160.7776315008063079
 20
96.2611703843765554
 30
0.0
  0
VERTEX
  5
292F
  8
0
 10
160.7985651937300133
 20
96.2618108371843988
 30
0.0
  0
VERTEX
  5
2930
  8
0
 10
160.8195786524391053
 20
96.2623476748699574
 30
0.0
  0
VERTEX
  5
2931
  8
0
 10
160.8406628485003012
 20
96.2627918095746651
 30
0.0
  0
VERTEX
  5
2932
  8
0
 10
160.8618089397444066
 20
96.2631548291712136
 30
0.0
  0
VERTEX
  5
2933
  8
0
 10
160.8830080840025971
 20
96.2634483215320813
 30
0.0
  0
VERTEX
  5
2934
  8
0
 10
160.9042514391057068
 20
96.2636838745299741
 30
0.0
  0
VERTEX
  5
2935
  8
0
 10
160.9255301628849111
 20
96.2638730760374131
 30
0.0
  0
VERTEX
  5
2936
  8
0
 10
160.946835413171101
 20
96.2640275139270614
 30
0.0
  0
VERTEX
  5
2937
  8
0
 10
160.9681583477953097
 20
96.2641587760715112
 30
0.0
  0
VERTEX
  5
2938
  8
0
 10
160.9894901245885137
 20
96.2642784503433262
 30
0.0
  0
SEQEND
  5
2939
  8
0
  0
POLYLINE
  5
2345
  8
0
 66
     1
 10
0.0
 20
0.0
 30
0.0
  0
VERTEX
  5
293A
  8
0
 10
161.9229661047853881
 20
93.7357215496586775
 30
0.0
  0
VERTEX
  5
293B
  8
0
 10
161.9041718900323872
 20
93.735786811910728
 30
0.0
  0
VERTEX
  5
293C
  8
0
 10
161.8853820529106997
 20
93.7358622624608415
 30
0.0
  0
VERTEX
  5
293D
  8
0
 10
161.866600971051696
 20
93.7359580896070668
 30
0.0
  0
VERTEX
  5
293E
  8
0
 10
161.8478330220866894
 20
93.736084481647481
 30
0.0
  0
VERTEX
  5
293F
  8
0
 10
161.8290825836471072
 20
93.7362516268801187
 30
0.0
  0
VERTEX
  5
2940
  8
0
 10
161.8103540330814099
 20
93.7364696564700353
 30
0.0
  0
VERTEX
  5
2941
  8
0
 10
161.7916517296023926
 20
93.7367450383068359
 30
0.0
  0
VERTEX
  5
2942
  8
0
 10
161.7729800036215124
 20
93.7370784226098834
 30
0.0
  0
VERTEX
  5
2943
  8
0
 10
161.7543431829901976
 20
93.7374699424754567
 30
0.0
  0
VERTEX
  5
2944
  8
0
 10
161.7357455955597914
 20
93.7379197309996357
 30
0.0
  0
VERTEX
  5
2945
  8
0
 10
161.7171915691816082
 20
93.7384279212786709
 30
0.0
  0
VERTEX
  5
2946
  8
0
 10
161.6986854317067923
 20
93.7389946464120527
 30
0.0
  0
VERTEX
  5
2947
  8
0
 10
161.6802314748831009
 20
93.739620500383765
 30
0.0
  0
VERTEX
  5
2948
  8
0
 10
161.6618338543229925
 20
93.7403078150368714
 30
0.0
  0
VERTEX
  5
2949
  8
0
 10
161.6434966935576085
 20
93.7410593317574552
 30
0.0
  0
VERTEX
  5
294A
  8
0
 10
161.6252241161180052
 20
93.7418777919316
 30
0.0
  0
VERTEX
  5
294B
  8
0
 10
161.6070202455352955
 20
93.7427659369454034
 30
0.0
  0
VERTEX
  5
294C
  8
0
 10
161.5888892053403083
 20
93.7437265081849631
 30
0.0
  0
VERTEX
  5
294D
  8
0
 10
161.5708351169267871
 20
93.744762245058368
 30
0.0
  0
VERTEX
  5
294E
  8
0
 10
161.552861999006609
 20
93.7458757919594916
 30
0.0
  0
VERTEX
  5
294F
  8
0
 10
161.534973724321901
 20
93.7470696582113163
 30
0.0
  0
VERTEX
  5
2950
  8
0
 10
161.5171741544818929
 20
93.7483463428355037
 30
0.0
  0
VERTEX
  5
2951
  8
0
 10
161.4994671510957005
 20
93.7497083448536728
 30
0.0
  0
VERTEX
  5
2952
  8
0
 10
161.4818565757726105
 20
93.7511581632874424
 30
0.0
  0
VERTEX
  5
2953
  8
0
 10
161.4643462901221085
 20
93.7526982971584459
 30
0.0
  0
VERTEX
  5
2954
  8
0
 10
161.4469401395523107
 20
93.7543312697563067
 30
0.0
  0
VERTEX
  5
2955
  8
0
 10
161.4296417643722066
 20
93.7560599115938658
 30
0.0
  0
VERTEX
  5
2956
  8
0
 10
161.412454664148413
 20
93.7578872640057455
 30
0.0
  0
VERTEX
  5
2957
  8
0
 10
161.3953823356928865
 20
93.7598163724528746
 30
0.0
  0
VERTEX
  5
2958
  8
0
 10
161.3784282758174982
 20
93.7618502823962245
 30
0.0
  0
VERTEX
  5
2959
  8
0
 10
161.3615959813340908
 20
93.7639920392968236
 30
0.0
  0
VERTEX
  5
295A
  8
0
 10
161.3448889488541056
 20
93.7662446900047115
 30
0.0
  0
VERTEX
  5
295B
  8
0
 10
161.3283105558178079
 20
93.7686121067162759
 30
0.0
  0
VERTEX
  5
295C
  8
0
 10
161.3118638594991978
 20
93.7711003790191739
 30
0.0
  0
VERTEX
  5
295D
  8
0
 10
161.295551863958309
 20
93.7737159650465344
 30
0.0
  0
VERTEX
  5
295E
  8
0
 10
161.2793775732552035
 20
93.7764653229314149
 30
0.0
  0
VERTEX
  5
295F
  8
0
 10
161.2633439914496876
 20
93.7793549108069584
 30
0.0
  0
VERTEX
  5
2960
  8
0
 10
161.2474541223857898
 20
93.7823911856184083
 30
0.0
  0
VERTEX
  5
2961
  8
0
 10
161.2317108038828053
 20
93.7855796919069746
 30
0.0
  0
VERTEX
  5
2962
  8
0
 10
161.2161164115233873
 20
93.788923433946124
 30
0.0
  0
VERTEX
  5
2963
  8
0
 10
161.2006732410839902
 20
93.7924249774266769
 30
0.0
  0
VERTEX
  5
2964
  8
0
 10
161.1853835883410113
 20
93.7960868880394258
 30
0.0
  0
VERTEX
  5
2965
  8
0
 10
161.1702497490709902
 20
93.7999117314751629
 30
0.0
  0
VERTEX
  5
2966
  8
0
 10
161.1552739806527939
 20
93.8039021430335254
 30
0.0
  0
VERTEX
  5
2967
  8
0
 10
161.1404582086782113
 20
93.8080613594950279
 30
0.0
  0
VERTEX
  5
2968
  8
0
 10
161.1258041889209949
 20
93.8123929254944642
 30
0.0
  0
VERTEX
  5
2969
  8
0
 10
161.1113136757815028
 20
93.816900388156256
 30
0.0
  0
VERTEX
  5
296A
  8
0
 10
161.0969884236604912
 20
93.8215872946048961
 30
0.0
  0
VERTEX
  5
296B
  8
0
 10
161.0828301723570064
 20
93.8264571822516871
 30
0.0
  0
VERTEX
  5
296C
  8
0
 10
161.0688403162334907
 20
93.8315133587127974
 30
0.0
  0
VERTEX
  5
296D
  8
0
 10
161.0550198987905901
 20
93.8367588982009124
 30
0.0
  0
VERTEX
  5
296E
  8
0
 10
161.0413699478432079
 20
93.8421968644936442
 30
0.0
  0
VERTEX
  5
296F
  8
0
 10
161.0278914912057076
 20
93.84783032136869
 30
0.0
  0
VERTEX
  5
2970
  8
0
 10
161.0145855545956977
 20
93.8536623303911171
 30
0.0
  0
VERTEX
  5
2971
  8
0
 10
161.0014529171064055
 20
93.8596956929208375
 30
0.0
  0
VERTEX
  5
2972
  8
0
 10
160.9884938826369023
 20
93.8659327089570752
 30
0.0
  0
VERTEX
  5
2973
  8
0
 10
160.9757087010150087
 20
93.8723756214497058
 30
0.0
  0
VERTEX
  5
2974
  8
0
 10
160.9630976220680907
 20
93.8790266733485907
 30
0.0
  0
VERTEX
  5
2975
  8
0
 10
160.9506608956230025
 20
93.8858881076026393
 30
0.0
  0
VERTEX
  5
2976
  8
0
 10
160.9383986285347987
 20
93.8929620007555883
 30
0.0
  0
VERTEX
  5
2977
  8
0
 10
160.9263103870250973
 20
93.9002498001071046
 30
0.0
  0
VERTEX
  5
2978
  8
0
 10
160.914395609548194
 20
93.9077528042480338
 30
0.0
  0
VERTEX
  5
2979
  8
0
 10
160.9026537345584131
 20
93.9154723117691503
 30
0.0
  0
VERTEX
  5
297A
  8
0
 10
160.8910842005097948
 20
93.9234096212613139
 30
0.0
  0
VERTEX
  5
297B
  8
0
 10
160.8796863823710055
 20
93.931565946675974
 30
0.0
  0
VERTEX
  5
297C
  8
0
 10
160.868459152254303
 20
93.9399418315548047
 30
0.0
  0
VERTEX
  5
297D
  8
0
 10
160.8574011430112023
 20
93.9485375004564958
 30
0.0
  0
VERTEX
  5
297E
  8
0
 10
160.846510986033195
 20
93.9573531759932052
 30
0.0
  0
VERTEX
  5
297F
  8
0
 10
160.8357873127120001
 20
93.9663890807771054
 30
0.0
  0
VERTEX
  5
2980
  8
0
 10
160.8252287380651921
 20
93.9756454104473562
 30
0.0
  0
VERTEX
  5
2981
  8
0
 10
160.8148335276409
 20
93.9851217849608958
 30
0.0
  0
VERTEX
  5
2982
  8
0
 10
160.8045996119591052
 20
93.9948172723809705
 30
0.0
  0
VERTEX
  5
2983
  8
0
 10
160.7945249080553083
 20
94.0047309185581526
 30
0.0
  0
VERTEX
  5
2984
  8
0
 10
160.7846073329652938
 20
94.014861769343014
 30
0.0
  0
VERTEX
  5
2985
  8
0
 10
160.7748448026461858
 20
94.0252088690266845
 30
0.0
  0
VERTEX
  5
2986
  8
0
 10
160.7652350353646966
 20
94.0357709760104967
 30
0.0
  0
VERTEX
  5
2987
  8
0
 10
160.7557753226076898
 20
94.0465462315102627
 30
0.0
  0
VERTEX
  5
2988
  8
0
 10
160.7464629002689094
 20
94.0575326963452056
 30
0.0
  0
VERTEX
  5
2989
  8
0
 10
160.737295004241588
 20
94.0687284313345344
 30
0.0
  0
VERTEX
  5
298A
  8
0
 10
160.7282688704194982
 20
94.0801314972974865
 30
0.0
  0
VERTEX
  5
298B
  8
0
 10
160.7193817205395021
 20
94.0917398162359717
 30
0.0
  0
VERTEX
  5
298C
  8
0
 10
160.7106306847840074
 20
94.1035504123713054
 30
0.0
  0
VERTEX
  5
298D
  8
0
 10
160.7020128569093913
 20
94.1155599527330082
 30
0.0
  0
VERTEX
  5
298E
  8
0
 10
160.6935253305786944
 20
94.1277651034356637
 30
0.0
  0
VERTEX
  5
298F
  8
0
 10
160.6851651994547865
 20
94.1401625305938552
 30
0.0
  0
VERTEX
  5
2990
  8
0
 10
160.6769295471594887
 20
94.1527489126325037
 30
0.0
  0
VERTEX
  5
2991
  8
0
 10
160.6688150175600072
 20
94.1655214670881975
 30
0.0
  0
VERTEX
  5
2992
  8
0
 10
160.6608176529296941
 20
94.1784781490157457
 30
0.0
  0
VERTEX
  5
2993
  8
0
 10
160.652933452132487
 20
94.1916169666870644
 30
0.0
  0
VERTEX
  5
2994
  8
0
 10
160.645158414032295
 20
94.2049359283739847
 30
0.0
  0
VERTEX
  5
2995
  8
0
 10
160.6374885374931978
 20
94.2184330423483942
 30
0.0
  0
VERTEX
  5
2996
  8
0
 10
160.6299198213791044
 20
94.2321063168821951
 30
0.0
  0
VERTEX
  5
2997
  8
0
 10
160.6224482645538103
 20
94.2459537602472466
 30
0.0
  0
VERTEX
  5
2998
  8
0
 10
160.6150698658813951
 20
94.2599733807153939
 30
0.0
  0
VERTEX
  5
2999
  8
0
 10
160.6077806242259953
 20
94.2741631865585532
 30
0.0
  0
VERTEX
  5
299A
  8
0
 10
160.6005765384514063
 20
94.2885211860486265
 30
0.0
  0
VERTEX
  5
299B
  8
0
 10
160.5934536090709912
 20
94.3030453843322647
 30
0.0
  0
VERTEX
  5
299C
  8
0
 10
160.5864081755418056
 20
94.3177331443976072
 30
0.0
  0
VERTEX
  5
299D
  8
0
 10
160.579437328331494
 20
94.3325804063752145
 30
0.0
  0
VERTEX
  5
299E
  8
0
 10
160.5725382587212948
 20
94.3475829193961175
 30
0.0
  0
VERTEX
  5
299F
  8
0
 10
160.5657081579919065
 20
94.3627364325913049
 30
0.0
  0
VERTEX
  5
29A0
  8
0
 10
160.5589442174245107
 20
94.3780366950918221
 30
0.0
  0
VERTEX
  5
29A1
  8
0
 10
160.552243628299891
 20
94.3934794560286576
 30
0.0
  0
VERTEX
  5
29A2
  8
0
 10
160.5456035818992859
 20
94.4090604645328568
 30
0.0
  0
VERTEX
  5
29A3
  8
0
 10
160.5390212695033938
 20
94.4247754697354225
 30
0.0
  0
VERTEX
  5
29A4
  8
0
 10
160.5324938823933962
 20
94.4406202207673431
 30
0.0
  0
VERTEX
  5
29A5
  8
0
 10
160.5260186118501053
 20
94.4565904667596783
 30
0.0
  0
VERTEX
  5
29A6
  8
0
 10
160.519592649154589
 20
94.4726819568434166
 30
0.0
  0
VERTEX
  5
29A7
  8
0
 10
160.5132131855880004
 20
94.4888904401495893
 30
0.0
  0
VERTEX
  5
29A8
  8
0
 10
160.5068766830665936
 20
94.5052095142956432
 30
0.0
  0
VERTEX
  5
29A9
  8
0
 10
160.5005742167130904
 20
94.5216168866769237
 30
0.0
  0
VERTEX
  5
29AA
  8
0
 10
160.4942944487054888
 20
94.5380831468711449
 30
0.0
  0
VERTEX
  5
29AB
  8
0
 10
160.4880260298708947
 20
94.5545788509717653
 30
0.0
  0
SEQEND
  5
29AC
  8
0
  0
POLYLINE
  5
2346
  8
0
 66
     1
 10
0.0
 20
0.0
 30
0.0
  0
VERTEX
  5
29AD
  8
0
 10
189.5119740121857888
 20
94.5545789630524354
 30
0.0
  0
VERTEX
  5
29AE
  8
0
 10
189.5034068693425127
 20
94.5322032167810136
 30
0.0
  0
VERTEX
  5
29AF
  8
0
 10
189.4948204895750052
 20
94.5098845598267587
 30
0.0
  0
VERTEX
  5
29B0
  8
0
 10
189.4861956359592909
 20
94.4876800815068378
 30
0.0
  0
VERTEX
  5
29B1
  8
0
 10
189.4775130715709963
 20
94.4656468711384747
 30
0.0
  0
VERTEX
  5
29B2
  8
0
 10
189.468753559486089
 20
94.4438420180387368
 30
0.0
  0
VERTEX
  5
29B3
  8
0
 10
189.4598992787350085
 20
94.4223147811394341
 30
0.0
  0
VERTEX
  5
29B4
  8
0
 10
189.4509407007190021
 20
94.401068561641992
 30
0.0
  0
VERTEX
  5
29B5
  8
0
 10
189.4418713064025042
 20
94.3800901175307416
 30
0.0
  0
VERTEX
  5
29B6
  8
0
 10
189.432684580984386
 20
94.3593661833740356
 30
0.0
  0
VERTEX
  5
29B7
  8
0
 10
189.4233739115447008
 20
94.338884667668367
 30
0.0
  0
VERTEX
  5
29B8
  8
0
 10
189.4139312496774039
 20
94.318650653639466
 30
0.0
  0
VERTEX
  5
29B9
  8
0
 10
189.4043474584032083
 20
94.2986822486309535
 30
0.0
  0
VERTEX
  5
29BA
  8
0
 10
189.3946133736760089
 20
94.2789978838268041
 30
0.0
  0
VERTEX
  5
29BB
  8
0
 10
189.3847198405271968
 20
94.2596154900614778
 30
0.0
  0
VERTEX
  5
29BC
  8
0
 10
189.3746578116735009
 20
94.2405470626655415
 30
0.0
  0
VERTEX
  5
29BD
  8
0
 10
189.364418310344206
 20
94.2218007103673187
 30
0.0
  0
VERTEX
  5
29BE
  8
0
 10
189.3539923609916968
 20
94.2033844744973976
 30
0.0
  0
VERTEX
  5
29BF
  8
0
 10
189.3433709545797967
 20
94.1853064094176062
 30
0.0
  0
VERTEX
  5
29C0
  8
0
 10
189.3325448628712877
 20
94.1675746547880408
 30
0.0
  0
VERTEX
  5
29C1
  8
0
 10
189.3215047694577038
 20
94.1501973845791014
 30
0.0
  0
VERTEX
  5
29C2
  8
0
 10
189.310241358133112
 20
94.1331827716932565
 30
0.0
  0
VERTEX
  5
29C3
  8
0
 10
189.2987457967005867
 20
94.1165377204108893
 30
0.0
  0
VERTEX
  5
29C4
  8
0
 10
189.2870106603600107
 20
94.1002654461231174
 30
0.0
  0
VERTEX
  5
29C5
  8
0
 10
189.27502877869901
 20
94.0843684974532266
 30
0.0
  0
VERTEX
  5
29C6
  8
0
 10
189.2627929333276882
 20
94.068849445881014
 30
0.0
  0
VERTEX
  5
29C7
  8
0
 10
189.250294428475712
 20
94.0537115667160464
 30
0.0
  0
VERTEX
  5
29C8
  8
0
 10
189.2375228475017934
 20
94.0389589550970442
 30
0.0
  0
VERTEX
  5
29C9
  8
0
 10
189.2244676767342071
 20
94.0245957523886773
 30
0.0
  0
VERTEX
  5
29CA
  8
0
 10
189.2111191130892962
 20
94.0106257663722147
 30
0.0
  0
VERTEX
  5
29CB
  8
0
 10
189.1974723262040072
 20
93.9970504704019589
 30
0.0
  0
VERTEX
  5
29CC
  8
0
 10
189.1835246098370078
 20
93.983870340670407
 30
0.0
  0
VERTEX
  5
29CD
  8
0
 10
189.169273265717294
 20
93.9710858496283663
 30
0.0
  0
VERTEX
  5
29CE
  8
0
 10
189.1547155955740891
 20
93.9586974697266868
 30
0.0
  0
VERTEX
  5
29CF
  8
0
 10
189.1398489011361903
 20
93.9467056734162327
 30
0.0
  0
VERTEX
  5
29D0
  8
0
 10
189.1246704841327073
 20
93.9351109331478256
 30
0.0
  0
VERTEX
  5
29D1
  8
0
 10
189.1091776462926077
 20
93.9239137213723154
 30
0.0
  0
VERTEX
  5
29D2
  8
0
 10
189.0933676893448876
 20
93.9131145105404954
 30
0.0
  0
VERTEX
  5
29D3
  8
0
 10
189.0772379150185998
 20
93.9027137731032866
 30
0.0
  0
VERTEX
  5
29D4
  8
0
 10
189.0607856250427972
 20
93.8927119815114679
 30
0.0
  0
VERTEX
  5
29D5
  8
0
 10
189.0440081214389068
 20
93.8831096077514786
 30
0.0
  0
VERTEX
  5
29D6
  8
0
 10
189.0269037446963978
 20
93.8739054739778993
 30
0.0
  0
VERTEX
  5
29D7
  8
0
 10
189.0094742047608918
 20
93.8650930492365205
 30
0.0
  0
VERTEX
  5
29D8
  8
0
 10
188.9917218937578127
 20
93.8566647187819569
 30
0.0
  0
VERTEX
  5
29D9
  8
0
 10
188.9736492038130962
 20
93.84861286786888
 30
0.0
  0
VERTEX
  5
29DA
  8
0
 10
188.9552585270519955
 20
93.8409298817519328
 30
0.0
  0
VERTEX
  5
29DB
  8
0
 10
188.9365522556005033
 20
93.8336081456857869
 30
0.0
  0
VERTEX
  5
29DC
  8
0
 10
188.9175327815841001
 20
93.8266400449250852
 30
0.0
  0
VERTEX
  5
29DD
  8
0
 10
188.898202497128409
 20
93.8200179647244852
 30
0.0
  0
VERTEX
  5
29DE
  8
0
 10
188.8785637943591951
 20
93.813734290338644
 30
0.0
  0
VERTEX
  5
29DF
  8
0
 10
188.8586190654021095
 20
93.8077814070222189
 30
0.0
  0
VERTEX
  5
29E0
  8
0
 10
188.8383707023826901
 20
93.802151700029853
 30
0.0
  0
VERTEX
  5
29E1
  8
0
 10
188.8178211645316082
 20
93.7968375215912147
 30
0.0
  0
VERTEX
  5
29E2
  8
0
 10
188.7969754725992004
 20
93.7918299633119119
 30
0.0
  0
VERTEX
  5
29E3
  8
0
 10
188.7758419477976872
 20
93.787118492511155
 30
0.0
  0
VERTEX
  5
29E4
  8
0
 10
188.7544291292147989
 20
93.7826924692829493
 30
0.0
  0
VERTEX
  5
29E5
  8
0
 10
188.732745555938493
 20
93.7785412537212721
 30
0.0
  0
VERTEX
  5
29E6
  8
0
 10
188.7107997670568125
 20
93.7746542059200863
 30
0.0
  0
VERTEX
  5
29E7
  8
0
 10
188.6886003016576012
 20
93.7710206859733546
 30
0.0
  0
VERTEX
  5
29E8
  8
0
 10
188.6661556988289874
 20
93.7676300539750827
 30
0.0
  0
VERTEX
  5
29E9
  8
0
 10
188.6434744976589002
 20
93.7644716700192191
 30
0.0
  0
VERTEX
  5
29EA
  8
0
 10
188.6205652372350983
 20
93.7615348941997553
 30
0.0
  0
VERTEX
  5
29EB
  8
0
 10
188.597436456645795
 20
93.7588090866106256
 30
0.0
  0
VERTEX
  5
29EC
  8
0
 10
188.574096694978806
 20
93.7562836073458357
 30
0.0
  0
VERTEX
  5
29ED
  8
0
 10
188.5505544886339919
 20
93.7539479201730046
 30
0.0
  0
VERTEX
  5
29EE
  8
0
 10
188.5268183479078061
 20
93.7517924955555912
 30
0.0
  0
VERTEX
  5
29EF
  8
0
 10
188.5028967684164911
 20
93.7498083701262033
 30
0.0
  0
VERTEX
  5
29F0
  8
0
 10
188.4787982456124098
 20
93.7479865868294553
 30
0.0
  0
VERTEX
  5
29F1
  8
0
 10
188.4545312749480956
 20
93.7463181886099477
 30
0.0
  0
VERTEX
  5
29F2
  8
0
 10
188.4301043518759116
 20
93.7447942184123093
 30
0.0
  0
VERTEX
  5
29F3
  8
0
 10
188.4055259765827941
 20
93.743405733563975
 30
0.0
  0
VERTEX
  5
29F4
  8
0
 10
188.38080538197039
 20
93.7421460173460162
 30
0.0
  0
VERTEX
  5
29F5
  8
0
 10
188.3559533192718902
 20
93.7410129656592659
 30
0.0
  0
VERTEX
  5
29F6
  8
0
 10
188.3309807282456063
 20
93.7400050471349147
 30
0.0
  0
VERTEX
  5
29F7
  8
0
 10
188.3058985486497932
 20
93.7391207304041245
 30
0.0
  0
VERTEX
  5
29F8
  8
0
 10
188.2807177202425919
 20
93.7383584840981285
 30
0.0
  0
VERTEX
  5
29F9
  8
0
 10
188.2554491827823995
 20
93.737716776848103
 30
0.0
  0
VERTEX
  5
29FA
  8
0
 10
188.2301038764649945
 20
93.7371938291634734
 30
0.0
  0
VERTEX
  5
29FB
  8
0
 10
188.2046927546612949
 20
93.736780391433399
 30
0.0
  0
VERTEX
  5
29FC
  8
0
 10
188.1792267859187007
 20
93.7364586090925371
 30
0.0
  0
VERTEX
  5
29FD
  8
0
 10
188.1537169396247862
 20
93.7362101510631049
 30
0.0
  0
VERTEX
  5
29FE
  8
0
 10
188.1281741851676088
 20
93.736016686267206
 30
0.0
  0
VERTEX
  5
29FF
  8
0
 10
188.1026094919347997
 20
93.7358598836270005
 30
0.0
  0
VERTEX
  5
2A00
  8
0
 10
188.0770338293143027
 20
93.7357214120646347
 30
0.0
  0
SEQEND
  5
2A01
  8
0
  0
POLYLINE
  5
2347
  8
0
 66
     1
 10
0.0
 20
0.0
 30
0.0
  0
VERTEX
  5
2A02
  8
0
 10
175.0000000000007105
 20
117.3205080756904977
 30
0.0
  0
VERTEX
  5
2A03
  8
0
 10
174.9070126731035941
 20
117.2668340778450045
 30
0.0
  0
VERTEX
  5
2A04
  8
0
 10
174.8140140590348039
 20
117.2131532653698969
 30
0.0
  0
VERTEX
  5
2A05
  8
0
 10
174.7209928706222968
 20
117.1594588236356032
 30
0.0
  0
VERTEX
  5
2A06
  8
0
 10
174.6279378206945125
 20
117.1057439380123952
 30
0.0
  0
VERTEX
  5
2A07
  8
0
 10
174.534837622079408
 20
117.0520017938709998
 30
0.0
  0
VERTEX
  5
2A08
  8
0
 10
174.4416809876053946
 20
116.998225576581504
 30
0.0
  0
VERTEX
  5
2A09
  8
0
 10
174.3484566301005998
 20
116.944408471514393
 30
0.0
  0
VERTEX
  5
2A0A
  8
0
 10
174.2551532623932076
 20
116.8905436640401945
 30
0.0
  0
VERTEX
  5
2A0B
  8
0
 10
174.1617595973114874
 20
116.8366243395291946
 30
0.0
  0
VERTEX
  5
2A0C
  8
0
 10
174.0682643476835096
 20
116.7826436833517931
 30
0.0
  0
VERTEX
  5
2A0D
  8
0
 10
173.9746562263376006
 20
116.7285948808784042
 30
0.0
  0
VERTEX
  5
2A0E
  8
0
 10
173.8809239461018876
 20
116.6744711174794986
 30
0.0
  0
VERTEX
  5
2A0F
  8
0
 10
173.7870562198046116
 20
116.6202655785253057
 30
0.0
  0
VERTEX
  5
2A10
  8
0
 10
173.6930417602740135
 20
116.5659714493863959
 30
0.0
  0
VERTEX
  5
2A11
  8
0
 10
173.5988692803381923
 20
116.5115819154331973
 30
0.0
  0
VERTEX
  5
2A12
  8
0
 10
173.5045274928253889
 20
116.4570901620359962
 30
0.0
  0
VERTEX
  5
2A13
  8
0
 10
173.4100150837415981
 20
116.402495395871
 30
0.0
  0
SEQEND
  5
2A14
  8
0
  0
POLYLINE
  5
2348
  8
0
 66
     1
 10
0.0
 20
0.0
 30
0.0
  0
VERTEX
  5
2A15
  8
0
 10
174.9999999999984084
 20
82.6794919243106818
 30
0.0
  0
VERTEX
  5
2A16
  8
0
 10
175.0942958459193051
 20
82.7339214129729612
 30
0.0
  0
VERTEX
  5
2A17
  8
0
 10
175.1886032971549128
 20
82.78835790834367
 30
0.0
  0
VERTEX
  5
2A18
  8
0
 10
175.282933959020113
 20
82.8428084171312094
 30
0.0
  0
VERTEX
  5
2A19
  8
0
 10
175.377299436829702
 20
82.8972799460439944
 30
0.0
  0
VERTEX
  5
2A1A
  8
0
 10
175.4717113358983909
 20
82.9517795017904689
 30
0.0
  0
VERTEX
  5
2A1B
  8
0
 10
175.5661812615410895
 20
83.0063140910790196
 30
0.0
  0
VERTEX
  5
2A1C
  8
0
 10
175.6607208190725089
 20
83.060890720618076
 30
0.0
  0
VERTEX
  5
2A1D
  8
0
 10
175.7553416138075022
 20
83.1155163971160533
 30
0.0
  0
VERTEX
  5
2A1E
  8
0
 10
175.8500552510608088
 20
83.1701981272813669
 30
0.0
  0
VERTEX
  5
2A1F
  8
0
 10
175.9448733361471113
 20
83.2249429178224318
 30
0.0
  0
VERTEX
  5
2A20
  8
0
 10
176.039807474381405
 20
83.2797577754476634
 30
0.0
  0
VERTEX
  5
2A21
  8
0
 10
176.1348692710782871
 20
83.3346497068654912
 30
0.0
  0
VERTEX
  5
2A22
  8
0
 10
176.230070331552696
 20
83.3896257187843162
 30
0.0
  0
VERTEX
  5
2A23
  8
0
 10
176.3254222611193995
 20
83.4446928179125536
 30
0.0
  0
VERTEX
  5
2A24
  8
0
 10
176.4209366650931088
 20
83.4998580109586044
 30
0.0
  0
VERTEX
  5
2A25
  8
0
 10
176.5166251487887052
 20
83.555128304630955
 30
0.0
  0
VERTEX
  5
2A26
  8
0
 10
176.6124790361106989
 20
83.6104984607371762
 30
0.0
  0
SEQEND
  5
2A27
  8
0
  0
POLYLINE
  5
2349
  8
0
 66
     1
 10
0.0
 20
0.0
 30
0.0
  0
VERTEX
  5
2A28
  8
0
 10
190.0000000036874894
 20
108.6602540195351025
 30
0.0
  0
VERTEX
  5
2A29
  8
0
 10
189.9092088771784006
 20
108.7126845900155985
 30
0.0
  0
VERTEX
  5
2A2A
  8
0
 10
189.8184067388837093
 20
108.765121233942395
 30
0.0
  0
VERTEX
  5
2A2B
  8
0
 10
189.727582577018012
 20
108.8175700247619062
 30
0.0
  0
VERTEX
  5
2A2C
  8
0
 10
189.6367253797957915
 20
108.8700370359203049
 30
0.0
  0
VERTEX
  5
2A2D
  8
0
 10
189.5458241354315021
 20
108.9225283408640053
 30
0.0
  0
VERTEX
  5
2A2E
  8
0
 10
189.4548678321397119
 20
108.9750500130393931
 30
0.0
  0
VERTEX
  5
2A2F
  8
0
 10
189.3638454581347901
 20
109.0276081258927974
 30
0.0
  0
VERTEX
  5
2A30
  8
0
 10
189.2727460016313898
 20
109.080208752870405
 30
0.0
  0
VERTEX
  5
2A31
  8
0
 10
189.1815584508439088
 20
109.1328579674186017
 30
0.0
  0
VERTEX
  5
2A32
  8
0
 10
189.0902717939868012
 20
109.1855618429838017
 30
0.0
  0
VERTEX
  5
2A33
  8
0
 10
188.9988750192746068
 20
109.2383264530122062
 30
0.0
  0
VERTEX
  5
2A34
  8
0
 10
188.9073571149218083
 20
109.291157870950201
 30
0.0
  0
VERTEX
  5
2A35
  8
0
 10
188.8157070691430022
 20
109.3440621702441007
 30
0.0
  0
VERTEX
  5
2A36
  8
0
 10
188.7239138701523871
 20
109.3970454243403054
 30
0.0
  0
VERTEX
  5
2A37
  8
0
 10
188.6319665061647868
 20
109.4501137066850021
 30
0.0
  0
VERTEX
  5
2A38
  8
0
 10
188.5398539653945136
 20
109.5032730907246048
 30
0.0
  0
VERTEX
  5
2A39
  8
0
 10
188.4475660845452012
 20
109.5565291819293066
 30
0.0
  0
SEQEND
  5
2A3A
  8
0
  0
POLYLINE
  5
234A
  8
0
 66
     1
 10
0.0
 20
0.0
 30
0.0
  0
VERTEX
  5
2A3B
  8
0
 10
159.9999999955950898
 20
91.3397459840207233
 30
0.0
  0
VERTEX
  5
2A3C
  8
0
 10
160.0944682382452129
 20
91.2851924771939878
 30
0.0
  0
VERTEX
  5
2A3D
  8
0
 10
160.1889483974111101
 20
91.2306323979257741
 30
0.0
  0
VERTEX
  5
2A3E
  8
0
 10
160.2834523896084136
 20
91.1760591737745472
 30
0.0
  0
VERTEX
  5
2A3F
  8
0
 10
160.3779921313526131
 20
91.1214662322988431
 30
0.0
  0
VERTEX
  5
2A40
  8
0
 10
160.4725795391595966
 20
91.0668470010571554
 30
0.0
  0
VERTEX
  5
2A41
  8
0
 10
160.5672265295449961
 20
91.0121949076080341
 30
0.0
  0
VERTEX
  5
2A42
  8
0
 10
160.6619450190243867
 20
90.9575033795099444
 30
0.0
  0
VERTEX
  5
2A43
  8
0
 10
160.7567469241137132
 20
90.9027658443214079
 30
0.0
  0
VERTEX
  5
2A44
  8
0
 10
160.851644161328295
 20
90.8479757296009325
 30
0.0
  0
VERTEX
  5
2A45
  8
0
 10
160.9466486471841051
 20
90.7931264629069972
 30
0.0
  0
VERTEX
  5
2A46
  8
0
 10
161.0417722981966904
 20
90.7382114717981665
 30
0.0
  0
VERTEX
  5
2A47
  8
0
 10
161.1370270308817112
 20
90.6832241838328912
 30
0.0
  0
VERTEX
  5
2A48
  8
0
 10
161.2324247617549133
 20
90.6281580265696931
 30
0.0
  0
VERTEX
  5
2A49
  8
0
 10
161.3279774073319004
 20
90.5730064275671367
 30
0.0
  0
VERTEX
  5
2A4A
  8
0
 10
161.4236968841285034
 20
90.5177628143836159
 30
0.0
  0
VERTEX
  5
2A4B
  8
0
 10
161.5195951086602975
 20
90.4624206145777521
 30
0.0
  0
VERTEX
  5
2A4C
  8
0
 10
161.6156614825978863
 20
90.4069856735577275
 30
0.0
  0
SEQEND
  5
2A4D
  8
0
  0
POLYLINE
  5
234B
  8
0
 66
     1
 10
0.0
 20
0.0
 30
0.0
  0
VERTEX
  5
2A4E
  8
0
 10
141.0000000000003979
 20
105.4454211491797935
 30
0.0
  0
VERTEX
  5
2A4F
  8
0
 10
141.0096101002328055
 20
105.4695300750894944
 30
0.0
  0
VERTEX
  5
2A50
  8
0
 10
141.0193601284051113
 20
105.4935650682493957
 30
0.0
  0
VERTEX
  5
2A51
  8
0
 10
141.0293900124572133
 20
105.5174521959098968
 30
0.0
  0
VERTEX
  5
2A52
  8
0
 10
141.0398396803288108
 20
105.5411175253210985
 30
0.0
  0
VERTEX
  5
2A53
  8
0
 10
141.0508467000248061
 20
105.5644881076624984
 30
0.0
  0
VERTEX
  5
2A54
  8
0
 10
141.0624577990961939
 20
105.5875288682829023
 30
0.0
  0
VERTEX
  5
2A55
  8
0
 10
141.0746022193324904
 20
105.6102537159455039
 30
0.0
  0
VERTEX
  5
2A56
  8
0
 10
141.0872014027623038
 20
105.6326798113730945
 30
0.0
  0
VERTEX
  5
2A57
  8
0
 10
141.1001794988987967
 20
105.6548231822063997
 30
0.0
  0
VERTEX
  5
2A58
  8
0
 10
141.1135075275336987
 20
105.6766802408814954
 30
0.0
  0
VERTEX
  5
2A59
  8
0
 10
141.1271961455838095
 20
105.6982308117035956
 30
0.0
  0
VERTEX
  5
2A5A
  8
0
 10
141.141257256329709
 20
105.7194541972720003
 30
0.0
  0
VERTEX
  5
2A5B
  8
0
 10
141.1556970392780954
 20
105.7403317568946051
 30
0.0
  0
VERTEX
  5
2A5C
  8
0
 10
141.1705032066267052
 20
105.7608514856893009
 30
0.0
  0
VERTEX
  5
2A5D
  8
0
 10
141.1856597531530042
 20
105.7810027145447975
 30
0.0
  0
VERTEX
  5
2A5E
  8
0
 10
141.2011507633336862
 20
105.8007747728768067
 30
0.0
  0
VERTEX
  5
2A5F
  8
0
 10
141.2169613555199135
 20
105.8201569731250942
 30
0.0
  0
VERTEX
  5
2A60
  8
0
 10
141.2330773108882056
 20
105.8391386168460002
 30
0.0
  0
VERTEX
  5
2A61
  8
0
 10
141.2494843601733123
 20
105.8577090532660065
 30
0.0
  0
VERTEX
  5
2A62
  8
0
 10
141.2661643796712951
 20
105.8758606401409992
 30
0.0
  0
VERTEX
  5
2A63
  8
0
 10
141.2830931676531065
 20
105.8935904793464999
 30
0.0
  0
VERTEX
  5
2A64
  8
0
 10
141.300245987288605
 20
105.9108960904273999
 30
0.0
  0
VERTEX
  5
2A65
  8
0
 10
141.3176011636037117
 20
105.9277728755907049
 30
0.0
  0
VERTEX
  5
2A66
  8
0
 10
141.3351483842897096
 20
105.9442083795193952
 30
0.0
  0
VERTEX
  5
2A67
  8
0
 10
141.3528799722795952
 20
105.9601883245714049
 30
0.0
  0
VERTEX
  5
2A68
  8
0
 10
141.370787002315808
 20
105.9756995474782997
 30
0.0
  0
VERTEX
  5
2A69
  8
0
 10
141.3888494960268076
 20
105.9907387530969061
 30
0.0
  0
VERTEX
  5
2A6A
  8
0
 10
141.4070417026406972
 20
106.0053077998339006
 30
0.0
  0
VERTEX
  5
2A6B
  8
0
 10
141.4253378212017083
 20
106.0194085908992037
 30
0.0
  0
VERTEX
  5
2A6C
  8
0
 10
141.4437120507543
 20
106.0330430295028066
 30
0.0
  0
VERTEX
  5
2A6D
  8
0
 10
141.4621385903427893
 20
106.0462130188549992
 30
0.0
  0
VERTEX
  5
2A6E
  8
0
 10
141.4805916390116067
 20
106.0589204621658013
 30
0.0
  0
VERTEX
  5
2A6F
  8
0
 10
141.4990453958050978
 20
106.0711672626451048
 30
0.0
  0
VERTEX
  5
2A70
  8
0
 10
141.5174740597676077
 20
106.0829553235031
 30
0.0
  0
VERTEX
  5
2A71
  8
0
 10
141.5358518299435104
 20
106.0942865479499062
 30
0.0
  0
VERTEX
  5
2A72
  8
0
 10
141.5541529053772081
 20
106.1051628391955006
 30
0.0
  0
VERTEX
  5
2A73
  8
0
 10
141.5723514851129039
 20
106.115586100449903
 30
0.0
  0
VERTEX
  5
2A74
  8
0
 10
141.5904217681951991
 20
106.1255582349234032
 30
0.0
  0
VERTEX
  5
2A75
  8
0
 10
141.6083379536684106
 20
106.1350811458257937
 30
0.0
  0
VERTEX
  5
2A76
  8
0
 10
141.6260747916649052
 20
106.1441575104348942
 30
0.0
  0
VERTEX
  5
2A77
  8
0
 10
141.6436109391594869
 20
106.1527954936452005
 30
0.0
  0
VERTEX
  5
2A78
  8
0
 10
141.6609267412588906
 20
106.1610056315295054
 30
0.0
  0
VERTEX
  5
2A79
  8
0
 10
141.6780025497733106
 20
106.1687984695767
 30
0.0
  0
VERTEX
  5
2A7A
  8
0
 10
141.6948187165131117
 20
106.176184553276002
 30
0.0
  0
VERTEX
  5
2A7B
  8
0
 10
141.7113555932884879
 20
106.1831744281162031
 30
0.0
  0
VERTEX
  5
2A7C
  8
0
 10
141.7275935319100029
 20
106.1897786395863932
 30
0.0
  0
VERTEX
  5
2A7D
  8
0
 10
141.7435128841875951
 20
106.1960077331754064
 30
0.0
  0
VERTEX
  5
2A7E
  8
0
 10
141.7590940019319135
 20
106.2018722543724039
 30
0.0
  0
VERTEX
  5
2A7F
  8
0
 10
141.7743172369528963
 20
106.2073827486662054
 30
0.0
  0
VERTEX
  5
2A80
  8
0
 10
141.7891629410611927
 20
106.2125497615458016
 30
0.0
  0
VERTEX
  5
2A81
  8
0
 10
141.8036114660669114
 20
106.2173838385002966
 30
0.0
  0
VERTEX
  5
2A82
  8
0
 10
141.8176431637803887
 20
106.2218955250184962
 30
0.0
  0
VERTEX
  5
2A83
  8
0
 10
141.8312383860119894
 20
106.2260953665896039
 30
0.0
  0
VERTEX
  5
2A84
  8
0
 10
141.8443779816986989
 20
106.2299940160933005
 30
0.0
  0
VERTEX
  5
2A85
  8
0
 10
141.8570492143408899
 20
106.2336035121042954
 30
0.0
  0
VERTEX
  5
2A86
  8
0
 10
141.8692438090673988
 20
106.2369368570123953
 30
0.0
  0
VERTEX
  5
2A87
  8
0
 10
141.8809535813360014
 20
106.2400070727208004
 30
0.0
  0
VERTEX
  5
2A88
  8
0
 10
141.8921703466045017
 20
106.242827181132597
 30
0.0
  0
VERTEX
  5
2A89
  8
0
 10
141.9028859203305046
 20
106.2454102041509003
 30
0.0
  0
VERTEX
  5
2A8A
  8
0
 10
141.9130921179720133
 20
106.2477691636786972
 30
0.0
  0
VERTEX
  5
2A8B
  8
0
 10
141.9227807549864906
 20
106.2499170816191025
 30
0.0
  0
VERTEX
  5
2A8C
  8
0
 10
141.9319436468319964
 20
106.2518669798753024
 30
0.0
  0
VERTEX
  5
2A8D
  8
0
 10
141.9405726089661925
 20
106.2536318803502979
 30
0.0
  0
VERTEX
  5
2A8E
  8
0
 10
141.9486594568469116
 20
106.2552248049472041
 30
0.0
  0
VERTEX
  5
2A8F
  8
0
 10
141.9561960059317869
 20
106.2566587755690932
 30
0.0
  0
VERTEX
  5
2A90
  8
0
 10
141.9631740716787078
 20
106.2579468141190944
 30
0.0
  0
VERTEX
  5
2A91
  8
0
 10
141.9695854695453079
 20
106.2591019425002941
 30
0.0
  0
VERTEX
  5
2A92
  8
0
 10
141.9754213003488985
 20
106.2601367607739036
 30
0.0
  0
VERTEX
  5
2A93
  8
0
 10
141.9806580191659009
 20
106.2610552238332957
 30
0.0
  0
VERTEX
  5
2A94
  8
0
 10
141.9852583662099903
 20
106.2618531908884023
 30
0.0
  0
VERTEX
  5
2A95
  8
0
 10
141.9891845534816923
 20
106.2625262093524015
 30
0.0
  0
VERTEX
  5
2A96
  8
0
 10
141.9923987929817031
 20
106.2630698266384996
 30
0.0
  0
VERTEX
  5
2A97
  8
0
 10
141.9948772623311868
 20
106.2634819128645063
 30
0.0
  0
VERTEX
  5
2A98
  8
0
 10
141.9967171492961882
 20
106.2637804640585983
 30
0.0
  0
VERTEX
  5
2A99
  8
0
 10
141.9980777197912971
 20
106.2639938008317984
 30
0.0
  0
VERTEX
  5
2A9A
  8
0
 10
141.9991187459731918
 20
106.264150327991004
 30
0.0
  0
VERTEX
  5
2A9B
  8
0
 10
141.9999999999984084
 20
106.2642784503431983
 30
0.0
  0
SEQEND
  5
2A9C
  8
0
  0
POLYLINE
  5
234C
  8
0
 66
     1
 10
0.0
 20
0.0
 30
0.0
  0
VERTEX
  5
2A9D
  8
0
 10
141.9999999999996021
 20
93.735721549658706
 30
0.0
  0
VERTEX
  5
2A9E
  8
0
 10
141.9995148292084082
 20
93.7357868119107565
 30
0.0
  0
VERTEX
  5
2A9F
  8
0
 10
141.9989669191458859
 20
93.7358622624608557
 30
0.0
  0
VERTEX
  5
2AA0
  8
0
 10
141.998293530540991
 20
93.735958089607081
 30
0.0
  0
VERTEX
  5
2AA1
  8
0
 10
141.9974319241225942
 20
93.7360844816474952
 30
0.0
  0
VERTEX
  5
2AA2
  8
0
 10
141.9963193606193101
 20
93.7362516268801329
 30
0.0
  0
VERTEX
  5
2AA3
  8
0
 10
141.9948935476585063
 20
93.7364696564700637
 30
0.0
  0
VERTEX
  5
2AA4
  8
0
 10
141.9931208472686137
 20
93.7367450383068501
 30
0.0
  0
VERTEX
  5
2AA5
  8
0
 10
141.9910131277073049
 20
93.7370784226099119
 30
0.0
  0
VERTEX
  5
2AA6
  8
0
 10
141.988586302207608
 20
93.7374699424754567
 30
0.0
  0
VERTEX
  5
2AA7
  8
0
 10
141.9858562840018976
 20
93.7379197309996499
 30
0.0
  0
VERTEX
  5
2AA8
  8
0
 10
141.9828389863230882
 20
93.7384279212786851
 30
0.0
  0
VERTEX
  5
2AA9
  8
0
 10
141.9795503223814137
 20
93.7389946464120669
 30
0.0
  0
VERTEX
  5
2AAA
  8
0
 10
141.9760030813392859
 20
93.739620500383765
 30
0.0
  0
VERTEX
  5
2AAB
  8
0
 10
141.9721982725010037
 20
93.7403078150368856
 30
0.0
  0
VERTEX
  5
2AAC
  8
0
 10
141.9681341291341994
 20
93.7410593317574552
 30
0.0
  0
VERTEX
  5
2AAD
  8
0
 10
141.9638088845069888
 20
93.7418777919316142
 30
0.0
  0
VERTEX
  5
2AAE
  8
0
 10
141.9592207718874874
 20
93.7427659369454176
 30
0.0
  0
VERTEX
  5
2AAF
  8
0
 10
141.9543680245436121
 20
93.7437265081849773
 30
0.0
  0
VERTEX
  5
2AB0
  8
0
 10
141.9492489191459015
 20
93.7447622450583964
 30
0.0
  0
VERTEX
  5
2AB1
  8
0
 10
141.9438638172395031
 20
93.7458757919595058
 30
0.0
  0
VERTEX
  5
2AB2
  8
0
 10
141.9382160441963947
 20
93.7470696582113305
 30
0.0
  0
VERTEX
  5
2AB3
  8
0
 10
141.9323091514289956
 20
93.7483463428355037
 30
0.0
  0
VERTEX
  5
2AB4
  8
0
 10
141.9261466903498956
 20
93.749708344853687
 30
0.0
  0
VERTEX
  5
2AB5
  8
0
 10
141.9197322123717981
 20
93.7511581632874567
 30
0.0
  0
VERTEX
  5
2AB6
  8
0
 10
141.9130692689070088
 20
93.7526982971584744
 30
0.0
  0
VERTEX
  5
2AB7
  8
0
 10
141.9061613897598022
 20
93.7543312697563209
 30
0.0
  0
VERTEX
  5
2AB8
  8
0
 10
141.899011831180502
 20
93.7560599115938942
 30
0.0
  0
VERTEX
  5
2AB9
  8
0
 10
141.8916236617023117
 20
93.7578872640057739
 30
0.0
  0
VERTEX
  5
2ABA
  8
0
 10
141.8839999461841046
 20
93.7598163724528746
 30
0.0
  0
VERTEX
  5
2ABB
  8
0
 10
141.8761437494848963
 20
93.761850282396253
 30
0.0
  0
VERTEX
  5
2ABC
  8
0
 10
141.8680581364637874
 20
93.7639920392968378
 30
0.0
  0
VERTEX
  5
2ABD
  8
0
 10
141.8597461729540044
 20
93.7662446900047257
 30
0.0
  0
VERTEX
  5
2ABE
  8
0
 10
141.8512115036064927
 20
93.7686121067162901
 30
0.0
  0
VERTEX
  5
2ABF
  8
0
 10
141.8424593281364139
 20
93.7711003790191882
 30
0.0
  0
VERTEX
  5
2AC0
  8
0
 10
141.8334951047206971
 20
93.7737159650465486
 30
0.0
  0
VERTEX
  5
2AC1
  8
0
 10
141.8243242915364135
 20
93.7764653229314291
 30
0.0
  0
VERTEX
  5
2AC2
  8
0
 10
141.8149523467606059
 20
93.7793549108069868
 30
0.0
  0
VERTEX
  5
2AC3
  8
0
 10
141.8053847284909921
 20
93.7823911856184367
 30
0.0
  0
VERTEX
  5
2AC4
  8
0
 10
141.7956268338903953
 20
93.7855796919069888
 30
0.0
  0
VERTEX
  5
2AC5
  8
0
 10
141.7856838904704091
 20
93.7889234339461382
 30
0.0
  0
VERTEX
  5
2AC6
  8
0
 10
141.7755610964516961
 20
93.7924249774266912
 30
0.0
  0
VERTEX
  5
2AC7
  8
0
 10
141.7652636500552887
 20
93.7960868880394401
 30
0.0
  0
VERTEX
  5
2AC8
  8
0
 10
141.7547967495017076
 20
93.7999117314751771
 30
0.0
  0
VERTEX
  5
2AC9
  8
0
 10
141.744165668947403
 20
93.8039021430335254
 30
0.0
  0
VERTEX
  5
2ACA
  8
0
 10
141.7333763386978944
 20
93.8080613594950563
 30
0.0
  0
VERTEX
  5
2ACB
  8
0
 10
141.7224350248935139
 20
93.8123929254944784
 30
0.0
  0
VERTEX
  5
2ACC
  8
0
 10
141.7113479963906002
 20
93.8169003881562702
 30
0.0
  0
VERTEX
  5
2ACD
  8
0
 10
141.7001215220454924
 20
93.8215872946048961
 30
0.0
  0
VERTEX
  5
2ACE
  8
0
 10
141.6887618847495958
 20
93.8264571822516871
 30
0.0
  0
VERTEX
  5
2ACF
  8
0
 10
141.6772756994378994
 20
93.8315133587128258
 30
0.0
  0
VERTEX
  5
2AD0
  8
0
 10
141.6656699183025125
 20
93.8367588982009266
 30
0.0
  0
VERTEX
  5
2AD1
  8
0
 10
141.6539515086136873
 20
93.8421968644936584
 30
0.0
  0
VERTEX
  5
2AD2
  8
0
 10
141.6421274376419035
 20
93.8478303213687042
 30
0.0
  0
VERTEX
  5
2AD3
  8
0
 10
141.6302046738024956
 20
93.8536623303911171
 30
0.0
  0
VERTEX
  5
2AD4
  8
0
 10
141.6181903202098056
 20
93.8596956929208659
 30
0.0
  0
VERTEX
  5
2AD5
  8
0
 10
141.6060917395139995
 20
93.8659327089570752
 30
0.0
  0
VERTEX
  5
2AD6
  8
0
 10
141.593916323897389
 20
93.8723756214497342
 30
0.0
  0
VERTEX
  5
2AD7
  8
0
 10
141.5816714655423993
 20
93.879026673348605
 30
0.0
  0
VERTEX
  5
2AD8
  8
0
 10
141.5693645566317116
 20
93.8858881076026535
 30
0.0
  0
VERTEX
  5
2AD9
  8
0
 10
141.5570030240351969
 20
93.8929620007556167
 30
0.0
  0
VERTEX
  5
2ADA
  8
0
 10
141.544594425790109
 20
93.9002498001071189
 30
0.0
  0
VERTEX
  5
2ADB
  8
0
 10
141.5321463509322086
 20
93.9077528042480338
 30
0.0
  0
VERTEX
  5
2ADC
  8
0
 10
141.5196663884973134
 20
93.9154723117691645
 30
0.0
  0
VERTEX
  5
2ADD
  8
0
 10
141.5071621275210987
 20
93.9234096212613139
 30
0.0
  0
VERTEX
  5
2ADE
  8
0
 10
141.4946411515043962
 20
93.9315659466759882
 30
0.0
  0
VERTEX
  5
2ADF
  8
0
 10
141.4821110001061015
 20
93.9399418315548189
 30
0.0
  0
VERTEX
  5
2AE0
  8
0
 10
141.4695791921247121
 20
93.94853750045651
 30
0.0
  0
VERTEX
  5
2AE1
  8
0
 10
141.4570532462317942
 20
93.9573531759932337
 30
0.0
  0
VERTEX
  5
2AE2
  8
0
 10
141.4445406810986015
 20
93.9663890807771054
 30
0.0
  0
VERTEX
  5
2AE3
  8
0
 10
141.4320490015620919
 20
93.9756454104473562
 30
0.0
  0
VERTEX
  5
2AE4
  8
0
 10
141.4195854171871929
 20
93.9851217849608958
 30
0.0
  0
VERTEX
  5
2AE5
  8
0
 10
141.4071568544684965
 20
93.9948172723809847
 30
0.0
  0
VERTEX
  5
2AE6
  8
0
 10
141.3947702285076957
 20
94.0047309185581668
 30
0.0
  0
VERTEX
  5
2AE7
  8
0
 10
141.3824324544063984
 20
94.0148617693430282
 30
0.0
  0
VERTEX
  5
2AE8
  8
0
 10
141.3701504467755967
 20
94.0252088690266845
 30
0.0
  0
VERTEX
  5
2AE9
  8
0
 10
141.3579310302949921
 20
94.0357709760105109
 30
0.0
  0
VERTEX
  5
2AEA
  8
0
 10
141.3457808354980045
 20
94.0465462315102769
 30
0.0
  0
VERTEX
  5
2AEB
  8
0
 10
141.3337064676277919
 20
94.0575326963452056
 30
0.0
  0
VERTEX
  5
2AEC
  8
0
 10
141.3217145319277961
 20
94.0687284313345344
 30
0.0
  0
VERTEX
  5
2AED
  8
0
 10
141.3098116336414023
 20
94.0801314972975007
 30
0.0
  0
VERTEX
  5
2AEE
  8
0
 10
141.2980040761119085
 20
94.0917398162359859
 30
0.0
  0
VERTEX
  5
2AEF
  8
0
 10
141.2862962101893913
 20
94.1035504123713338
 30
0.0
  0
VERTEX
  5
2AF0
  8
0
 10
141.2746916099029022
 20
94.1155599527330367
 30
0.0
  0
VERTEX
  5
2AF1
  8
0
 10
141.2631938472918876
 20
94.1277651034356921
 30
0.0
  0
VERTEX
  5
2AF2
  8
0
 10
141.2518064943957086
 20
94.1401625305938836
 30
0.0
  0
VERTEX
  5
2AF3
  8
0
 10
141.2405331502534125
 20
94.1527489126325037
 30
0.0
  0
VERTEX
  5
2AF4
  8
0
 10
141.2293785963209132
 20
94.1655214670882259
 30
0.0
  0
VERTEX
  5
2AF5
  8
0
 10
141.2183492316293041
 20
94.1784781490157741
 30
0.0
  0
VERTEX
  5
2AF6
  8
0
 10
141.2074515719291128
 20
94.1916169666870644
 30
0.0
  0
VERTEX
  5
2AF7
  8
0
 10
141.19669213297081
 20
94.2049359283739989
 30
0.0
  0
VERTEX
  5
2AF8
  8
0
 10
141.1860774305046959
 20
94.2184330423484226
 30
0.0
  0
VERTEX
  5
2AF9
  8
0
 10
141.1756139802814118
 20
94.2321063168821951
 30
0.0
  0
VERTEX
  5
2AFA
  8
0
 10
141.1653082980512863
 20
94.2459537602472466
 30
0.0
  0
VERTEX
  5
2AFB
  8
0
 10
141.1551668995649038
 20
94.2599733807154081
 30
0.0
  0
VERTEX
  5
2AFC
  8
0
 10
141.1451963005725929
 20
94.2741631865585816
 30
0.0
  0
VERTEX
  5
2AFD
  8
0
 10
141.1354030168249096
 20
94.2885211860486265
 30
0.0
  0
VERTEX
  5
2AFE
  8
0
 10
141.1257935606627996
 20
94.3030453843322789
 30
0.0
  0
VERTEX
  5
2AFF
  8
0
 10
141.1163737438509997
 20
94.3177331443976215
 30
0.0
  0
VERTEX
  5
2B00
  8
0
 10
141.1071478258585898
 20
94.3325804063752287
 30
0.0
  0
VERTEX
  5
2B01
  8
0
 10
141.0981198577794089
 20
94.3475829193961459
 30
0.0
  0
VERTEX
  5
2B02
  8
0
 10
141.0892938907074949
 20
94.3627364325913192
 30
0.0
  0
VERTEX
  5
2B03
  8
0
 10
141.080673975736886
 20
94.3780366950918364
 30
0.0
  0
VERTEX
  5
2B04
  8
0
 10
141.0722641639615915
 20
94.3934794560286861
 30
0.0
  0
VERTEX
  5
2B05
  8
0
 10
141.0640685064755928
 20
94.409060464532871
 30
0.0
  0
VERTEX
  5
2B06
  8
0
 10
141.0560910543730984
 20
94.4247754697354367
 30
0.0
  0
VERTEX
  5
2B07
  8
0
 10
141.0483358587478051
 20
94.4406202207673715
 30
0.0
  0
VERTEX
  5
2B08
  8
0
 10
141.0408069706938932
 20
94.4565904667596783
 30
0.0
  0
VERTEX
  5
2B09
  8
0
 10
141.0335084413052869
 20
94.4726819568434451
 30
0.0
  0
VERTEX
  5
2B0A
  8
0
 10
141.0264443216761094
 20
94.4888904401496035
 30
0.0
  0
VERTEX
  5
2B0B
  8
0
 10
141.019612939878499
 20
94.5052095142956716
 30
0.0
  0
VERTEX
  5
2B0C
  8
0
 10
141.0129703560241126
 20
94.5216168866769522
 30
0.0
  0
VERTEX
  5
2B0D
  8
0
 10
141.0064536968438915
 20
94.5380831468711449
 30
0.0
  0
VERTEX
  5
2B0E
  8
0
 10
141.0000000000007105
 20
94.5545788509717795
 30
0.0
  0
SEQEND
  5
2B0F
  8
0
  0
POLYLINE
  5
234D
  8
0
 66
     1
 10
0.0
 20
0.0
 30
0.0
  0
VERTEX
  5
2B10
  8
0
 10
141.0000000000003979
 20
100.4454211491587046
 30
0.0
  0
VERTEX
  5
2B11
  8
0
 10
141.0070653660835092
 20
100.4631482375347957
 30
0.0
  0
VERTEX
  5
2B12
  8
0
 10
141.0141832677749107
 20
100.4808507655896932
 30
0.0
  0
VERTEX
  5
2B13
  8
0
 10
141.0214062406824951
 20
100.4985041730022033
 30
0.0
  0
VERTEX
  5
2B14
  8
0
 10
141.0287868204142967
 20
100.5160838994512034
 30
0.0
  0
VERTEX
  5
2B15
  8
0
 10
141.0363775425788049
 20
100.5335653846154003
 30
0.0
  0
VERTEX
  5
2B16
  8
0
 10
141.044230942783912
 20
100.5509240681737992
 30
0.0
  0
VERTEX
  5
2B17
  8
0
 10
141.0523952932759073
 20
100.5681368408862966
 30
0.0
  0
VERTEX
  5
2B18
  8
0
 10
141.060878463491207
 20
100.5851943450458066
 30
0.0
  0
VERTEX
  5
2B19
  8
0
 10
141.0696660348498881
 20
100.6020948089123976
 30
0.0
  0
VERTEX
  5
2B1A
  8
0
 10
141.0787433553238088
 20
100.6188365402028069
 30
0.0
  0
VERTEX
  5
2B1B
  8
0
 10
141.0880957728851115
 20
100.6354178466333025
 30
0.0
  0
VERTEX
  5
2B1C
  8
0
 10
141.0977086356340067
 20
100.6518370359228953
 30
0.0
  0
VERTEX
  5
2B1D
  8
0
 10
141.1075687039896138
 20
100.668092440848099
 30
0.0
  0
VERTEX
  5
2B1E
  8
0
 10
141.1176676456327073
 20
100.6841824812503035
 30
0.0
  0
VERTEX
  5
2B1F
  8
0
 10
141.1279981933718091
 20
100.7001055958688056
 30
0.0
  0
VERTEX
  5
2B20
  8
0
 10
141.1385530800152139
 20
100.7158602234429026
 30
0.0
  0
VERTEX
  5
2B21
  8
0
 10
141.1493250383711029
 20
100.7314448027117066
 30
0.0
  0
VERTEX
  5
2B22
  8
0
 10
141.1603068483831862
 20
100.7468576810308036
 30
0.0
  0
VERTEX
  5
2B23
  8
0
 10
141.1714916880407031
 20
100.7620964340419931
 30
0.0
  0
VERTEX
  5
2B24
  8
0
 10
141.1828729352228038
 20
100.7771582498490943
 30
0.0
  0
VERTEX
  5
2B25
  8
0
 10
141.1944439693153868
 20
100.7920403136348995
 30
0.0
  0
VERTEX
  5
2B26
  8
0
 10
141.2061981697044075
 20
100.8067398105819024
 30
0.0
  0
VERTEX
  5
2B27
  8
0
 10
141.2181291386606858
 20
100.8212536635013947
 30
0.0
  0
VERTEX
  5
2B28
  8
0
 10
141.2302329235652962
 20
100.8355759169168948
 30
0.0
  0
VERTEX
  5
2B29
  8
0
 10
141.2425070826539866
 20
100.8496988368328999
 30
0.0
  0
VERTEX
  5
2B2A
  8
0
 10
141.2549491965120865
 20
100.8636146629448973
 30
0.0
  0
VERTEX
  5
2B2B
  8
0
 10
141.2675568457248119
 20
100.8773156349482036
 30
0.0
  0
VERTEX
  5
2B2C
  8
0
 10
141.2803271734238137
 20
100.8907942194570069
 30
0.0
  0
VERTEX
  5
2B2D
  8
0
 10
141.2932540000165886
 20
100.9040446066685064
 30
0.0
  0
VERTEX
  5
2B2E
  8
0
 10
141.3063296208308941
 20
100.9170617778782031
 30
0.0
  0
VERTEX
  5
2B2F
  8
0
 10
141.3195463231984945
 20
100.9298407185292064
 30
0.0
  0
VERTEX
  5
2B30
  8
0
 10
141.3328963943766041
 20
100.9423764141043023
 30
0.0
  0
VERTEX
  5
2B31
  8
0
 10
141.3463717816667042
 20
100.9546640289340047
 30
0.0
  0
VERTEX
  5
2B32
  8
0
 10
141.3599633101032964
 20
100.9666993177659009
 30
0.0
  0
VERTEX
  5
2B33
  8
0
 10
141.3736615734613906
 20
100.9784781570110965
 30
0.0
  0
VERTEX
  5
2B34
  8
0
 10
141.3874571655163095
 20
100.9899964230810951
 30
0.0
  0
VERTEX
  5
2B35
  8
0
 10
141.4013406470546954
 20
101.0012500267794024
 30
0.0
  0
VERTEX
  5
2B36
  8
0
 10
141.4153016710100133
 20
101.0122358254010067
 30
0.0
  0
VERTEX
  5
2B37
  8
0
 10
141.4293288909680086
 20
101.0229517181208934
 30
0.0
  0
VERTEX
  5
2B38
  8
0
 10
141.4434109091741902
 20
101.033395657639403
 30
0.0
  0
VERTEX
  5
2B39
  8
0
 10
141.4575363278740952
 20
101.043565596656407
 30
0.0
  0
VERTEX
  5
2B3A
  8
0
 10
141.47169361193599
 20
101.0534598071658934
 30
0.0
  0
VERTEX
  5
2B3B
  8
0
 10
141.485870593919401
 20
101.0630780307816963
 30
0.0
  0
VERTEX
  5
2B3C
  8
0
 10
141.5000549245795014
 20
101.0724204316693999
 30
0.0
  0
VERTEX
  5
2B3D
  8
0
 10
141.5142342546550083
 20
101.0814871740323042
 30
0.0
  0
VERTEX
  5
2B3E
  8
0
 10
141.5283962376084048
 20
101.0902784576402951
 30
0.0
  0
VERTEX
  5
2B3F
  8
0
 10
141.5425285886647941
 20
101.0987952888463042
 30
0.0
  0
VERTEX
  5
2B40
  8
0
 10
141.5566190843292986
 20
101.107039474276803
 30
0.0
  0
VERTEX
  5
2B41
  8
0
 10
141.5706555037336045
 20
101.1150128548629965
 30
0.0
  0
VERTEX
  5
2B42
  8
0
 10
141.5846256259914924
 20
101.1227172718558052
 30
0.0
  0
VERTEX
  5
2B43
  8
0
 10
141.5985171929598039
 20
101.130155228785199
 30
0.0
  0
VERTEX
  5
2B44
  8
0
 10
141.6123178308291131
 20
101.1373312852579005
 30
0.0
  0
VERTEX
  5
2B45
  8
0
 10
141.626015143410001
 20
101.1442503987055943
 30
0.0
  0
VERTEX
  5
2B46
  8
0
 10
141.6395967345129918
 20
101.1509175265600931
 30
0.0
  0
VERTEX
  5
2B47
  8
0
 10
141.6530504248916884
 20
101.157337415646893
 30
0.0
  0
VERTEX
  5
2B48
  8
0
 10
141.6663664695327896
 20
101.1635124496622069
 30
0.0
  0
VERTEX
  5
2B49
  8
0
 10
141.6795366532186904
 20
101.1694435271916035
 30
0.0
  0
VERTEX
  5
2B4A
  8
0
 10
141.6925527844614976
 20
101.1751315237841027
 30
0.0
  0
VERTEX
  5
2B4B
  8
0
 10
141.7054066655772999
 20
101.1805773313625991
 30
0.0
  0
VERTEX
  5
2B4C
  8
0
 10
141.7180894103917126
 20
101.1857836613095003
 30
0.0
  0
VERTEX
  5
2B4D
  8
0
 10
141.7305908273064006
 20
101.1907566748220972
 30
0.0
  0
VERTEX
  5
2B4E
  8
0
 10
141.7429005790735062
 20
101.1955029180033989
 30
0.0
  0
VERTEX
  5
2B4F
  8
0
 10
141.7550083284450011
 20
101.2000289369564001
 30
0.0
  0
VERTEX
  5
2B50
  8
0
 10
141.7669037381729993
 20
101.2043412777840956
 30
0.0
  0
VERTEX
  5
2B51
  8
0
 10
141.7785764710095009
 20
101.2084464865893949
 30
0.0
  0
VERTEX
  5
2B52
  8
0
 10
141.7900161897065914
 20
101.2123511094750938
 30
0.0
  0
VERTEX
  5
2B53
  8
0
 10
141.8012125570162141
 20
101.2160616925444998
 30
0.0
  0
VERTEX
  5
2B54
  8
0
 10
141.8121552356903976
 20
101.2195847819001955
 30
0.0
  0
VERTEX
  5
2B55
  8
0
 10
141.8228338884813127
 20
101.222926923645403
 30
0.0
  0
VERTEX
  5
2B56
  8
0
 10
141.8332391255682978
 20
101.2260945579683948
 30
0.0
  0
VERTEX
  5
2B57
  8
0
 10
141.8433670210021091
 20
101.2290935142417965
 30
0.0
  0
VERTEX
  5
2B58
  8
0
 10
141.853215603361491
 20
101.2319294033380004
 30
0.0
  0
VERTEX
  5
2B59
  8
0
 10
141.8627829036923913
 20
101.2346078358535948
 30
0.0
  0
VERTEX
  5
2B5A
  8
0
 10
141.8720669530405019
 20
101.2371344223853953
 30
0.0
  0
VERTEX
  5
2B5B
  8
0
 10
141.8810657824515999
 20
101.2395147735299048
 30
0.0
  0
VERTEX
  5
2B5C
  8
0
 10
141.8897774229716049
 20
101.2417544998836973
 30
0.0
  0
VERTEX
  5
2B5D
  8
0
 10
141.8981999056462087
 20
101.2438592120437022
 30
0.0
  0
VERTEX
  5
2B5E
  8
0
 10
141.9063312615213022
 20
101.2458345206061949
 30
0.0
  0
VERTEX
  5
2B5F
  8
0
 10
141.9141695216426911
 20
101.2476860361681048
 30
0.0
  0
VERTEX
  5
2B60
  8
0
 10
141.9217127149341025
 20
101.2494193687277999
 30
0.0
  0
VERTEX
  5
2B61
  8
0
 10
141.9289561691990116
 20
101.2510393668297013
 30
0.0
  0
VERTEX
  5
2B62
  8
0
 10
141.9358872221484091
 20
101.2525486265870995
 30
0.0
  0
VERTEX
  5
2B63
  8
0
 10
141.9424917411460001
 20
101.2539493296178961
 30
0.0
  0
VERTEX
  5
2B64
  8
0
 10
141.9487555935554894
 20
101.255243657540106
 30
0.0
  0
VERTEX
  5
2B65
  8
0
 10
141.9546646467406106
 20
101.2564337919716024
 30
0.0
  0
VERTEX
  5
2B66
  8
0
 10
141.9602047680648127
 20
101.2575219145303009
 30
0.0
  0
VERTEX
  5
2B67
  8
0
 10
141.965361824891886
 20
101.2585102068342024
 30
0.0
  0
VERTEX
  5
2B68
  8
0
 10
141.9701216845853935
 20
101.2594008505010947
 30
0.0
  0
VERTEX
  5
2B69
  8
0
 10
141.9744702145090116
 20
101.2601960271489929
 30
0.0
  0
VERTEX
  5
2B6A
  8
0
 10
141.9783932820263885
 20
101.2608979183957985
 30
0.0
  0
VERTEX
  5
2B6B
  8
0
 10
141.9818770882868932
 20
101.2615087435013947
 30
0.0
  0
VERTEX
  5
2B6C
  8
0
 10
141.98492890831659
 20
101.262033098288498
 30
0.0
  0
VERTEX
  5
2B6D
  8
0
 10
141.9875892981804952
 20
101.2624793317799998
 30
0.0
  0
VERTEX
  5
2B6E
  8
0
 10
141.989901750119202
 20
101.2628561241198071
 30
0.0
  0
VERTEX
  5
2B6F
  8
0
 10
141.9919097563733885
 20
101.2631721554517981
 30
0.0
  0
VERTEX
  5
2B70
  8
0
 10
141.9936568091837046
 20
101.2634361059199932
 30
0.0
  0
VERTEX
  5
2B71
  8
0
 10
141.9951864007908
 20
101.2636566556683988
 30
0.0
  0
VERTEX
  5
2B72
  8
0
 10
141.9965420234352962
 20
101.2638424848410068
 30
0.0
  0
VERTEX
  5
2B73
  8
0
 10
141.9977671693577008
 20
101.2640022735816956
 30
0.0
  0
VERTEX
  5
2B74
  8
0
 10
141.9989053307990048
 20
101.2641447020344998
 30
0.0
  0
VERTEX
  5
2B75
  8
0
 10
141.9999999999996021
 20
101.2642784503432978
 30
0.0
  0
SEQEND
  5
2B76
  8
0
  0
POLYLINE
  5
234E
  8
0
 66
     1
 10
0.0
 20
0.0
 30
0.0
  0
VERTEX
  5
2B77
  8
0
 10
141.9999999999996021
 20
103.7357215496581944
 30
0.0
  0
VERTEX
  5
2B78
  8
0
 10
141.9994746445075862
 20
103.7357700335901001
 30
0.0
  0
VERTEX
  5
2B79
  8
0
 10
141.9988875894717921
 20
103.7358274882486029
 30
0.0
  0
VERTEX
  5
2B7A
  8
0
 10
141.9981771353481008
 20
103.7359028843604989
 30
0.0
  0
VERTEX
  5
2B7B
  8
0
 10
141.997281582592791
 20
103.7360051926524989
 30
0.0
  0
VERTEX
  5
2B7C
  8
0
 10
141.996139231661914
 20
103.7361433838512994
 30
0.0
  0
VERTEX
  5
2B7D
  8
0
 10
141.9946883830116064
 20
103.7363264286835971
 30
0.0
  0
VERTEX
  5
2B7E
  8
0
 10
141.9928778152807922
 20
103.7365623528625065
 30
0.0
  0
VERTEX
  5
2B7F
  8
0
 10
141.9907076914765867
 20
103.7368545478131949
 30
0.0
  0
VERTEX
  5
2B80
  8
0
 10
141.9881939005034042
 20
103.7372049866626043
 30
0.0
  0
VERTEX
  5
2B81
  8
0
 10
141.9853523352848867
 20
103.7376156421752
 30
0.0
  0
VERTEX
  5
2B82
  8
0
 10
141.9821988887443922
 20
103.7380884871158031
 30
0.0
  0
VERTEX
  5
2B83
  8
0
 10
141.978749453805392
 20
103.7386254942487938
 30
0.0
  0
VERTEX
  5
2B84
  8
0
 10
141.9750183384788045
 20
103.7392288116427039
 30
0.0
  0
VERTEX
  5
2B85
  8
0
 10
141.9710073831915054
 20
103.7399019663791933
 30
0.0
  0
VERTEX
  5
2B86
  8
0
 10
141.9667125310106996
 20
103.7406491378345947
 30
0.0
  0
VERTEX
  5
2B87
  8
0
 10
141.9621296898748142
 20
103.7414745092707022
 30
0.0
  0
VERTEX
  5
2B88
  8
0
 10
141.9572547677219063
 20
103.7423822639492954
 30
0.0
  0
VERTEX
  5
2B89
  8
0
 10
141.9520836724902892
 20
103.7433765851323955
 30
0.0
  0
VERTEX
  5
2B8A
  8
0
 10
141.9466125232102911
 20
103.7444616579996932
 30
0.0
  0
VERTEX
  5
2B8B
  8
0
 10
141.9408407181761049
 20
103.745641697525798
 30
0.0
  0
VERTEX
  5
2B8C
  8
0
 10
141.9347702432573897
 20
103.7469209421957999
 30
0.0
  0
VERTEX
  5
2B8D
  8
0
 10
141.9284031546397955
 20
103.7483036311334956
 30
0.0
  0
VERTEX
  5
2B8E
  8
0
 10
141.9217415085092
 20
103.7497940034628954
 30
0.0
  0
VERTEX
  5
2B8F
  8
0
 10
141.9147873610515092
 20
103.7513962983076965
 30
0.0
  0
VERTEX
  5
2B90
  8
0
 10
141.907542765718091
 20
103.7531147632824968
 30
0.0
  0
VERTEX
  5
2B91
  8
0
 10
141.9000096704920111
 20
103.7549539734951054
 30
0.0
  0
VERTEX
  5
2B92
  8
0
 10
141.8921898868262872
 20
103.7569189279953008
 30
0.0
  0
VERTEX
  5
2B93
  8
0
 10
141.8840852170976063
 20
103.7590146540170934
 30
0.0
  0
VERTEX
  5
2B94
  8
0
 10
141.8756974636823998
 20
103.7612461787943943
 30
0.0
  0
VERTEX
  5
2B95
  8
0
 10
141.8670284289574113
 20
103.7636185295610005
 30
0.0
  0
VERTEX
  5
2B96
  8
0
 10
141.8580799207738039
 20
103.7661367348157029
 30
0.0
  0
VERTEX
  5
2B97
  8
0
 10
141.8488544544021011
 20
103.7688059865114951
 30
0.0
  0
VERTEX
  5
2B98
  8
0
 10
141.8393559439178944
 20
103.7716317998048936
 30
0.0
  0
VERTEX
  5
2B99
  8
0
 10
141.829588467639411
 20
103.7746197278017064
 30
0.0
  0
VERTEX
  5
2B9A
  8
0
 10
141.8195561038849917
 20
103.7777753236078979
 30
0.0
  0
VERTEX
  5
2B9B
  8
0
 10
141.8092629309732047
 20
103.7811041403294041
 30
0.0
  0
VERTEX
  5
2B9C
  8
0
 10
141.7987130282884891
 20
103.7846117311250964
 30
0.0
  0
VERTEX
  5
2B9D
  8
0
 10
141.7879111012572082
 20
103.7883036803393964
 30
0.0
  0
VERTEX
  5
2B9E
  8
0
 10
141.7768635343196024
 20
103.792185655953304
 30
0.0
  0
VERTEX
  5
2B9F
  8
0
 10
141.7655769904594081
 20
103.7962633398233976
 30
0.0
  0
VERTEX
  5
2BA0
  8
0
 10
141.7540581326601909
 20
103.8005424138058999
 30
0.0
  0
VERTEX
  5
2BA1
  8
0
 10
141.7423136239054031
 20
103.8050285597573037
 30
0.0
  0
VERTEX
  5
2BA2
  8
0
 10
141.7303501274483892
 20
103.8097274594678936
 30
0.0
  0
VERTEX
  5
2BA3
  8
0
 10
141.7181750051612994
 20
103.8146446234389941
 30
0.0
  0
VERTEX
  5
2BA4
  8
0
 10
141.7057978303326138
 20
103.8197850199723007
 30
0.0
  0
VERTEX
  5
2BA5
  8
0
 10
141.6932286127718044
 20
103.8251535103424033
 30
0.0
  0
VERTEX
  5
2BA6
  8
0
 10
141.6804773622887126
 20
103.8307549558233944
 30
0.0
  0
VERTEX
  5
2BA7
  8
0
 10
141.6675540886928957
 20
103.8365942176901058
 30
0.0
  0
VERTEX
  5
2BA8
  8
0
 10
141.6544688018761917
 20
103.8426761571605965
 30
0.0
  0
VERTEX
  5
2BA9
  8
0
 10
141.6412321295354104
 20
103.8490052135666986
 30
0.0
  0
VERTEX
  5
2BAA
  8
0
 10
141.6278568035376111
 20
103.8555843893436048
 30
0.0
  0
VERTEX
  5
2BAB
  8
0
 10
141.6143560033193864
 20
103.8624163812903021
 30
0.0
  0
VERTEX
  5
2BAC
  8
0
 10
141.6007429083173861
 20
103.869503886205905
 30
0.0
  0
VERTEX
  5
2BAD
  8
0
 10
141.587030697968089
 20
103.876849600889301
 30
0.0
  0
VERTEX
  5
2BAE
  8
0
 10
141.5732325517093955
 20
103.884456222137004
 30
0.0
  0
VERTEX
  5
2BAF
  8
0
 10
141.5593619039524071
 20
103.8923258540175993
 30
0.0
  0
VERTEX
  5
2BB0
  8
0
 10
141.5454331598392912
 20
103.9004583439763962
 30
0.0
  0
VERTEX
  5
2BB1
  8
0
 10
141.5314609554908998
 20
103.9088530025105968
 30
0.0
  0
VERTEX
  5
2BB2
  8
0
 10
141.5174599270281988
 20
103.9175091401169055
 30
0.0
  0
VERTEX
  5
2BB3
  8
0
 10
141.5034447105720972
 20
103.9264260672924962
 30
0.0
  0
VERTEX
  5
2BB4
  8
0
 10
141.4894299422435893
 20
103.9356030945343008
 30
0.0
  0
VERTEX
  5
2BB5
  8
0
 10
141.4754301247548938
 20
103.9450391152324045
 30
0.0
  0
VERTEX
  5
2BB6
  8
0
 10
141.4614590254483062
 20
103.9547307236182974
 30
0.0
  0
VERTEX
  5
2BB7
  8
0
 10
141.4475301596569921
 20
103.9646737260081011
 30
0.0
  0
VERTEX
  5
2BB8
  8
0
 10
141.4336570424902106
 20
103.9748639280184932
 30
0.0
  0
VERTEX
  5
2BB9
  8
0
 10
141.4198531890575907
 20
103.985297135265796
 30
0.0
  0
VERTEX
  5
2BBA
  8
0
 10
141.4061321144683063
 20
103.9959691533669002
 30
0.0
  0
VERTEX
  5
2BBB
  8
0
 10
141.3925071244852916
 20
104.0068756583197995
 30
0.0
  0
VERTEX
  5
2BBC
  8
0
 10
141.3789881971046043
 20
104.0180102657155032
 30
0.0
  0
VERTEX
  5
2BBD
  8
0
 10
141.3655826448778896
 20
104.0293649408182972
 30
0.0
  0
VERTEX
  5
2BBE
  8
0
 10
141.3522977055231991
 20
104.0409316025586008
 30
0.0
  0
VERTEX
  5
2BBF
  8
0
 10
141.3391406167584989
 20
104.052702169867203
 30
0.0
  0
VERTEX
  5
2BC0
  8
0
 10
141.3261186163018124
 20
104.0646685616745941
 30
0.0
  0
VERTEX
  5
2BC1
  8
0
 10
141.3132389418711057
 20
104.0768226969112931
 30
0.0
  0
VERTEX
  5
2BC2
  8
0
 10
141.3005090429307984
 20
104.0891573555419996
 30
0.0
  0
VERTEX
  5
2BC3
  8
0
 10
141.2879372473190926
 20
104.101668889302502
 30
0.0
  0
VERTEX
  5
2BC4
  8
0
 10
141.2755321106029101
 20
104.1143545759541951
 30
0.0
  0
VERTEX
  5
2BC5
  8
0
 10
141.2633021883499111
 20
104.1272116932598948
 30
0.0
  0
VERTEX
  5
2BC6
  8
0
 10
141.251256036127586
 20
104.1402375189826017
 30
0.0
  0
VERTEX
  5
2BC7
  8
0
 10
141.2394022095033961
 20
104.1534293308851034
 30
0.0
  0
VERTEX
  5
2BC8
  8
0
 10
141.227749260065309
 20
104.166784404709702
 30
0.0
  0
VERTEX
  5
2BC9
  8
0
 10
141.2163040346233061
 20
104.180299150657703
 30
0.0
  0
VERTEX
  5
2BCA
  8
0
 10
141.2050690273898965
 20
104.1939677690511985
 30
0.0
  0
VERTEX
  5
2BCB
  8
0
 10
141.1940460479248998
 20
104.2077841126040028
 30
0.0
  0
VERTEX
  5
2BCC
  8
0
 10
141.1832369057889025
 20
104.2217420340302994
 30
0.0
  0
VERTEX
  5
2BCD
  8
0
 10
141.1726434105420083
 20
104.2358353860440019
 30
0.0
  0
VERTEX
  5
2BCE
  8
0
 10
141.1622673717442922
 20
104.2500580213591945
 30
0.0
  0
VERTEX
  5
2BCF
  8
0
 10
141.1521105989561988
 20
104.2644037926899045
 30
0.0
  0
VERTEX
  5
2BD0
  8
0
 10
141.1421742539428976
 20
104.2788666737602057
 30
0.0
  0
VERTEX
  5
2BD1
  8
0
 10
141.1324560884980883
 20
104.2934412752875062
 30
0.0
  0
VERTEX
  5
2BD2
  8
0
 10
141.1229527363786929
 20
104.308122416841897
 30
0.0
  0
VERTEX
  5
2BD3
  8
0
 10
141.1136608306900087
 20
104.3229049181152988
 30
0.0
  0
VERTEX
  5
2BD4
  8
0
 10
141.1045770045365941
 20
104.3377835987997031
 30
0.0
  0
VERTEX
  5
2BD5
  8
0
 10
141.0956978910236899
 20
104.3527532785870022
 30
0.0
  0
VERTEX
  5
2BD6
  8
0
 10
141.0870201232561953
 20
104.3678087771691025
 30
0.0
  0
VERTEX
  5
2BD7
  8
0
 10
141.078540334365897
 20
104.3829449142486965
 30
0.0
  0
VERTEX
  5
2BD8
  8
0
 10
141.0702590479662888
 20
104.3981580537661955
 30
0.0
  0
VERTEX
  5
2BD9
  8
0
 10
141.0621914684658975
 20
104.4134503868692008
 30
0.0
  0
VERTEX
  5
2BDA
  8
0
 10
141.0543562625281879
 20
104.4288254789685055
 30
0.0
  0
VERTEX
  5
2BDB
  8
0
 10
141.046772096816909
 20
104.4442868954748036
 30
0.0
  0
VERTEX
  5
2BDC
  8
0
 10
141.0394576379958096
 20
104.4598382017990019
 30
0.0
  0
VERTEX
  5
2BDD
  8
0
 10
141.0324246496448097
 20
104.4754809831927957
 30
0.0
  0
VERTEX
  5
2BDE
  8
0
 10
141.0256407406473897
 20
104.4912041590733054
 30
0.0
  0
VERTEX
  5
2BDF
  8
0
 10
141.0190561287182902
 20
104.5069916601772064
 30
0.0
  0
VERTEX
  5
2BE0
  8
0
 10
141.0126209895904026
 20
104.5228274051986972
 30
0.0
  0
VERTEX
  5
2BE1
  8
0
 10
141.0062854989965899
 20
104.538695312831905
 30
0.0
  0
VERTEX
  5
2BE2
  8
0
 10
140.9999998326698858
 20
104.5545793017709002
 30
0.0
  0
SEQEND
  5
2BE3
  8
0
  0
POLYLINE
  5
234F
  8
0
 66
     1
 10
0.0
 20
0.0
 30
0.0
  0
VERTEX
  5
2BE4
  8
0
 10
141.9999999999996021
 20
98.7357215496585923
 30
0.0
  0
VERTEX
  5
2BE5
  8
0
 10
141.9995054486473123
 20
98.7357682384961066
 30
0.0
  0
VERTEX
  5
2BE6
  8
0
 10
141.9989480679562917
 20
98.7358240045962958
 30
0.0
  0
VERTEX
  5
2BE7
  8
0
 10
141.9982650285874968
 20
98.73589792522192
 30
0.0
  0
VERTEX
  5
2BE8
  8
0
 10
141.9973935012021968
 20
98.735999077635654
 30
0.0
  0
VERTEX
  5
2BE9
  8
0
 10
141.9962706564614052
 20
98.7361365391002295
 30
0.0
  0
VERTEX
  5
2BEA
  8
0
 10
141.9948337916405876
 20
98.736319374969014
 30
0.0
  0
VERTEX
  5
2BEB
  8
0
 10
141.9930435044670958
 20
98.7365544589521136
 30
0.0
  0
VERTEX
  5
2BEC
  8
0
 10
141.990910738858986
 20
98.7368439291912239
 30
0.0
  0
VERTEX
  5
2BED
  8
0
 10
141.9884530037440982
 20
98.7371893063223638
 30
0.0
  0
VERTEX
  5
2BEE
  8
0
 10
141.9856878080504998
 20
98.7375921109815238
 30
0.0
  0
VERTEX
  5
2BEF
  8
0
 10
141.9826326607060878
 20
98.7380538638048364
 30
0.0
  0
VERTEX
  5
2BF0
  8
0
 10
141.9793049710596904
 20
98.7385760950594857
 30
0.0
  0
VERTEX
  5
2BF1
  8
0
 10
141.9757150174509093
 20
98.7391610247166369
 30
0.0
  0
VERTEX
  5
2BF2
  8
0
 10
141.9718613034254986
 20
98.7398120115934717
 30
0.0
  0
VERTEX
  5
2BF3
  8
0
 10
141.9677412303259985
 20
98.7405325211111915
 30
0.0
  0
VERTEX
  5
2BF4
  8
0
 10
141.9633521994950911
 20
98.7413260186909412
 30
0.0
  0
VERTEX
  5
2BF5
  8
0
 10
141.9586916122750893
 20
98.742195969753908
 30
0.0
  0
VERTEX
  5
2BF6
  8
0
 10
141.9537569063228091
 20
98.7431458372154935
 30
0.0
  0
VERTEX
  5
2BF7
  8
0
 10
141.9485478024564031
 20
98.7441789264479439
 30
0.0
  0
VERTEX
  5
2BF8
  8
0
 10
141.9430676217193081
 20
98.7452982944000865
 30
0.0
  0
VERTEX
  5
2BF9
  8
0
 10
141.9373200021314005
 20
98.7465069761486234
 30
0.0
  0
VERTEX
  5
2BFA
  8
0
 10
141.9313085817126989
 20
98.7478080067702848
 30
0.0
  0
VERTEX
  5
2BFB
  8
0
 10
141.9250369984831934
 20
98.7492044213418438
 30
0.0
  0
VERTEX
  5
2BFC
  8
0
 10
141.9185088879492014
 20
98.7506992560362846
 30
0.0
  0
VERTEX
  5
2BFD
  8
0
 10
141.911727679538501
 20
98.752295636909821
 30
0.0
  0
VERTEX
  5
2BFE
  8
0
 10
141.9046964466286909
 20
98.7539968453131962
 30
0.0
  0
VERTEX
  5
2BFF
  8
0
 10
141.8974182272486075
 20
98.7558061780148932
 30
0.0
  0
VERTEX
  5
2C00
  8
0
 10
141.8898960594268885
 20
98.7577269317833952
 30
0.0
  0
VERTEX
  5
2C01
  8
0
 10
141.8821329811925125
 20
98.759762403387171
 30
0.0
  0
VERTEX
  5
2C02
  8
0
 10
141.8741320334704028
 20
98.7619158898274208
 30
0.0
  0
VERTEX
  5
2C03
  8
0
 10
141.8658966666193919
 20
98.7641907209899443
 30
0.0
  0
VERTEX
  5
2C04
  8
0
 10
141.8574311600432907
 20
98.7665902933476048
 30
0.0
  0
VERTEX
  5
2C05
  8
0
 10
141.8487398933008024
 20
98.7691180114173761
 30
0.0
  0
VERTEX
  5
2C06
  8
0
 10
141.839827245950687
 20
98.7717772797163036
 30
0.0
  0
VERTEX
  5
2C07
  8
0
 10
141.8306975975517901
 20
98.7745715027614324
 30
0.0
  0
VERTEX
  5
2C08
  8
0
 10
141.8213553285214061
 20
98.7775040851549022
 30
0.0
  0
VERTEX
  5
2C09
  8
0
 10
141.8118050719151029
 20
98.7805784565600504
 30
0.0
  0
VERTEX
  5
2C0A
  8
0
 10
141.8020520638910966
 20
98.7837981064665627
 30
0.0
  0
VERTEX
  5
2C0B
  8
0
 10
141.7921016286950078
 20
98.7871665331020949
 30
0.0
  0
VERTEX
  5
2C0C
  8
0
 10
141.7819590905720872
 20
98.7906872346943885
 30
0.0
  0
VERTEX
  5
2C0D
  8
0
 10
141.7716297737680122
 20
98.794363709471142
 30
0.0
  0
VERTEX
  5
2C0E
  8
0
 10
141.7611190030262946
 20
98.7981994556845535
 30
0.0
  0
VERTEX
  5
2C0F
  8
0
 10
141.7504323974218892
 20
98.8021979860500608
 30
0.0
  0
VERTEX
  5
2C10
  8
0
 10
141.7395763661079116
 20
98.8063628521071848
 30
0.0
  0
VERTEX
  5
2C11
  8
0
 10
141.7285574494339073
 20
98.8106976118422438
 30
0.0
  0
VERTEX
  5
2C12
  8
0
 10
141.7173821877491093
 20
98.8152058232416692
 30
0.0
  0
VERTEX
  5
2C13
  8
0
 10
141.7060571214028073
 20
98.8198910442918645
 30
0.0
  0
VERTEX
  5
2C14
  8
0
 10
141.6945887910821114
 20
98.8247568328298343
 30
0.0
  0
VERTEX
  5
2C15
  8
0
 10
141.682983984963613
 20
98.8298066372916253
 30
0.0
  0
VERTEX
  5
2C16
  8
0
 10
141.6712501759481881
 20
98.83504360343575
 30
0.0
  0
VERTEX
  5
2C17
  8
0
 10
141.6593949543683095
 20
98.8404708251108843
 30
0.0
  0
VERTEX
  5
2C18
  8
0
 10
141.6474259105559952
 20
98.8460913961657468
 30
0.0
  0
VERTEX
  5
2C19
  8
0
 10
141.6353506348438032
 20
98.8519084104491128
 30
0.0
  0
VERTEX
  5
2C1A
  8
0
 10
141.6231767184908108
 20
98.857924962051726
 30
0.0
  0
VERTEX
  5
2C1B
  8
0
 10
141.6109121646528024
 20
98.8641442525807435
 30
0.0
  0
VERTEX
  5
2C1C
  8
0
 10
141.5985660344535972
 20
98.8705697598028337
 30
0.0
  0
VERTEX
  5
2C1D
  8
0
 10
141.5861475565237129
 20
98.8772050052086513
 30
0.0
  0
VERTEX
  5
2C1E
  8
0
 10
141.5736659594936953
 20
98.8840535102887515
 30
0.0
  0
VERTEX
  5
2C1F
  8
0
 10
141.5611304719940904
 20
98.8911187965337461
 30
0.0
  0
VERTEX
  5
2C20
  8
0
 10
141.5485503209841909
 20
98.8984043784299303
 30
0.0
  0
VERTEX
  5
2C21
  8
0
 10
141.5359344187127135
 20
98.9059124513564711
 30
0.0
  0
VERTEX
  5
2C22
  8
0
 10
141.5232909937649879
 20
98.9136423451238471
 30
0.0
  0
VERTEX
  5
2C23
  8
0
 10
141.5106281850229095
 20
98.9215930135508756
 30
0.0
  0
VERTEX
  5
2C24
  8
0
 10
141.4979541313680897
 20
98.9297634104563457
 30
0.0
  0
VERTEX
  5
2C25
  8
0
 10
141.4852769716825094
 20
98.9381524896590463
 30
0.0
  0
VERTEX
  5
2C26
  8
0
 10
141.4726048455966065
 20
98.9467592066513788
 30
0.0
  0
VERTEX
  5
2C27
  8
0
 10
141.4599459559019863
 20
98.9555826580655804
 30
0.0
  0
VERTEX
  5
2C28
  8
0
 10
141.4473086155165902
 20
98.9646221866242968
 30
0.0
  0
VERTEX
  5
2C29
  8
0
 10
141.4347011484202881
 20
98.9738771597698417
 30
0.0
  0
VERTEX
  5
2C2A
  8
0
 10
141.4221318785932056
 20
98.9833469449445573
 30
0.0
  0
VERTEX
  5
2C2B
  8
0
 10
141.4096091300154967
 20
98.9930309095907575
 30
0.0
  0
VERTEX
  5
2C2C
  8
0
 10
141.3971412213003873
 20
99.0029284107536256
 30
0.0
  0
VERTEX
  5
2C2D
  8
0
 10
141.3847360927518935
 20
99.0130380725573929
 30
0.0
  0
VERTEX
  5
2C2E
  8
0
 10
141.3724010633974046
 20
99.0233573154914524
 30
0.0
  0
VERTEX
  5
2C2F
  8
0
 10
141.3601433945237886
 20
99.0338834481808448
 30
0.0
  0
VERTEX
  5
2C30
  8
0
 10
141.3479703474177995
 20
99.0446137792505539
 30
0.0
  0
VERTEX
  5
2C31
  8
0
 10
141.3358891833661914
 20
99.0555456173255635
 30
0.0
  0
VERTEX
  5
2C32
  8
0
 10
141.3239071632845878
 20
99.0666762708328434
 30
0.0
  0
VERTEX
  5
2C33
  8
0
 10
141.3120305428587926
 20
99.0780025116005447
 30
0.0
  0
VERTEX
  5
2C34
  8
0
 10
141.3002623842141077
 20
99.0895194067121565
 30
0.0
  0
VERTEX
  5
2C35
  8
0
 10
141.2886051167245967
 20
99.1012216854843331
 30
0.0
  0
VERTEX
  5
2C36
  8
0
 10
141.2770611697644938
 20
99.1131040772336576
 30
0.0
  0
VERTEX
  5
2C37
  8
0
 10
141.2656329727080902
 20
99.1251613112767558
 30
0.0
  0
VERTEX
  5
2C38
  8
0
 10
141.2543229549295916
 20
99.1373881169302535
 30
0.0
  0
VERTEX
  5
2C39
  8
0
 10
141.2431335963823074
 20
99.1497792666254867
 30
0.0
  0
VERTEX
  5
2C3A
  8
0
 10
141.2320697003372914
 20
99.1623315132319334
 30
0.0
  0
VERTEX
  5
2C3B
  8
0
 10
141.2211393126565895
 20
99.1750443736630558
 30
0.0
  0
VERTEX
  5
2C3C
  8
0
 10
141.2103507200656907
 20
99.1879175701487839
 30
0.0
  0
VERTEX
  5
2C3D
  8
0
 10
141.1997122092903965
 20
99.2009508249191043
 30
0.0
  0
VERTEX
  5
2C3E
  8
0
 10
141.1892320670561105
 20
99.2141438602039329
 30
0.0
  0
VERTEX
  5
2C3F
  8
0
 10
141.1789185800884923
 20
99.2274963982332139
 30
0.0
  0
VERTEX
  5
2C40
  8
0
 10
141.1687800351132012
 20
99.2410081612369339
 30
0.0
  0
VERTEX
  5
2C41
  8
0
 10
141.1588247188558967
 20
99.2546788714449946
 30
0.0
  0
VERTEX
  5
2C42
  8
0
 10
141.1490608459556881
 20
99.2685082078296546
 30
0.0
  0
VERTEX
  5
2C43
  8
0
 10
141.1394926591742092
 20
99.2824934659136744
 30
0.0
  0
VERTEX
  5
2C44
  8
0
 10
141.1301184398496957
 20
99.2966283638810836
 30
0.0
  0
VERTEX
  5
2C45
  8
0
 10
141.1209359786413984
 20
99.3109063254685651
 30
0.0
  0
VERTEX
  5
2C46
  8
0
 10
141.1119430662085961
 20
99.3253207744128019
 30
0.0
  0
VERTEX
  5
2C47
  8
0
 10
141.103137493210312
 20
99.3398651344504771
 30
0.0
  0
VERTEX
  5
2C48
  8
0
 10
141.0945170503057113
 20
99.3545328293182166
 30
0.0
  0
VERTEX
  5
2C49
  8
0
 10
141.0860795281539879
 20
99.3693172827527462
 30
0.0
  0
VERTEX
  5
2C4A
  8
0
 10
141.0778227174143922
 20
99.384211918490692
 30
0.0
  0
VERTEX
  5
2C4B
  8
0
 10
141.0697444087460042
 20
99.3992101602687654
 30
0.0
  0
VERTEX
  5
2C4C
  8
0
 10
141.0618423928079892
 20
99.4143054318236352
 30
0.0
  0
VERTEX
  5
2C4D
  8
0
 10
141.0541170790079093
 20
99.4294925947723414
 30
0.0
  0
VERTEX
  5
2C4E
  8
0
 10
141.0465866309548062
 20
99.4447762590607738
 30
0.0
  0
VERTEX
  5
2C4F
  8
0
 10
141.0392765841228027
 20
99.4601650823165357
 30
0.0
  0
VERTEX
  5
2C50
  8
0
 10
141.0322124979030036
 20
99.4756677352997372
 30
0.0
  0
VERTEX
  5
2C51
  8
0
 10
141.0254148860080079
 20
99.4912907930730341
 30
0.0
  0
VERTEX
  5
2C52
  8
0
 10
141.0188538538610032
 20
99.5070198938703072
 30
0.0
  0
VERTEX
  5
2C53
  8
0
 10
141.01247051655929
 20
99.5228286349394438
 30
0.0
  0
VERTEX
  5
2C54
  8
0
 10
141.0062056424877994
 20
99.5386904695232033
 30
0.0
  0
VERTEX
  5
2C55
  8
0
 10
141.000000000031406
 20
99.554578850864246
 30
0.0
  0
SEQEND
  5
2C56
  8
0
  0
POLYLINE
  5
2350
  8
0
 66
     1
 10
0.0
 20
0.0
 30
0.0
  0
VERTEX
  5
2C57
  8
0
 10
141.0000000000003979
 20
95.445421149215008
 30
0.0
  0
VERTEX
  5
2C58
  8
0
 10
141.0076172211234962
 20
95.4644922861465517
 30
0.0
  0
VERTEX
  5
2C59
  8
0
 10
141.0153036495262882
 20
95.4835408669588901
 30
0.0
  0
VERTEX
  5
2C5A
  8
0
 10
141.0231284924882118
 20
95.5025443355328179
 30
0.0
  0
VERTEX
  5
2C5B
  8
0
 10
141.031160957288705
 20
95.5214801357491154
 30
0.0
  0
VERTEX
  5
2C5C
  8
0
 10
141.0394702512076037
 20
95.5403257114886344
 30
0.0
  0
VERTEX
  5
2C5D
  8
0
 10
141.0481255815240047
 20
95.5590585066322262
 30
0.0
  0
VERTEX
  5
2C5E
  8
0
 10
141.0571815169903118
 20
95.5776593419327014
 30
0.0
  0
VERTEX
  5
2C5F
  8
0
 10
141.06663453867111
 20
95.5961224380352661
 30
0.0
  0
VERTEX
  5
2C60
  8
0
 10
141.0764667213865096
 20
95.614445338873125
 30
0.0
  0
VERTEX
  5
2C61
  8
0
 10
141.0866601399567912
 20
95.632625588379625
 30
0.0
  0
VERTEX
  5
2C62
  8
0
 10
141.0971968692022926
 20
95.6506607304879992
 30
0.0
  0
VERTEX
  5
2C63
  8
0
 10
141.1080593981963887
 20
95.6685483882056644
 30
0.0
  0
VERTEX
  5
2C64
  8
0
 10
141.1192356922175009
 20
95.686287229857399
 30
0.0
  0
VERTEX
  5
2C65
  8
0
 10
141.1307175908160048
 20
95.7038766633027365
 30
0.0
  0
VERTEX
  5
2C66
  8
0
 10
141.142497015333106
 20
95.7213161120136959
 30
0.0
  0
VERTEX
  5
2C67
  8
0
 10
141.1545658871098112
 20
95.7386049994622965
 30
0.0
  0
VERTEX
  5
2C68
  8
0
 10
141.1669165416581109
 20
95.7557422647139731
 30
0.0
  0
VERTEX
  5
2C69
  8
0
 10
141.1795465130797993
 20
95.7727207666578551
 30
0.0
  0
VERTEX
  5
2C6A
  8
0
 10
141.1924568811568861
 20
95.7895292172200215
 30
0.0
  0
VERTEX
  5
2C6B
  8
0
 10
141.2056487940103864
 20
95.806156248398409
 30
0.0
  0
VERTEX
  5
2C6C
  8
0
 10
141.2191233997617132
 20
95.822590492190912
 30
0.0
  0
VERTEX
  5
2C6D
  8
0
 10
141.2328810292069932
 20
95.8388205012738439
 30
0.0
  0
VERTEX
  5
2C6E
  8
0
 10
141.2469175778394117
 20
95.8548343978760329
 30
0.0
  0
VERTEX
  5
2C6F
  8
0
 10
141.2612274437526878
 20
95.8706201589033213
 30
0.0
  0
VERTEX
  5
2C70
  8
0
 10
141.275805023879002
 20
95.8861657611487743
 30
0.0
  0
VERTEX
  5
2C71
  8
0
 10
141.2906446374421137
 20
95.9014591856121683
 30
0.0
  0
VERTEX
  5
2C72
  8
0
 10
141.3057376048651861
 20
95.9164885756347445
 30
0.0
  0
VERTEX
  5
2C73
  8
0
 10
141.3210713637649008
 20
95.9312422847551289
 30
0.0
  0
VERTEX
  5
2C74
  8
0
 10
141.3366330935405131
 20
95.9457086804906396
 30
0.0
  0
VERTEX
  5
2C75
  8
0
 10
141.3524099726361953
 20
95.9598761306388326
 30
0.0
  0
VERTEX
  5
2C76
  8
0
 10
141.3683877250090006
 20
95.9737334296186901
 30
0.0
  0
VERTEX
  5
2C77
  8
0
 10
141.384547690401007
 20
95.9872706578009058
 30
0.0
  0
VERTEX
  5
2C78
  8
0
 10
141.400870385793695
 20
96.0004781368833449
 30
0.0
  0
VERTEX
  5
2C79
  8
0
 10
141.4173363281686875
 20
96.0133461885638866
 30
0.0
  0
VERTEX
  5
2C7A
  8
0
 10
141.4339251937475126
 20
96.0258661843517132
 30
0.0
  0
VERTEX
  5
2C7B
  8
0
 10
141.4506123793154018
 20
96.0380348392552037
 30
0.0
  0
VERTEX
  5
2C7C
  8
0
 10
141.4673719235003091
 20
96.0498505641402858
 30
0.0
  0
VERTEX
  5
2C7D
  8
0
 10
141.4841778643765053
 20
96.0613117705639041
 30
0.0
  0
VERTEX
  5
2C7E
  8
0
 10
141.5010047589811109
 20
96.0724162563519855
 30
0.0
  0
VERTEX
  5
2C7F
  8
0
 10
141.517830803243811
 20
96.083157515934559
 30
0.0
  0
VERTEX
  5
2C80
  8
0
 10
141.5346357501948091
 20
96.09352720229694
 30
0.0
  0
VERTEX
  5
2C81
  8
0
 10
141.5513993587584878
 20
96.1035169614542752
 30
0.0
  0
VERTEX
  5
2C82
  8
0
 10
141.5681011357926025
 20
96.1131193151769168
 30
0.0
  0
VERTEX
  5
2C83
  8
0
 10
141.5847182324422988
 20
96.1223349697007876
 30
0.0
  0
VERTEX
  5
2C84
  8
0
 10
141.6012265147300013
 20
96.1311690961698417
 30
0.0
  0
VERTEX
  5
2C85
  8
0
 10
141.6176018357029989
 20
96.1396269108071095
 30
0.0
  0
VERTEX
  5
2C86
  8
0
 10
141.6338200484088929
 20
96.1477136298357351
 30
0.0
  0
VERTEX
  5
2C87
  8
0
 10
141.6498570058950008
 20
96.1554344694787346
 30
0.0
  0
VERTEX
  5
2C88
  8
0
 10
141.6656885612088104
 20
96.162794645959238
 30
0.0
  0
VERTEX
  5
2C89
  8
0
 10
141.6812905673976957
 20
96.1697993755002756
 30
0.0
  0
VERTEX
  5
2C8A
  8
0
 10
141.6966388775090877
 20
96.1764538743249346
 30
0.0
  0
VERTEX
  5
2C8B
  8
0
 10
141.711709611159705
 20
96.1827635008062174
 30
0.0
  0
VERTEX
  5
2C8C
  8
0
 10
141.7264849109780869
 20
96.1887368251300501
 30
0.0
  0
VERTEX
  5
2C8D
  8
0
 10
141.7409528831645957
 20
96.1943855975984263
 30
0.0
  0
VERTEX
  5
2C8E
  8
0
 10
141.7551018886003931
 20
96.1997217043237782
 30
0.0
  0
VERTEX
  5
2C8F
  8
0
 10
141.7689202881668109
 20
96.2047570314184526
 30
0.0
  0
VERTEX
  5
2C90
  8
0
 10
141.7823964427448971
 20
96.2095034649948246
 30
0.0
  0
VERTEX
  5
2C91
  8
0
 10
141.795518713216012
 20
96.2139728911653123
 30
0.0
  0
VERTEX
  5
2C92
  8
0
 10
141.8082754604612035
 20
96.2181771960422481
 30
0.0
  0
VERTEX
  5
2C93
  8
0
 10
141.8206550453618036
 20
96.2221282657380215
 30
0.0
  0
VERTEX
  5
2C94
  8
0
 10
141.8326458349631878
 20
96.225837984647896
 30
0.0
  0
VERTEX
  5
2C95
  8
0
 10
141.8442391490548005
 20
96.2293174146547869
 30
0.0
  0
VERTEX
  5
2C96
  8
0
 10
141.8554339843236107
 20
96.2325754791750967
 30
0.0
  0
VERTEX
  5
2C97
  8
0
 10
141.8662305690668859
 20
96.2356207585496435
 30
0.0
  0
VERTEX
  5
2C98
  8
0
 10
141.8766291315814101
 20
96.2384618331193167
 30
0.0
  0
VERTEX
  5
2C99
  8
0
 10
141.8866299001643938
 20
96.2411072832249062
 30
0.0
  0
VERTEX
  5
2C9A
  8
0
 10
141.8962331031127064
 20
96.2435656892072586
 30
0.0
  0
VERTEX
  5
2C9B
  8
0
 10
141.9054389687233879
 20
96.245845631407235
 30
0.0
  0
VERTEX
  5
2C9C
  8
0
 10
141.9142477252935066
 20
96.2479556901656537
 30
0.0
  0
VERTEX
  5
2C9D
  8
0
 10
141.9226596011199035
 20
96.2499044458233755
 30
0.0
  0
VERTEX
  5
2C9E
  8
0
 10
141.9306741300594013
 20
96.2517003022311002
 30
0.0
  0
VERTEX
  5
2C9F
  8
0
 10
141.9382820142353978
 20
96.2533494186786243
 30
0.0
  0
VERTEX
  5
2CA0
  8
0
 10
141.9454678755328132
 20
96.2548564091795669
 30
0.0
  0
VERTEX
  5
2CA1
  8
0
 10
141.9522162158484093
 20
96.2562258572530425
 30
0.0
  0
VERTEX
  5
2CA2
  8
0
 10
141.9585115370794028
 20
96.2574623464181371
 30
0.0
  0
VERTEX
  5
2CA3
  8
0
 10
141.9643383411226125
 20
96.2585704601939653
 30
0.0
  0
VERTEX
  5
2CA4
  8
0
 10
141.9696811298749992
 20
96.2595547820995847
 30
0.0
  0
VERTEX
  5
2CA5
  8
0
 10
141.9745244052336091
 20
96.2604198956540813
 30
0.0
  0
VERTEX
  5
2CA6
  8
0
 10
141.9788526690954029
 20
96.2611703843765554
 30
0.0
  0
VERTEX
  5
2CA7
  8
0
 10
141.9826504809921062
 20
96.261810837184413
 30
0.0
  0
VERTEX
  5
2CA8
  8
0
 10
141.9859219582955063
 20
96.2623476748699858
 30
0.0
  0
VERTEX
  5
2CA9
  8
0
 10
141.9887191698450124
 20
96.2627918095746935
 30
0.0
  0
VERTEX
  5
2CAA
  8
0
 10
141.9911013988599109
 20
96.2631548291712136
 30
0.0
  0
VERTEX
  5
2CAB
  8
0
 10
141.9931279285594883
 20
96.2634483215320955
 30
0.0
  0
VERTEX
  5
2CAC
  8
0
 10
141.994858042162889
 20
96.2636838745299741
 30
0.0
  0
VERTEX
  5
2CAD
  8
0
 10
141.9963510228893995
 20
96.2638730760374415
 30
0.0
  0
VERTEX
  5
2CAE
  8
0
 10
141.9976661539581926
 20
96.2640275139270756
 30
0.0
  0
VERTEX
  5
2CAF
  8
0
 10
141.998862718588498
 20
96.2641587760715254
 30
0.0
  0
VERTEX
  5
2CB0
  8
0
 10
141.9999999999996021
 20
96.2642784503433546
 30
0.0
  0
SEQEND
  5
2CB1
  8
0
  0
POLYLINE
  5
2351
  8
0
 66
     1
 10
0.0
 20
0.0
 30
0.0
  0
VERTEX
  5
2CB2
  8
0
 10
141.000000000060794
 20
95.4454211491926117
 30
0.0
  0
VERTEX
  5
2CB3
  8
0
 10
140.9949207238713882
 20
95.4306593824397851
 30
0.0
  0
VERTEX
  5
2CB4
  8
0
 10
140.9898763279798004
 20
95.4158889847732468
 30
0.0
  0
VERTEX
  5
2CB5
  8
0
 10
140.9849016926839909
 20
95.4011013252793276
 30
0.0
  0
VERTEX
  5
2CB6
  8
0
 10
140.9800316982816923
 20
95.3862877730443444
 30
0.0
  0
VERTEX
  5
2CB7
  8
0
 10
140.9753012250708935
 20
95.3714396971546137
 30
0.0
  0
VERTEX
  5
2CB8
  8
0
 10
140.9707451533494122
 20
95.3565484666964238
 30
0.0
  0
VERTEX
  5
2CB9
  8
0
 10
140.9663981806698985
 20
95.3416055080195832
 30
0.0
  0
VERTEX
  5
2CBA
  8
0
 10
140.962279871166686
 20
95.3266069895492478
 30
0.0
  0
VERTEX
  5
2CBB
  8
0
 10
140.958383557093498
 20
95.3115572995031783
 30
0.0
  0
VERTEX
  5
2CBC
  8
0
 10
140.9546999554769968
 20
95.296461645583733
 30
0.0
  0
VERTEX
  5
2CBD
  8
0
 10
140.9512197833433902
 20
95.2813252354933553
 30
0.0
  0
VERTEX
  5
2CBE
  8
0
 10
140.9479337577193121
 20
95.2661532769344745
 30
0.0
  0
VERTEX
  5
2CBF
  8
0
 10
140.9448325956313113
 20
95.2509509776094347
 30
0.0
  0
VERTEX
  5
2CC0
  8
0
 10
140.9419076879948136
 20
95.2357233244323567
 30
0.0
  0
VERTEX
  5
2CC1
  8
0
 10
140.9391574319488996
 20
95.220473008846767
 30
0.0
  0
VERTEX
  5
2CC2
  8
0
 10
140.9365843804480107
 20
95.2052013607137155
 30
0.0
  0
VERTEX
  5
2CC3
  8
0
 10
140.9341911410390935
 20
95.1899096920078449
 30
0.0
  0
VERTEX
  5
2CC4
  8
0
 10
140.9319803212692932
 20
95.1745993147038405
 30
0.0
  0
VERTEX
  5
2CC5
  8
0
 10
140.929954528685613
 20
95.1592715407763166
 30
0.0
  0
VERTEX
  5
2CC6
  8
0
 10
140.9281163672623904
 20
95.1439276832437315
 30
0.0
  0
VERTEX
  5
2CC7
  8
0
 10
140.9264675232745105
 20
95.1285693232261735
 30
0.0
  0
VERTEX
  5
2CC8
  8
0
 10
140.9250075505518112
 20
95.1131986648279337
 30
0.0
  0
VERTEX
  5
2CC9
  8
0
 10
140.9237357007503988
 20
95.0978180004318858
 30
0.0
  0
VERTEX
  5
2CCA
  8
0
 10
140.9226512255264936
 20
95.0824296224209746
 30
0.0
  0
VERTEX
  5
2CCB
  8
0
 10
140.921753376536202
 20
95.0670358231781307
 30
0.0
  0
VERTEX
  5
2CCC
  8
0
 10
140.9210414054356022
 20
95.0516388950862847
 30
0.0
  0
VERTEX
  5
2CCD
  8
0
 10
140.9205145986614127
 20
95.0362411034285799
 30
0.0
  0
VERTEX
  5
2CCE
  8
0
 10
140.9201725758942132
 20
95.0208444538362755
 30
0.0
  0
VERTEX
  5
2CCF
  8
0
 10
140.9200151422595013
 20
95.005450807448625
 30
0.0
  0
VERTEX
  5
2CD0
  8
0
 10
140.9200421048811904
 20
94.9900620238477131
 30
0.0
  0
VERTEX
  5
2CD1
  8
0
 10
140.9202532708833076
 20
94.9746799626157809
 30
0.0
  0
VERTEX
  5
2CD2
  8
0
 10
140.9206484473893966
 20
94.9593064833349558
 30
0.0
  0
VERTEX
  5
2CD3
  8
0
 10
140.9212274432794061
 20
94.9439434466943055
 30
0.0
  0
VERTEX
  5
2CD4
  8
0
 10
140.9219902376075879
 20
94.9285928206505361
 30
0.0
  0
VERTEX
  5
2CD5
  8
0
 10
140.9229371193200109
 20
94.9132567684975186
 30
0.0
  0
VERTEX
  5
2CD6
  8
0
 10
140.9240684102497028
 20
94.897937474259237
 30
0.0
  0
VERTEX
  5
2CD7
  8
0
 10
140.925384432230004
 20
94.8826371219596183
 30
0.0
  0
VERTEX
  5
2CD8
  8
0
 10
140.9268855070938002
 20
94.8673578956226038
 30
0.0
  0
VERTEX
  5
2CD9
  8
0
 10
140.9285719566744888
 20
94.8521019792721773
 30
0.0
  0
VERTEX
  5
2CDA
  8
0
 10
140.9304438252360967
 20
94.8368714533804678
 30
0.0
  0
VERTEX
  5
2CDB
  8
0
 10
140.9324991657888972
 20
94.821667655548822
 30
0.0
  0
VERTEX
  5
2CDC
  8
0
 10
140.9347351618648929
 20
94.8064915990049855
 30
0.0
  0
VERTEX
  5
2CDD
  8
0
 10
140.9371489933641897
 20
94.7913442956218546
 30
0.0
  0
VERTEX
  5
2CDE
  8
0
 10
140.9397378401870924
 20
94.7762267572722692
 30
0.0
  0
VERTEX
  5
2CDF
  8
0
 10
140.942498882233707
 20
94.76113999582914
 30
0.0
  0
VERTEX
  5
2CE0
  8
0
 10
140.9454293489033887
 20
94.7460850410587767
 30
0.0
  0
VERTEX
  5
2CE1
  8
0
 10
140.9485303994119931
 20
94.7310643433172288
 30
0.0
  0
VERTEX
  5
2CE2
  8
0
 10
140.9518099115105088
 20
94.7160827816444169
 30
0.0
  0
VERTEX
  5
2CE3
  8
0
 10
140.9552764209844042
 20
94.7011454729531437
 30
0.0
  0
VERTEX
  5
2CE4
  8
0
 10
140.9589384636190061
 20
94.6862575341562547
 30
0.0
  0
VERTEX
  5
2CE5
  8
0
 10
140.9628045751998116
 20
94.6714240821665669
 30
0.0
  0
VERTEX
  5
2CE6
  8
0
 10
140.9668832915120902
 20
94.6566502338969542
 30
0.0
  0
VERTEX
  5
2CE7
  8
0
 10
140.9711807086058002
 20
94.6419402330081851
 30
0.0
  0
VERTEX
  5
2CE8
  8
0
 10
140.9756781125684029
 20
94.6272894429577462
 30
0.0
  0
VERTEX
  5
2CE9
  8
0
 10
140.9803423226782115
 20
94.6126880491133164
 30
0.0
  0
VERTEX
  5
2CEA
  8
0
 10
140.9851399777058134
 20
94.5981261722337337
 30
0.0
  0
VERTEX
  5
2CEB
  8
0
 10
140.9900377164217105
 20
94.5835939330777364
 30
0.0
  0
VERTEX
  5
2CEC
  8
0
 10
140.9950021775964046
 20
94.569081452404177
 30
0.0
  0
VERTEX
  5
2CED
  8
0
 10
141.0000000000005969
 20
94.5545788509717795
 30
0.0
  0
SEQEND
  5
2CEE
  8
0
  0
POLYLINE
  5
2352
  8
0
 66
     1
 10
0.0
 20
0.0
 30
0.0
  0
VERTEX
  5
2CEF
  8
0
 10
141.0000000000424905
 20
100.445421149143101
 30
0.0
  0
VERTEX
  5
2CF0
  8
0
 10
140.9944587010843975
 20
100.4291695113250995
 30
0.0
  0
VERTEX
  5
2CF1
  8
0
 10
140.9889585263368872
 20
100.4129058401972969
 30
0.0
  0
VERTEX
  5
2CF2
  8
0
 10
140.9835406000105138
 20
100.3966181024503044
 30
0.0
  0
VERTEX
  5
2CF3
  8
0
 10
140.9782460463158031
 20
100.3802942647741929
 30
0.0
  0
VERTEX
  5
2CF4
  8
0
 10
140.9731159894633095
 20
100.3639222938594031
 30
0.0
  0
VERTEX
  5
2CF5
  8
0
 10
140.968191553663388
 20
100.3474901563963044
 30
0.0
  0
VERTEX
  5
2CF6
  8
0
 10
140.9635138208178091
 20
100.3309858348240056
 30
0.0
  0
VERTEX
  5
2CF7
  8
0
 10
140.9591102619102969
 20
100.3144023780381957
 30
0.0
  0
VERTEX
  5
2CF8
  8
0
 10
140.9549753033280126
 20
100.2977451352815024
 30
0.0
  0
VERTEX
  5
2CF9
  8
0
 10
140.9510984536649119
 20
100.2810212863700059
 30
0.0
  0
VERTEX
  5
2CFA
  8
0
 10
140.9474692215152061
 20
100.2642380111196019
 30
0.0
  0
VERTEX
  5
2CFB
  8
0
 10
140.944077115472794
 20
100.247402489346598
 30
0.0
  0
VERTEX
  5
2CFC
  8
0
 10
140.9409116441320009
 20
100.2305219008667052
 30
0.0
  0
VERTEX
  5
2CFD
  8
0
 10
140.9379626234826901
 20
100.2136033110434994
 30
0.0
  0
VERTEX
  5
2CFE
  8
0
 10
140.9352266644933138
 20
100.1966512552677955
 30
0.0
  0
VERTEX
  5
2CFF
  8
0
 10
140.9327070236869872
 20
100.1796677945928025
 30
0.0
  0
VERTEX
  5
2D00
  8
0
 10
140.9304072350934121
 20
100.1626548867478022
 30
0.0
  0
VERTEX
  5
2D01
  8
0
 10
140.9283308327424038
 20
100.1456144894619058
 30
0.0
  0
VERTEX
  5
2D02
  8
0
 10
140.9264813506636074
 20
100.1285485604643952
 30
0.0
  0
VERTEX
  5
2D03
  8
0
 10
140.9248623228868098
 20
100.1114590574844954
 30
0.0
  0
VERTEX
  5
2D04
  8
0
 10
140.9234766260971981
 20
100.0943481413913929
 30
0.0
  0
VERTEX
  5
2D05
  8
0
 10
140.9223241764252919
 20
100.0772188879576987
 30
0.0
  0
VERTEX
  5
2D06
  8
0
 10
140.9214040568994051
 20
100.0600746304105968
 30
0.0
  0
VERTEX
  5
2D07
  8
0
 10
140.9207153505022063
 20
100.0429187019913968
 30
0.0
  0
VERTEX
  5
2D08
  8
0
 10
140.9202571402161084
 20
100.0257544359413941
 30
0.0
  0
VERTEX
  5
2D09
  8
0
 10
140.9200285090238935
 20
100.0085851655018985
 30
0.0
  0
VERTEX
  5
2D0A
  8
0
 10
140.9200285718044938
 20
99.9914142239019696
 30
0.0
  0
VERTEX
  5
2D0B
  8
0
 10
140.9202572873720101
 20
99.9742449440490617
 30
0.0
  0
VERTEX
  5
2D0C
  8
0
 10
140.9207155247360106
 20
99.9570806585036138
 30
0.0
  0
VERTEX
  5
2D0D
  8
0
 10
140.9214041980779939
 20
99.9399246998088131
 30
0.0
  0
VERTEX
  5
2D0E
  8
0
 10
140.922324221579288
 20
99.9227804005078752
 30
0.0
  0
VERTEX
  5
2D0F
  8
0
 10
140.9234765094211923
 20
99.90565109314403
 30
0.0
  0
VERTEX
  5
2D10
  8
0
 10
140.9248619757854044
 20
99.888540110260422
 30
0.0
  0
VERTEX
  5
2D11
  8
0
 10
140.9264808252918897
 20
99.8714505651610125
 30
0.0
  0
VERTEX
  5
2D12
  8
0
 10
140.9283302953897135
 20
99.8543846543567213
 30
0.0
  0
VERTEX
  5
2D13
  8
0
 10
140.9304068480525984
 20
99.8373443347531548
 30
0.0
  0
VERTEX
  5
2D14
  8
0
 10
140.9327069452519083
 20
99.8203315632551664
 30
0.0
  0
VERTEX
  5
2D15
  8
0
 10
140.9352270489588079
 20
99.8033482967676093
 30
0.0
  0
VERTEX
  5
2D16
  8
0
 10
140.9379636211446893
 20
99.7863964921953368
 30
0.0
  0
VERTEX
  5
2D17
  8
0
 10
140.9409133343878011
 20
99.7694781848510104
 30
0.0
  0
VERTEX
  5
2D18
  8
0
 10
140.9440791292880988
 20
99.752597743598912
 30
0.0
  0
VERTEX
  5
2D19
  8
0
 10
140.9474711254295869
 20
99.7357622100011554
 30
0.0
  0
VERTEX
  5
2D1A
  8
0
 10
140.9510998362474083
 20
99.7189787722487466
 30
0.0
  0
VERTEX
  5
2D1B
  8
0
 10
140.9549757751767061
 20
99.7022546185325496
 30
0.0
  0
VERTEX
  5
2D1C
  8
0
 10
140.9591094556529072
 20
99.6855969370435702
 30
0.0
  0
VERTEX
  5
2D1D
  8
0
 10
140.9635113911110125
 20
99.6690129159726723
 30
0.0
  0
VERTEX
  5
2D1E
  8
0
 10
140.9681875996683118
 20
99.6525080701411667
 30
0.0
  0
VERTEX
  5
2D1F
  8
0
 10
140.9731113615468132
 20
99.6360757277802236
 30
0.0
  0
VERTEX
  5
2D20
  8
0
 10
140.9782414715253935
 20
99.6197038249548541
 30
0.0
  0
VERTEX
  5
2D21
  8
0
 10
140.9835366599839119
 20
99.6033802737580345
 30
0.0
  0
VERTEX
  5
2D22
  8
0
 10
140.9889556573023981
 20
99.5870929862825705
 30
0.0
  0
VERTEX
  5
2D23
  8
0
 10
140.9944571938609101
 20
99.5708298746213529
 30
0.0
  0
VERTEX
  5
2D24
  8
0
 10
141.0000000000393925
 20
99.5545788508673013
 30
0.0
  0
SEQEND
  5
2D25
  8
0
  0
POLYLINE
  5
2353
  8
0
 66
     1
 10
0.0
 20
0.0
 30
0.0
  0
VERTEX
  5
2D26
  8
0
 10
141.0000000000493969
 20
105.4454211491617031
 30
0.0
  0
VERTEX
  5
2D27
  8
0
 10
140.9944832186733947
 20
105.4292600126016026
 30
0.0
  0
VERTEX
  5
2D28
  8
0
 10
140.9890074701241076
 20
105.4130870392469035
 30
0.0
  0
VERTEX
  5
2D29
  8
0
 10
140.9836137872281938
 20
105.3968903923026943
 30
0.0
  0
VERTEX
  5
2D2A
  8
0
 10
140.9783432028121979
 20
105.3806582349743053
 30
0.0
  0
VERTEX
  5
2D2B
  8
0
 10
140.9732367497030054
 20
105.3643787304669956
 30
0.0
  0
VERTEX
  5
2D2C
  8
0
 10
140.9683354607271895
 20
105.3480400419859961
 30
0.0
  0
VERTEX
  5
2D2D
  8
0
 10
140.9636802642357054
 20
105.3316303700718066
 30
0.0
  0
VERTEX
  5
2D2E
  8
0
 10
140.9592965304946119
 20
105.3151434750574964
 30
0.0
  0
VERTEX
  5
2D2F
  8
0
 10
140.9551777020745078
 20
105.2985845268658949
 30
0.0
  0
VERTEX
  5
2D30
  8
0
 10
140.9513133025280069
 20
105.281960095909298
 30
0.0
  0
VERTEX
  5
2D31
  8
0
 10
140.9476928554074107
 20
105.265276752599604
 30
0.0
  0
VERTEX
  5
2D32
  8
0
 10
140.9443058842653045
 20
105.2485410673487962
 30
0.0
  0
VERTEX
  5
2D33
  8
0
 10
140.9411419126541887
 20
105.2317596105690996
 30
0.0
  0
VERTEX
  5
2D34
  8
0
 10
140.9381909296591004
 20
105.2149387866609942
 30
0.0
  0
VERTEX
  5
2D35
  8
0
 10
140.9354503598013082
 20
105.1980823485074978
 30
0.0
  0
VERTEX
  5
2D36
  8
0
 10
140.932923601570792
 20
105.181191918641602
 30
0.0
  0
VERTEX
  5
2D37
  8
0
 10
140.9306142223009886
 20
105.1642690593856031
 30
0.0
  0
VERTEX
  5
2D38
  8
0
 10
140.9285257893253913
 20
105.1473153330619965
 30
0.0
  0
VERTEX
  5
2D39
  8
0
 10
140.9266618699774085
 20
105.1303323019929934
 30
0.0
  0
VERTEX
  5
2D3A
  8
0
 10
140.9250260315845935
 20
105.1133215285029934
 30
0.0
  0
VERTEX
  5
2D3B
  8
0
 10
140.9236210869214858
 20
105.0962848134831944
 30
0.0
  0
VERTEX
  5
2D3C
  8
0
 10
140.9224470084427026
 20
105.0792248558486932
 30
0.0
  0
VERTEX
  5
2D3D
  8
0
 10
140.9215031004044079
 20
105.0621445657788939
 30
0.0
  0
VERTEX
  5
2D3E
  8
0
 10
140.9207886670623111
 20
105.0450468534534991
 30
0.0
  0
VERTEX
  5
2D3F
  8
0
 10
140.9203030126726048
 20
105.0279346290517992
 30
0.0
  0
VERTEX
  5
2D40
  8
0
 10
140.9200454414911121
 20
105.0108108027533973
 30
0.0
  0
VERTEX
  5
2D41
  8
0
 10
140.9200152985866907
 20
104.9936782861999944
 30
0.0
  0
VERTEX
  5
2D42
  8
0
 10
140.9202128736860118
 20
104.9765400248800944
 30
0.0
  0
VERTEX
  5
2D43
  8
0
 10
140.9206394044975923
 20
104.9593989982478064
 30
0.0
  0
VERTEX
  5
2D44
  8
0
 10
140.9212961702077962
 20
104.9422581872433966
 30
0.0
  0
VERTEX
  5
2D45
  8
0
 10
140.9221844500031011
 20
104.9251205728072023
 30
0.0
  0
VERTEX
  5
2D46
  8
0
 10
140.9233055230695015
 20
104.9079891358795038
 30
0.0
  0
VERTEX
  5
2D47
  8
0
 10
140.9246606685935035
 20
104.8908668574005958
 30
0.0
  0
VERTEX
  5
2D48
  8
0
 10
140.9262504638882092
 20
104.8737565536395948
 30
0.0
  0
VERTEX
  5
2D49
  8
0
 10
140.9280724842321035
 20
104.8566603365395054
 30
0.0
  0
VERTEX
  5
2D4A
  8
0
 10
140.9301235024362882
 20
104.8395801297706953
 30
0.0
  0
VERTEX
  5
2D4B
  8
0
 10
140.9324002913033951
 20
104.8225178570018983
 30
0.0
  0
VERTEX
  5
2D4C
  8
0
 10
140.9348996236363121
 20
104.8054754419020043
 30
0.0
  0
VERTEX
  5
2D4D
  8
0
 10
140.9376182722375006
 20
104.7884548081395053
 30
0.0
  0
VERTEX
  5
2D4E
  8
0
 10
140.9405531857790095
 20
104.7714579367092966
 30
0.0
  0
VERTEX
  5
2D4F
  8
0
 10
140.9437075554328942
 20
104.7544888434101011
 30
0.0
  0
VERTEX
  5
2D50
  8
0
 10
140.9470923535604072
 20
104.7375540803943039
 30
0.0
  0
VERTEX
  5
2D51
  8
0
 10
140.9507190408199904
 20
104.7206603589797993
 30
0.0
  0
VERTEX
  5
2D52
  8
0
 10
140.9545990778703981
 20
104.7038143904843963
 30
0.0
  0
VERTEX
  5
2D53
  8
0
 10
140.9587439253701859
 20
104.6870228862260035
 30
0.0
  0
VERTEX
  5
2D54
  8
0
 10
140.9631650439781083
 20
104.6702925575225009
 30
0.0
  0
VERTEX
  5
2D55
  8
0
 10
140.9678697480746052
 20
104.6536288213351042
 30
0.0
  0
VERTEX
  5
2D56
  8
0
 10
140.9728316516616076
 20
104.6370265742718999
 30
0.0
  0
VERTEX
  5
2D57
  8
0
 10
140.978007979164488
 20
104.6204755965555933
 30
0.0
  0
VERTEX
  5
2D58
  8
0
 10
140.9833558457999914
 20
104.6039656343166939
 30
0.0
  0
VERTEX
  5
2D59
  8
0
 10
140.9888323667850045
 20
104.5874864336859957
 30
0.0
  0
VERTEX
  5
2D5A
  8
0
 10
140.994394657336386
 20
104.5710277407939941
 30
0.0
  0
VERTEX
  5
2D5B
  8
0
 10
140.999999832670909
 20
104.5545793017712981
 30
0.0
  0
SEQEND
  5
2D5C
  8
0
  0
ENDSEC
  0
EOF
